ISO-10303-21;
HEADER;
FILE_DESCRIPTION (( 'STEP AP214' ),
    '1' );
FILE_NAME ('59657.STEP',
    '2023-07-24T15:20:18',
    ( '' ),
    ( '' ),
    'SwSTEP 2.0',
    'SolidWorks 2023',
    '' );
FILE_SCHEMA (( 'AUTOMOTIVE_DESIGN' ));
ENDSEC;

DATA;
#1 = EDGE_LOOP ( 'NONE', ( #168, #356, #87, #66 ) ) ;
#2 = VECTOR ( 'NONE', #249, 1000.000000000000000 ) ;
#3 = CIRCLE ( 'NONE', #101, 5.000000000000000000 ) ;
#4 = COLOUR_RGB ( '',1.000000000000000000, 0.000000000000000000, 0.000000000000000000 ) ;
#5 = EDGE_LOOP ( 'NONE', ( #262, #98, #114, #208 ) ) ;
#6 = ORIENTED_EDGE ( 'NONE', *, *, #183, .F. ) ;
#7 = FACE_OUTER_BOUND ( 'NONE', #139, .T. ) ;
#8 = PRESENTATION_LAYER_ASSIGNMENT (  '', '', ( #165 ) ) ;
#9 = DIRECTION ( 'NONE',  ( 0.000000000000000000, 0.000000000000000000, -1.000000000000000000 ) ) ;
#10 = EDGE_CURVE ( 'NONE', #325, #332, #127, .T. ) ;
#11 = CARTESIAN_POINT ( 'NONE',  ( 4.999999999999999112, 63.00000000000000000, 6.123233995736761352E-16 ) ) ;
#12 = PLANE ( 'NONE',  #108 ) ;
#13 = CARTESIAN_POINT ( 'NONE',  ( 0.000000000000000000, 0.5000000000000000000, 0.000000000000000000 ) ) ;
#14 = SURFACE_SIDE_STYLE ('',( #271 ) ) ;
#15 = CIRCLE ( 'NONE', #42, 0.4999999999999995559 ) ;
#16 = CIRCLE ( 'NONE', #48, 4.999999999999994671 ) ;
#17 = CARTESIAN_POINT ( 'NONE',  ( 0.000000000000000000, 0.000000000000000000, 0.000000000000000000 ) ) ;
#18 = DIRECTION ( 'NONE',  ( -0.000000000000000000, -1.000000000000000000, -0.000000000000000000 ) ) ;
#19 = UNCERTAINTY_MEASURE_WITH_UNIT (LENGTH_MEASURE( 1.000000000000000082E-05 ), #328, 'distance_accuracy_value', 'NONE');
#20 = DIRECTION ( 'NONE',  ( 0.000000000000000000, 0.000000000000000000, 1.000000000000000000 ) ) ;
#21 = DIRECTION ( 'NONE',  ( -1.000000000000000000, 0.000000000000000000, 0.000000000000000000 ) ) ;
#22 = CARTESIAN_POINT ( 'NONE',  ( 5.817072295949928412E-16, 0.000000000000000000, 4.500000000000000888 ) ) ;
#23 = PRESENTATION_LAYER_ASSIGNMENT (  '', '', ( #88 ) ) ;
#24 =( GEOMETRIC_REPRESENTATION_CONTEXT ( 3 ) GLOBAL_UNCERTAINTY_ASSIGNED_CONTEXT ( ( #106 ) ) GLOBAL_UNIT_ASSIGNED_CONTEXT ( ( #159, #250, #191 ) ) REPRESENTATION_CONTEXT ( 'NONE', 'WORKASPACE' ) );
#25 = ORIENTED_EDGE ( 'NONE', *, *, #359, .T. ) ;
#26 =( GEOMETRIC_REPRESENTATION_CONTEXT ( 3 ) GLOBAL_UNCERTAINTY_ASSIGNED_CONTEXT ( ( #224 ) ) GLOBAL_UNIT_ASSIGNED_CONTEXT ( ( #181, #244, #273 ) ) REPRESENTATION_CONTEXT ( 'NONE', 'WORKASPACE' ) );
#27 = CARTESIAN_POINT ( 'NONE',  ( 5.510910596163089556E-16, 0.5000000000000000000, 4.500000000000000888 ) ) ;
#28 = TOROIDAL_SURFACE ( 'NONE', #82, 4.500000000000000888, 0.4999999999999997780 ) ;
#29 = CIRCLE ( 'NONE', #169, 4.500000000000000888 ) ;
#30 = CARTESIAN_POINT ( 'NONE',  ( -4.999999999999992895, 63.00000000000000000, 0.000000000000000000 ) ) ;
#31 =( NAMED_UNIT ( * ) PLANE_ANGLE_UNIT ( ) SI_UNIT ( $, .RADIAN. ) );
#32 = VERTEX_POINT ( 'NONE', #240 ) ;
#33 = ADVANCED_FACE ( 'NONE', ( #268 ), #156, .T. ) ;
#34 =( GEOMETRIC_REPRESENTATION_CONTEXT ( 3 ) GLOBAL_UNCERTAINTY_ASSIGNED_CONTEXT ( ( #80 ) ) GLOBAL_UNIT_ASSIGNED_CONTEXT ( ( #253, #215, #44 ) ) REPRESENTATION_CONTEXT ( 'NONE', 'WORKASPACE' ) );
#35 = DIRECTION ( 'NONE',  ( 0.000000000000000000, -0.000000000000000000, 1.000000000000000000 ) ) ;
#36 = MANIFOLD_SOLID_BREP ( 'Revolve - Cutting Edge', #329 ) ;
#37 = ORIENTED_EDGE ( 'NONE', *, *, #171, .T. ) ;
#38 = SURFACE_SIDE_STYLE ('',( #331 ) ) ;
#39 =( NAMED_UNIT ( * ) PLANE_ANGLE_UNIT ( ) SI_UNIT ( $, .RADIAN. ) );
#40 =( GEOMETRIC_REPRESENTATION_CONTEXT ( 3 ) GLOBAL_UNCERTAINTY_ASSIGNED_CONTEXT ( ( #313 ) ) GLOBAL_UNIT_ASSIGNED_CONTEXT ( ( #241, #304, #358 ) ) REPRESENTATION_CONTEXT ( 'NONE', 'WORKASPACE' ) );
#41 = EDGE_CURVE ( 'NONE', #327, #315, #350, .T. ) ;
#42 = AXIS2_PLACEMENT_3D ( 'NONE', #143, #323, #347 ) ;
#43 = CARTESIAN_POINT ( 'NONE',  ( -4.999999999999992006, 63.00000000000000000, 0.000000000000000000 ) ) ;
#44 =( NAMED_UNIT ( * ) SI_UNIT ( $, .STERADIAN. ) SOLID_ANGLE_UNIT ( ) );
#45 = EDGE_CURVE ( 'NONE', #201, #325, #335, .T. ) ;
#46 = CARTESIAN_POINT ( 'NONE',  ( 0.000000000000000000, 0.000000000000000000, -5.000000000000000000 ) ) ;
#47 = DIRECTION ( 'NONE',  ( 0.000000000000000000, 0.000000000000000000, -1.000000000000000000 ) ) ;
#48 = AXIS2_PLACEMENT_3D ( 'NONE', #291, #362, #345 ) ;
#49 = DIRECTION ( 'NONE',  ( -0.000000000000000000, -1.000000000000000000, -0.000000000000000000 ) ) ;
#50 = PRESENTATION_STYLE_ASSIGNMENT (( #311 ) ) ;
#51 = CARTESIAN_POINT ( 'NONE',  ( 5.000000000000000000, 63.00000000000000000, 6.123233995736762338E-16 ) ) ;
#52 =( NAMED_UNIT ( * ) PLANE_ANGLE_UNIT ( ) SI_UNIT ( $, .RADIAN. ) );
#53 = UNCERTAINTY_MEASURE_WITH_UNIT (LENGTH_MEASURE( 1.000000000000000082E-05 ), #217, 'distance_accuracy_value', 'NONE');
#54 = ORIENTED_EDGE ( 'NONE', *, *, #41, .T. ) ;
#55 = EDGE_CURVE ( 'NONE', #332, #344, #3, .T. ) ;
#56 = CARTESIAN_POINT ( 'NONE',  ( 6.123233995736766282E-16, 0.5000000000000000000, 5.000000000000000000 ) ) ;
#57 = VECTOR ( 'NONE', #105, 1000.000000000000000 ) ;
#58 = AXIS2_PLACEMENT_3D ( 'NONE', #184, #242, #269 ) ;
#59 = PRESENTATION_LAYER_ASSIGNMENT (  '', '', ( #366 ) ) ;
#60 = DIRECTION ( 'NONE',  ( -4.697880814296055710E-17, 1.000000000000000000, -0.000000000000000000 ) ) ;
#61 = EDGE_LOOP ( 'NONE', ( #167, #235 ) ) ;
#62 = DIRECTION ( 'NONE',  ( -1.000000000000000000, 0.000000000000000000, 0.000000000000000000 ) ) ;
#63 = SURFACE_STYLE_USAGE ( .BOTH. , #84 ) ;
#64 = CARTESIAN_POINT ( 'NONE',  ( 5.204170427930421283E-15, 20.00000000000000355, 0.000000000000000000 ) ) ;
#65 = CIRCLE ( 'NONE', #300, 5.000000000000000000 ) ;
#66 = ORIENTED_EDGE ( 'NONE', *, *, #10, .F. ) ;
#67 = CARTESIAN_POINT ( 'NONE',  ( 5.204170427930421283E-15, 20.00000000000000000, 0.000000000000000000 ) ) ;
#68 = ORIENTED_EDGE ( 'NONE', *, *, #73, .F. ) ;
#69 = ORIENTED_EDGE ( 'NONE', *, *, #41, .F. ) ;
#70 = EDGE_CURVE ( 'NONE', #307, #355, #124, .T. ) ;
#71 = DIRECTION ( 'NONE',  ( -0.000000000000000000, -1.000000000000000000, -0.000000000000000000 ) ) ;
#72 = AXIS2_PLACEMENT_3D ( 'NONE', #27, #318, #321 ) ;
#73 = EDGE_CURVE ( 'NONE', #32, #338, #363, .T. ) ;
#74 =( NAMED_UNIT ( * ) PLANE_ANGLE_UNIT ( ) SI_UNIT ( $, .RADIAN. ) );
#75 = DIRECTION ( 'NONE',  ( -0.000000000000000000, -1.000000000000000000, -0.000000000000000000 ) ) ;
#76 = SURFACE_STYLE_USAGE ( .BOTH. , #340 ) ;
#77 = DIRECTION ( 'NONE',  ( -0.000000000000000000, -1.000000000000000000, -0.000000000000000000 ) ) ;
#78 = AXIS2_PLACEMENT_3D ( 'NONE', #298, #71, #119 ) ;
#79 = CARTESIAN_POINT ( 'NONE',  ( 0.000000000000000000, 0.5000000000000000000, 0.000000000000000000 ) ) ;
#80 = UNCERTAINTY_MEASURE_WITH_UNIT (LENGTH_MEASURE( 1.000000000000000082E-05 ), #253, 'distance_accuracy_value', 'NONE');
#81 = AXIS2_PLACEMENT_3D ( 'NONE', #145, #252, #352 ) ;
#82 = AXIS2_PLACEMENT_3D ( 'NONE', #266, #154, #234 ) ;
#83 =( NAMED_UNIT ( * ) PLANE_ANGLE_UNIT ( ) SI_UNIT ( $, .RADIAN. ) );
#84 = SURFACE_SIDE_STYLE ('',( #346 ) ) ;
#85 = CARTESIAN_POINT ( 'NONE',  ( 3.184081677783117402E-15, 63.00000000000000000, 0.000000000000000000 ) ) ;
#86 =( LENGTH_UNIT ( ) NAMED_UNIT ( * ) SI_UNIT ( .MILLI., .METRE. ) );
#87 = ORIENTED_EDGE ( 'NONE', *, *, #55, .F. ) ;
#88 = STYLED_ITEM ( 'NONE', ( #326 ), #211 ) ;
#89 = DIRECTION ( 'NONE',  ( -4.697880814296055710E-17, 1.000000000000000000, -0.000000000000000000 ) ) ;
#90 = ORIENTED_EDGE ( 'NONE', *, *, #70, .T. ) ;
#91 = ADVANCED_FACE ( 'NONE', ( #231 ), #142, .T. ) ;
#92 = SURFACE_STYLE_FILL_AREA ( #239 ) ;
#93 = FILL_AREA_STYLE_COLOUR ( '', #126 ) ;
#94 = SURFACE_SIDE_STYLE ('',( #92 ) ) ;
#95 = ORIENTED_EDGE ( 'NONE', *, *, #45, .F. ) ;
#96 = MECHANICAL_DESIGN_GEOMETRIC_PRESENTATION_REPRESENTATION (  '', ( #259 ), #214 ) ;
#97 = PLANE ( 'NONE',  #58 ) ;
#98 = ORIENTED_EDGE ( 'NONE', *, *, #183, .T. ) ;
#99 = PRESENTATION_STYLE_ASSIGNMENT (( #149 ) ) ;
#100 = CARTESIAN_POINT ( 'NONE',  ( 0.000000000000000000, 0.000000000000000000, 0.000000000000000000 ) ) ;
#101 = AXIS2_PLACEMENT_3D ( 'NONE', #79, #75, #129 ) ;
#102 = CIRCLE ( 'NONE', #112, 4.999999999999996447 ) ;
#103 = ADVANCED_BREP_SHAPE_REPRESENTATION ( '59657', ( #36, #236, #367 ), #152 ) ;
#104 = PRESENTATION_STYLE_ASSIGNMENT (( #212 ) ) ;
#105 = DIRECTION ( 'NONE',  ( -4.697880814296055710E-17, 1.000000000000000000, -0.000000000000000000 ) ) ;
#106 = UNCERTAINTY_MEASURE_WITH_UNIT (LENGTH_MEASURE( 1.000000000000000082E-05 ), #159, 'distance_accuracy_value', 'NONE');
#107 = CARTESIAN_POINT ( 'NONE',  ( 6.123233995736766282E-16, 0.000000000000000000, 5.000000000000000000 ) ) ;
#108 = AXIS2_PLACEMENT_3D ( 'NONE', #223, #276, #47 ) ;
#109 = CIRCLE ( 'NONE', #290, 5.000000000000000000 ) ;
#110 = EDGE_CURVE ( 'NONE', #355, #338, #243, .T. ) ;
#111 = DIRECTION ( 'NONE',  ( -4.697880814296055710E-17, 1.000000000000000000, 0.000000000000000000 ) ) ;
#112 = AXIS2_PLACEMENT_3D ( 'NONE', #314, #230, #195 ) ;
#113 = ADVANCED_FACE ( 'NONE', ( #173 ), #172, .T. ) ;
#114 = ORIENTED_EDGE ( 'NONE', *, *, #343, .F. ) ;
#115 = COLOUR_RGB ( '',0.7921568627450980005, 0.8196078431372548767, 0.9333333333333333481 ) ;
#116 = VECTOR ( 'NONE', #320, 1000.000000000000000 ) ;
#117 = APPLICATION_CONTEXT ( 'automotive_design' ) ;
#118 = ORIENTED_EDGE ( 'NONE', *, *, #45, .T. ) ;
#119 = DIRECTION ( 'NONE',  ( 0.000000000000000000, 0.000000000000000000, -1.000000000000000000 ) ) ;
#120 = ORIENTED_EDGE ( 'NONE', *, *, #144, .F. ) ;
#121 = AXIS2_PLACEMENT_3D ( 'NONE', #100, #49, #277 ) ;
#122 =( GEOMETRIC_REPRESENTATION_CONTEXT ( 3 ) GLOBAL_UNCERTAINTY_ASSIGNED_CONTEXT ( ( #160 ) ) GLOBAL_UNIT_ASSIGNED_CONTEXT ( ( #370, #83, #198 ) ) REPRESENTATION_CONTEXT ( 'NONE', 'WORKASPACE' ) );
#123 = DIRECTION ( 'NONE',  ( 0.000000000000000000, 0.000000000000000000, -1.000000000000000000 ) ) ;
#124 = LINE ( 'NONE', #43, #2 ) ;
#125 = DIRECTION ( 'NONE',  ( -0.000000000000000000, -1.000000000000000000, -0.000000000000000000 ) ) ;
#126 = COLOUR_RGB ( '',1.000000000000000000, 0.000000000000000000, 0.000000000000000000 ) ;
#127 = LINE ( 'NONE', #46, #228 ) ;
#128 = FILL_AREA_STYLE_COLOUR ( '', #150 ) ;
#129 = DIRECTION ( 'NONE',  ( 0.000000000000000000, 0.000000000000000000, -1.000000000000000000 ) ) ;
#130 = FACE_OUTER_BOUND ( 'NONE', #286, .T. ) ;
#131 = ADVANCED_FACE ( 'NONE', ( #148 ), #267, .F. ) ;
#132 = LINE ( 'NONE', #107, #116 ) ;
#133 = SHAPE_DEFINITION_REPRESENTATION ( #258, #103 ) ;
#134 = PRODUCT_DEFINITION_CONTEXT ( 'detailed design', #216, 'design' ) ;
#135 = MECHANICAL_DESIGN_GEOMETRIC_PRESENTATION_REPRESENTATION (  '', ( #140 ), #26 ) ;
#136 = CARTESIAN_POINT ( 'NONE',  ( 0.000000000000000000, 0.5000000000000000000, 0.000000000000000000 ) ) ;
#137 = MECHANICAL_DESIGN_GEOMETRIC_PRESENTATION_REPRESENTATION (  '', ( #165 ), #34 ) ;
#138 = PRODUCT_DEFINITION_FORMATION_WITH_SPECIFIED_SOURCE ( 'ANY', '', #163, .NOT_KNOWN. ) ;
#139 = EDGE_LOOP ( 'NONE', ( #210, #118, #324, #319 ) ) ;
#140 = STYLED_ITEM ( 'NONE', ( #361 ), #36 ) ;
#141 = COLOUR_RGB ( '',1.000000000000000000, 0.000000000000000000, 0.000000000000000000 ) ;
#142 = CYLINDRICAL_SURFACE ( 'NONE', #81, 4.999999999999995559 ) ;
#143 = CARTESIAN_POINT ( 'NONE',  ( 0.000000000000000000, 0.5000000000000000000, -4.500000000000000888 ) ) ;
#144 = EDGE_CURVE ( 'NONE', #338, #355, #102, .T. ) ;
#145 = CARTESIAN_POINT ( 'NONE',  ( 3.184081677783117402E-15, 63.00000000000000000, 0.000000000000000000 ) ) ;
#146 = MECHANICAL_DESIGN_GEOMETRIC_PRESENTATION_REPRESENTATION (  '', ( #182 ), #330 ) ;
#147 = ORIENTED_EDGE ( 'NONE', *, *, #343, .T. ) ;
#148 = FACE_OUTER_BOUND ( 'NONE', #353, .T. ) ;
#149 = SURFACE_STYLE_USAGE ( .BOTH. , #38 ) ;
#150 = COLOUR_RGB ( '',1.000000000000000000, 0.000000000000000000, 0.000000000000000000 ) ;
#151 = CYLINDRICAL_SURFACE ( 'NONE', #78, 5.000000000000000000 ) ;
#152 =( GEOMETRIC_REPRESENTATION_CONTEXT ( 3 ) GLOBAL_UNCERTAINTY_ASSIGNED_CONTEXT ( ( #281 ) ) GLOBAL_UNIT_ASSIGNED_CONTEXT ( ( #158, #52, #369 ) ) REPRESENTATION_CONTEXT ( 'NONE', 'WORKASPACE' ) );
#153 = SURFACE_SIDE_STYLE ('',( #218 ) ) ;
#154 = DIRECTION ( 'NONE',  ( -0.000000000000000000, -1.000000000000000000, -0.000000000000000000 ) ) ;
#155 = FACE_OUTER_BOUND ( 'NONE', #1, .T. ) ;
#156 = TOROIDAL_SURFACE ( 'NONE', #306, 4.500000000000000888, 0.4999999999999997780 ) ;
#157 = FILL_AREA_STYLE ('',( #301 ) ) ;
#158 =( LENGTH_UNIT ( ) NAMED_UNIT ( * ) SI_UNIT ( .MILLI., .METRE. ) );
#159 =( LENGTH_UNIT ( ) NAMED_UNIT ( * ) SI_UNIT ( .MILLI., .METRE. ) );
#160 = UNCERTAINTY_MEASURE_WITH_UNIT (LENGTH_MEASURE( 1.000000000000000082E-05 ), #370, 'distance_accuracy_value', 'NONE');
#161 = DIRECTION ( 'NONE',  ( -0.000000000000000000, -1.000000000000000000, -0.000000000000000000 ) ) ;
#162 = APPLICATION_PROTOCOL_DEFINITION ( 'draft international standard', 'automotive_design', 1998, #117 ) ;
#163 = PRODUCT ( '59657', '59657', '', ( #226 ) ) ;
#164 = AXIS2_PLACEMENT_3D ( 'NONE', #185, #18, #123 ) ;
#165 = STYLED_ITEM ( 'NONE', ( #99 ), #236 ) ;
#166 = FILL_AREA_STYLE_COLOUR ( '', #141 ) ;
#167 = ORIENTED_EDGE ( 'NONE', *, *, #110, .T. ) ;
#168 = ORIENTED_EDGE ( 'NONE', *, *, #316, .T. ) ;
#169 = AXIS2_PLACEMENT_3D ( 'NONE', #342, #161, #251 ) ;
#170 = DIRECTION ( 'NONE',  ( -1.000000000000000000, 0.000000000000000000, 0.000000000000000000 ) ) ;
#171 = EDGE_CURVE ( 'NONE', #332, #315, #15, .T. ) ;
#172 = PLANE ( 'NONE',  #176 ) ;
#173 = FACE_OUTER_BOUND ( 'NONE', #265, .T. ) ;
#174 = ORIENTED_EDGE ( 'NONE', *, *, #73, .T. ) ;
#175 = DIRECTION ( 'NONE',  ( 0.000000000000000000, 1.000000000000000000, 0.000000000000000000 ) ) ;
#176 = AXIS2_PLACEMENT_3D ( 'NONE', #296, #175, #35 ) ;
#177 = ORIENTED_EDGE ( 'NONE', *, *, #348, .T. ) ;
#178 = ORIENTED_EDGE ( 'NONE', *, *, #187, .T. ) ;
#179 = ORIENTED_EDGE ( 'NONE', *, *, #359, .F. ) ;
#180 = FILL_AREA_STYLE_COLOUR ( '', #284 ) ;
#181 =( LENGTH_UNIT ( ) NAMED_UNIT ( * ) SI_UNIT ( .MILLI., .METRE. ) );
#182 = STYLED_ITEM ( 'NONE', ( #196 ), #197 ) ;
#183 = EDGE_CURVE ( 'NONE', #344, #327, #255, .T. ) ;
#184 = CARTESIAN_POINT ( 'NONE',  ( 5.000000000000000000, 63.00000000000000000, 0.000000000000000000 ) ) ;
#185 = CARTESIAN_POINT ( 'NONE',  ( 0.000000000000000000, 20.00000000000000000, 0.000000000000000000 ) ) ;
#186 = DIRECTION ( 'NONE',  ( 0.000000000000000000, 0.000000000000000000, -1.000000000000000000 ) ) ;
#187 = EDGE_CURVE ( 'NONE', #32, #307, #200, .T. ) ;
#188 = FILL_AREA_STYLE ('',( #246 ) ) ;
#189 = PRESENTATION_STYLE_ASSIGNMENT (( #76 ) ) ;
#190 = PRESENTATION_LAYER_ASSIGNMENT (  '', '', ( #272 ) ) ;
#191 =( NAMED_UNIT ( * ) SI_UNIT ( $, .STERADIAN. ) SOLID_ANGLE_UNIT ( ) );
#192 = UNCERTAINTY_MEASURE_WITH_UNIT (LENGTH_MEASURE( 1.000000000000000082E-05 ), #86, 'distance_accuracy_value', 'NONE');
#193 = CARTESIAN_POINT ( 'NONE',  ( 0.000000000000000000, 20.00000000000000000, 0.000000000000000000 ) ) ;
#194 = PRESENTATION_LAYER_ASSIGNMENT (  '', '', ( #259 ) ) ;
#195 = DIRECTION ( 'NONE',  ( -1.000000000000000000, 0.000000000000000000, 0.000000000000000000 ) ) ;
#196 = PRESENTATION_STYLE_ASSIGNMENT (( #63 ) ) ;
#197 = ADVANCED_FACE ( 'NONE', ( #229 ), #28, .T. ) ;
#198 =( NAMED_UNIT ( * ) SI_UNIT ( $, .STERADIAN. ) SOLID_ANGLE_UNIT ( ) );
#199 = COLOUR_RGB ( '',1.000000000000000000, 0.000000000000000000, 0.000000000000000000 ) ;
#200 = CIRCLE ( 'NONE', #351, 4.999999999999994671 ) ;
#201 = VERTEX_POINT ( 'NONE', #317 ) ;
#202 = EDGE_LOOP ( 'NONE', ( #6, #177, #37, #69 ) ) ;
#203 = EDGE_LOOP ( 'NONE', ( #68, #178, #90, #120 ) ) ;
#204 = SURFACE_STYLE_USAGE ( .BOTH. , #94 ) ;
#205 = PRESENTATION_STYLE_ASSIGNMENT (( #260 ) ) ;
#206 = ORIENTED_EDGE ( 'NONE', *, *, #70, .F. ) ;
#207 = FILL_AREA_STYLE ('',( #209 ) ) ;
#208 = ORIENTED_EDGE ( 'NONE', *, *, #171, .F. ) ;
#209 = FILL_AREA_STYLE_COLOUR ( '', #115 ) ;
#210 = ORIENTED_EDGE ( 'NONE', *, *, #354, .F. ) ;
#211 = ADVANCED_FACE ( 'NONE', ( #7 ), #151, .T. ) ;
#212 = SURFACE_STYLE_USAGE ( .BOTH. , #220 ) ;
#213 = COLOUR_RGB ( '',0.7921568627450980005, 0.8196078431372548767, 0.9333333333333333481 ) ;
#214 =( GEOMETRIC_REPRESENTATION_CONTEXT ( 3 ) GLOBAL_UNCERTAINTY_ASSIGNED_CONTEXT ( ( #53 ) ) GLOBAL_UNIT_ASSIGNED_CONTEXT ( ( #217, #74, #245 ) ) REPRESENTATION_CONTEXT ( 'NONE', 'WORKASPACE' ) );
#215 =( NAMED_UNIT ( * ) PLANE_ANGLE_UNIT ( ) SI_UNIT ( $, .RADIAN. ) );
#216 = APPLICATION_CONTEXT ( 'automotive_design' ) ;
#217 =( LENGTH_UNIT ( ) NAMED_UNIT ( * ) SI_UNIT ( .MILLI., .METRE. ) );
#218 = SURFACE_STYLE_FILL_AREA ( #188 ) ;
#219 = SURFACE_STYLE_FILL_AREA ( #247 ) ;
#220 = SURFACE_SIDE_STYLE ('',( #270 ) ) ;
#221 = CYLINDRICAL_SURFACE ( 'NONE', #336, 4.999999999999995559 ) ;
#222 = CARTESIAN_POINT ( 'NONE',  ( 0.000000000000000000, 20.00000000000000000, -5.000000000000000000 ) ) ;
#223 = CARTESIAN_POINT ( 'NONE',  ( 0.000000000000000000, 0.000000000000000000, 0.000000000000000000 ) ) ;
#224 = UNCERTAINTY_MEASURE_WITH_UNIT (LENGTH_MEASURE( 1.000000000000000082E-05 ), #181, 'distance_accuracy_value', 'NONE');
#225 = CARTESIAN_POINT ( 'NONE',  ( 0.000000000000000000, 0.000000000000000000, -4.500000000000000888 ) ) ;
#226 = PRODUCT_CONTEXT ( 'NONE', #117, 'mechanical' ) ;
#227 = PRODUCT_DEFINITION ( 'UNKNOWN', '', #138, #134 ) ;
#228 = VECTOR ( 'NONE', #334, 1000.000000000000000 ) ;
#229 = FACE_OUTER_BOUND ( 'NONE', #202, .T. ) ;
#230 = DIRECTION ( 'NONE',  ( -4.697880814296055710E-17, 1.000000000000000000, -0.000000000000000000 ) ) ;
#231 = FACE_OUTER_BOUND ( 'NONE', #292, .T. ) ;
#232 = MECHANICAL_DESIGN_GEOMETRIC_PRESENTATION_REPRESENTATION (  '', ( #274 ), #122 ) ;
#233 = ORIENTED_EDGE ( 'NONE', *, *, #316, .F. ) ;
#234 = DIRECTION ( 'NONE',  ( 0.000000000000000000, 0.000000000000000000, -1.000000000000000000 ) ) ;
#235 = ORIENTED_EDGE ( 'NONE', *, *, #144, .T. ) ;
#236 = MANIFOLD_SOLID_BREP ( 'Revolve - Tool Body (Straight Shanked)', #254 ) ;
#237 = ORIENTED_EDGE ( 'NONE', *, *, #110, .F. ) ;
#238 = PRESENTATION_LAYER_ASSIGNMENT (  '', '', ( #182 ) ) ;
#239 = FILL_AREA_STYLE ('',( #180 ) ) ;
#240 = CARTESIAN_POINT ( 'NONE',  ( 5.000000000000000000, 20.00000000000000355, 6.123233995736762338E-16 ) ) ;
#241 =( LENGTH_UNIT ( ) NAMED_UNIT ( * ) SI_UNIT ( .MILLI., .METRE. ) );
#242 = DIRECTION ( 'NONE',  ( 4.697880814296055710E-17, -1.000000000000000000, 0.000000000000000000 ) ) ;
#243 = CIRCLE ( 'NONE', #308, 4.999999999999996447 ) ;
#244 =( NAMED_UNIT ( * ) PLANE_ANGLE_UNIT ( ) SI_UNIT ( $, .RADIAN. ) );
#245 =( NAMED_UNIT ( * ) SI_UNIT ( $, .STERADIAN. ) SOLID_ANGLE_UNIT ( ) );
#246 = FILL_AREA_STYLE_COLOUR ( '', #213 ) ;
#247 = FILL_AREA_STYLE ('',( #128 ) ) ;
#248 = DIRECTION ( 'NONE',  ( -0.000000000000000000, -1.000000000000000000, -0.000000000000000000 ) ) ;
#249 = DIRECTION ( 'NONE',  ( -4.697880814296055710E-17, 1.000000000000000000, -0.000000000000000000 ) ) ;
#250 =( NAMED_UNIT ( * ) PLANE_ANGLE_UNIT ( ) SI_UNIT ( $, .RADIAN. ) );
#251 = DIRECTION ( 'NONE',  ( 0.000000000000000000, 0.000000000000000000, -1.000000000000000000 ) ) ;
#252 = DIRECTION ( 'NONE',  ( -4.697880814296055710E-17, 1.000000000000000000, -0.000000000000000000 ) ) ;
#253 =( LENGTH_UNIT ( ) NAMED_UNIT ( * ) SI_UNIT ( .MILLI., .METRE. ) );
#254 = CLOSED_SHELL ( 'NONE', ( #91, #131, #264, #257 ) ) ;
#255 = CIRCLE ( 'NONE', #72, 0.4999999999999995559 ) ;
#256 = DIRECTION ( 'NONE',  ( 0.000000000000000000, 0.000000000000000000, -1.000000000000000000 ) ) ;
#257 = ADVANCED_FACE ( 'NONE', ( #337 ), #97, .F. ) ;
#258 = PRODUCT_DEFINITION_SHAPE ( 'NONE', 'NONE',  #227 ) ;
#259 = STYLED_ITEM ( 'NONE', ( #50 ), #294 ) ;
#260 = SURFACE_STYLE_USAGE ( .BOTH. , #261 ) ;
#261 = SURFACE_SIDE_STYLE ('',( #365 ) ) ;
#262 = ORIENTED_EDGE ( 'NONE', *, *, #55, .T. ) ;
#263 =( GEOMETRIC_REPRESENTATION_CONTEXT ( 3 ) GLOBAL_UNCERTAINTY_ASSIGNED_CONTEXT ( ( #19 ) ) GLOBAL_UNIT_ASSIGNED_CONTEXT ( ( #328, #39, #333 ) ) REPRESENTATION_CONTEXT ( 'NONE', 'WORKASPACE' ) );
#264 = ADVANCED_FACE ( 'NONE', ( #368 ), #221, .T. ) ;
#265 = EDGE_LOOP ( 'NONE', ( #233, #95 ) ) ;
#266 = CARTESIAN_POINT ( 'NONE',  ( 0.000000000000000000, 0.5000000000000000000, 0.000000000000000000 ) ) ;
#267 = PLANE ( 'NONE',  #289 ) ;
#268 = FACE_OUTER_BOUND ( 'NONE', #5, .T. ) ;
#269 = DIRECTION ( 'NONE',  ( 1.000000000000000000, 4.697880814296055710E-17, 0.000000000000000000 ) ) ;
#270 = SURFACE_STYLE_FILL_AREA ( #157 ) ;
#271 = SURFACE_STYLE_FILL_AREA ( #339 ) ;
#272 = STYLED_ITEM ( 'NONE', ( #104 ), #33 ) ;
#273 =( NAMED_UNIT ( * ) SI_UNIT ( $, .STERADIAN. ) SOLID_ANGLE_UNIT ( ) );
#274 = STYLED_ITEM ( 'NONE', ( #205 ), #113 ) ;
#275 = AXIS2_PLACEMENT_3D ( 'NONE', #17, #248, #186 ) ;
#276 = DIRECTION ( 'NONE',  ( 0.000000000000000000, -1.000000000000000000, -0.000000000000000000 ) ) ;
#277 = DIRECTION ( 'NONE',  ( 0.000000000000000000, 0.000000000000000000, -1.000000000000000000 ) ) ;
#278 = APPLICATION_PROTOCOL_DEFINITION ( 'draft international standard', 'automotive_design', 1998, #216 ) ;
#279 = DIRECTION ( 'NONE',  ( -0.000000000000000000, -1.000000000000000000, -0.000000000000000000 ) ) ;
#280 = CARTESIAN_POINT ( 'NONE',  ( 3.184081677783117402E-15, 63.00000000000000000, 0.000000000000000000 ) ) ;
#281 = UNCERTAINTY_MEASURE_WITH_UNIT (LENGTH_MEASURE( 1.000000000000000082E-05 ), #158, 'distance_accuracy_value', 'NONE');
#282 = CARTESIAN_POINT ( 'NONE',  ( 0.000000000000000000, 0.000000000000000000, 0.000000000000000000 ) ) ;
#283 = DIRECTION ( 'NONE',  ( -1.000000000000000000, -4.697880814296055710E-17, 0.000000000000000000 ) ) ;
#284 = COLOUR_RGB ( '',1.000000000000000000, 0.000000000000000000, 0.000000000000000000 ) ;
#285 = FILL_AREA_STYLE ('',( #166 ) ) ;
#286 = EDGE_LOOP ( 'NONE', ( #147, #54 ) ) ;
#287 = PRODUCT_RELATED_PRODUCT_CATEGORY ( 'part', '', ( #163 ) ) ;
#288 = MECHANICAL_DESIGN_GEOMETRIC_PRESENTATION_REPRESENTATION (  '', ( #272 ), #40 ) ;
#289 = AXIS2_PLACEMENT_3D ( 'NONE', #67, #111, #283 ) ;
#290 = AXIS2_PLACEMENT_3D ( 'NONE', #136, #279, #256 ) ;
#291 = CARTESIAN_POINT ( 'NONE',  ( 5.204170427930421283E-15, 20.00000000000000355, 0.000000000000000000 ) ) ;
#292 = EDGE_LOOP ( 'NONE', ( #25, #174, #237, #206 ) ) ;
#293 = FILL_AREA_STYLE ('',( #93 ) ) ;
#294 = ADVANCED_FACE ( 'NONE', ( #130 ), #12, .T. ) ;
#295 = ORIENTED_EDGE ( 'NONE', *, *, #187, .F. ) ;
#296 = CARTESIAN_POINT ( 'NONE',  ( 0.000000000000000000, 20.00000000000000000, 0.000000000000000000 ) ) ;
#297 = MECHANICAL_DESIGN_GEOMETRIC_PRESENTATION_REPRESENTATION (  '', ( #366 ), #24 ) ;
#298 = CARTESIAN_POINT ( 'NONE',  ( 0.000000000000000000, 0.000000000000000000, 0.000000000000000000 ) ) ;
#299 = PRESENTATION_LAYER_ASSIGNMENT (  '', '', ( #140 ) ) ;
#300 = AXIS2_PLACEMENT_3D ( 'NONE', #193, #77, #309 ) ;
#301 = FILL_AREA_STYLE_COLOUR ( '', #199 ) ;
#302 = FILL_AREA_STYLE_COLOUR ( '', #4 ) ;
#303 = ADVANCED_FACE ( 'NONE', ( #155 ), #312, .T. ) ;
#304 =( NAMED_UNIT ( * ) PLANE_ANGLE_UNIT ( ) SI_UNIT ( $, .RADIAN. ) );
#305 = CARTESIAN_POINT ( 'NONE',  ( -4.999999999999989342, 20.00000000000000355, 0.000000000000000000 ) ) ;
#306 = AXIS2_PLACEMENT_3D ( 'NONE', #13, #125, #9 ) ;
#307 = VERTEX_POINT ( 'NONE', #305 ) ;
#308 = AXIS2_PLACEMENT_3D ( 'NONE', #85, #89, #62 ) ;
#309 = DIRECTION ( 'NONE',  ( 0.000000000000000000, 0.000000000000000000, -1.000000000000000000 ) ) ;
#310 = DIRECTION ( 'NONE',  ( 1.000000000000000000, 0.000000000000000000, 0.000000000000000000 ) ) ;
#311 = SURFACE_STYLE_USAGE ( .BOTH. , #14 ) ;
#312 = CYLINDRICAL_SURFACE ( 'NONE', #275, 5.000000000000000000 ) ;
#313 = UNCERTAINTY_MEASURE_WITH_UNIT (LENGTH_MEASURE( 1.000000000000000082E-05 ), #241, 'distance_accuracy_value', 'NONE');
#314 = CARTESIAN_POINT ( 'NONE',  ( 3.184081677783117402E-15, 63.00000000000000000, 0.000000000000000000 ) ) ;
#315 = VERTEX_POINT ( 'NONE', #225 ) ;
#316 = EDGE_CURVE ( 'NONE', #325, #201, #65, .T. ) ;
#317 = CARTESIAN_POINT ( 'NONE',  ( 6.123233995736766282E-16, 20.00000000000000000, 5.000000000000000000 ) ) ;
#318 = DIRECTION ( 'NONE',  ( 1.000000000000000000, 0.000000000000000000, -1.224646799147353207E-16 ) ) ;
#319 = ORIENTED_EDGE ( 'NONE', *, *, #348, .F. ) ;
#320 = DIRECTION ( 'NONE',  ( -0.000000000000000000, -1.000000000000000000, -0.000000000000000000 ) ) ;
#321 = DIRECTION ( 'NONE',  ( -1.224646799147353454E-16, 0.000000000000000000, -1.000000000000000000 ) ) ;
#322 = MECHANICAL_DESIGN_GEOMETRIC_PRESENTATION_REPRESENTATION (  '', ( #88 ), #263 ) ;
#323 = DIRECTION ( 'NONE',  ( -1.000000000000000000, 0.000000000000000000, 0.000000000000000000 ) ) ;
#324 = ORIENTED_EDGE ( 'NONE', *, *, #10, .T. ) ;
#325 = VERTEX_POINT ( 'NONE', #222 ) ;
#326 = PRESENTATION_STYLE_ASSIGNMENT (( #204 ) ) ;
#327 = VERTEX_POINT ( 'NONE', #22 ) ;
#328 =( LENGTH_UNIT ( ) NAMED_UNIT ( * ) SI_UNIT ( .MILLI., .METRE. ) );
#329 = CLOSED_SHELL ( 'NONE', ( #303, #33, #294, #197, #211, #113 ) ) ;
#330 =( GEOMETRIC_REPRESENTATION_CONTEXT ( 3 ) GLOBAL_UNCERTAINTY_ASSIGNED_CONTEXT ( ( #192 ) ) GLOBAL_UNIT_ASSIGNED_CONTEXT ( ( #86, #31, #349 ) ) REPRESENTATION_CONTEXT ( 'NONE', 'WORKASPACE' ) );
#331 = SURFACE_STYLE_FILL_AREA ( #207 ) ;
#332 = VERTEX_POINT ( 'NONE', #364 ) ;
#333 =( NAMED_UNIT ( * ) SI_UNIT ( $, .STERADIAN. ) SOLID_ANGLE_UNIT ( ) );
#334 = DIRECTION ( 'NONE',  ( -0.000000000000000000, -1.000000000000000000, -0.000000000000000000 ) ) ;
#335 = CIRCLE ( 'NONE', #164, 5.000000000000000000 ) ;
#336 = AXIS2_PLACEMENT_3D ( 'NONE', #280, #360, #21 ) ;
#337 = FACE_OUTER_BOUND ( 'NONE', #61, .T. ) ;
#338 = VERTEX_POINT ( 'NONE', #51 ) ;
#339 = FILL_AREA_STYLE ('',( #302 ) ) ;
#340 = SURFACE_SIDE_STYLE ('',( #219 ) ) ;
#341 = PRESENTATION_LAYER_ASSIGNMENT (  '', '', ( #274 ) ) ;
#342 = CARTESIAN_POINT ( 'NONE',  ( 0.000000000000000000, 0.000000000000000000, 0.000000000000000000 ) ) ;
#343 = EDGE_CURVE ( 'NONE', #315, #327, #29, .T. ) ;
#344 = VERTEX_POINT ( 'NONE', #56 ) ;
#345 = DIRECTION ( 'NONE',  ( -1.000000000000000000, 0.000000000000000000, 0.000000000000000000 ) ) ;
#346 = SURFACE_STYLE_FILL_AREA ( #285 ) ;
#347 = DIRECTION ( 'NONE',  ( 0.000000000000000000, 0.000000000000000000, 1.000000000000000000 ) ) ;
#348 = EDGE_CURVE ( 'NONE', #344, #332, #109, .T. ) ;
#349 =( NAMED_UNIT ( * ) SI_UNIT ( $, .STERADIAN. ) SOLID_ANGLE_UNIT ( ) );
#350 = CIRCLE ( 'NONE', #121, 4.500000000000000888 ) ;
#351 = AXIS2_PLACEMENT_3D ( 'NONE', #64, #60, #170 ) ;
#352 = DIRECTION ( 'NONE',  ( -1.000000000000000000, 0.000000000000000000, 0.000000000000000000 ) ) ;
#353 = EDGE_LOOP ( 'NONE', ( #179, #295 ) ) ;
#354 = EDGE_CURVE ( 'NONE', #201, #344, #132, .T. ) ;
#355 = VERTEX_POINT ( 'NONE', #30 ) ;
#356 = ORIENTED_EDGE ( 'NONE', *, *, #354, .T. ) ;
#357 = SURFACE_STYLE_USAGE ( .BOTH. , #153 ) ;
#358 =( NAMED_UNIT ( * ) SI_UNIT ( $, .STERADIAN. ) SOLID_ANGLE_UNIT ( ) );
#359 = EDGE_CURVE ( 'NONE', #307, #32, #16, .T. ) ;
#360 = DIRECTION ( 'NONE',  ( -4.697880814296055710E-17, 1.000000000000000000, -0.000000000000000000 ) ) ;
#361 = PRESENTATION_STYLE_ASSIGNMENT (( #357 ) ) ;
#362 = DIRECTION ( 'NONE',  ( -4.697880814296055710E-17, 1.000000000000000000, -0.000000000000000000 ) ) ;
#363 = LINE ( 'NONE', #11, #57 ) ;
#364 = CARTESIAN_POINT ( 'NONE',  ( 0.000000000000000000, 0.5000000000000000000, -5.000000000000000000 ) ) ;
#365 = SURFACE_STYLE_FILL_AREA ( #293 ) ;
#366 = STYLED_ITEM ( 'NONE', ( #189 ), #303 ) ;
#367 = AXIS2_PLACEMENT_3D ( 'NONE', #282, #20, #310 ) ;
#368 = FACE_OUTER_BOUND ( 'NONE', #203, .T. ) ;
#369 =( NAMED_UNIT ( * ) SI_UNIT ( $, .STERADIAN. ) SOLID_ANGLE_UNIT ( ) );
#370 =( LENGTH_UNIT ( ) NAMED_UNIT ( * ) SI_UNIT ( .MILLI., .METRE. ) );
ENDSEC;
END-ISO-10303-21;
