ISO-10303-21;
HEADER;
FILE_DESCRIPTION (( 'STEP AP214' ),
    '1' );
FILE_NAME ('Micro_RNC-250-14X.STEP',
    '2021-09-03T17:35:23',
    ( '' ),
    ( '' ),
    'SwSTEP 2.0',
    'SolidWorks 2020',
    '' );
FILE_SCHEMA (( 'AUTOMOTIVE_DESIGN' ));
ENDSEC;

DATA;
#1 = DIRECTION ( 'NONE',  ( 1.000000000000000000, 0.0000000000000000000, -0.0000000000000000000 ) ) ;
#2 = SURFACE_STYLE_FILL_AREA ( #206 ) ;
#3 = DIRECTION ( 'NONE',  ( 0.7071067811865484609, 0.0000000000000000000, 0.7071067811865465735 ) ) ;
#4 = VECTOR ( 'NONE', #44, 39.37007874015748143 ) ;
#5 = DIRECTION ( 'NONE',  ( -0.0000000000000000000, -0.0000000000000000000, -1.000000000000000000 ) ) ;
#6 = DIRECTION ( 'NONE',  ( 1.000000000000000000, 0.0000000000000000000, 0.0000000000000000000 ) ) ;
#7 = DIMENSIONAL_EXPONENTS ( 1.000000000000000000, 0.0000000000000000000, 0.0000000000000000000, 0.0000000000000000000, 0.0000000000000000000, 0.0000000000000000000, 0.0000000000000000000 ) ;
#8 = ORIENTED_EDGE ( 'NONE', *, *, #11, .T. ) ;
#9 = EDGE_CURVE ( 'NONE', #144, #34, #102, .T. ) ;
#10 = ORIENTED_EDGE ( 'NONE', *, *, #26, .T. ) ;
#11 = EDGE_CURVE ( 'NONE', #158, #187, #203, .T. ) ;
#12 = DIRECTION ( 'NONE',  ( 0.0000000000000000000, 0.0000000000000000000, -1.000000000000000000 ) ) ;
#13 = FACE_OUTER_BOUND ( 'NONE', #230, .T. ) ;
#14 = APPLICATION_PROTOCOL_DEFINITION ( 'draft international standard', 'automotive_design', 1998, #62 ) ;
#15 = EDGE_LOOP ( 'NONE', ( #157, #29, #30, #111 ) ) ;
#16 = CARTESIAN_POINT ( 'NONE',  ( 0.1250000000000000000, 1.530808498934191509E-17, 3.985000000000000320 ) ) ;
#17 = ORIENTED_EDGE ( 'NONE', *, *, #212, .F. ) ;
#18 = CARTESIAN_POINT ( 'NONE',  ( 0.0000000000000000000, 0.0000000000000000000, 0.0000000000000000000 ) ) ;
#19 = LINE ( 'NONE', #96, #125 ) ;
#20 = SURFACE_SIDE_STYLE ('',( #42 ) ) ;
#21 = FACE_OUTER_BOUND ( 'NONE', #87, .T. ) ;
#22 = EDGE_CURVE ( 'NONE', #141, #239, #207, .T. ) ;
#23 = CARTESIAN_POINT ( 'NONE',  ( 0.0000000000000000000, 0.0000000000000000000, 3.985000000000000320 ) ) ;
#24 = LENGTH_MEASURE_WITH_UNIT ( LENGTH_MEASURE( 0.02539999999999999897 ), #197 );
#25 = ORIENTED_EDGE ( 'NONE', *, *, #22, .F. ) ;
#26 = EDGE_CURVE ( 'NONE', #187, #158, #40, .T. ) ;
#27 = UNCERTAINTY_MEASURE_WITH_UNIT (LENGTH_MEASURE( 1.000000000000000082E-05 ), #153, 'distance_accuracy_value', 'NONE');
#28 = AXIS2_PLACEMENT_3D ( 'NONE', #94, #5, #170 ) ;
#29 = ORIENTED_EDGE ( 'NONE', *, *, #22, .T. ) ;
#30 = ORIENTED_EDGE ( 'NONE', *, *, #155, .F. ) ;
#31 = COLOUR_RGB ( '',0.7921568627450980005, 0.8196078431372548767, 0.9333333333333333481 ) ;
#32 = ORIENTED_EDGE ( 'NONE', *, *, #193, .F. ) ;
#33 = AXIS2_PLACEMENT_3D ( 'NONE', #181, #12, #36 ) ;
#34 = VERTEX_POINT ( 'NONE', #159 ) ;
#35 = CARTESIAN_POINT ( 'NONE',  ( 0.0000000000000000000, 0.0000000000000000000, 4.000000000000000000 ) ) ;
#36 = DIRECTION ( 'NONE',  ( 1.000000000000000000, 0.0000000000000000000, 0.0000000000000000000 ) ) ;
#37 = ORIENTED_EDGE ( 'NONE', *, *, #9, .T. ) ;
#38 = DIRECTION ( 'NONE',  ( -0.0000000000000000000, -0.0000000000000000000, -1.000000000000000000 ) ) ;
#39 = FILL_AREA_STYLE ('',( #216 ) ) ;
#40 = CIRCLE ( 'NONE', #103, 0.003999999999999994879 ) ;
#41 = ADVANCED_BREP_SHAPE_REPRESENTATION ( 'Micro_RNC-250-14X', ( #147, #142 ), #190 ) ;
#42 = SURFACE_STYLE_FILL_AREA ( #39 ) ;
#43 = CARTESIAN_POINT ( 'NONE',  ( -0.1250000000000000000, 0.0000000000000000000, 0.1209999999999996773 ) ) ;
#44 = DIRECTION ( 'NONE',  ( -0.0000000000000000000, -0.0000000000000000000, -1.000000000000000000 ) ) ;
#45 = ORIENTED_EDGE ( 'NONE', *, *, #81, .T. ) ;
#46 = DIMENSIONAL_EXPONENTS ( 1.000000000000000000, 0.0000000000000000000, 0.0000000000000000000, 0.0000000000000000000, 0.0000000000000000000, 0.0000000000000000000, 0.0000000000000000000 ) ;
#47 = PRODUCT_DEFINITION_CONTEXT ( 'detailed design', #146, 'design' ) ;
#48 = PRODUCT_DEFINITION ( 'UNKNOWN', '', #82, #47 ) ;
#49 = CONICAL_SURFACE ( 'NONE', #61, 0.003999999999999994879, 0.7853981633974496113 ) ;
#50 = DIRECTION ( 'NONE',  ( -1.000000000000000000, 0.0000000000000000000, 0.0000000000000000000 ) ) ;
#51 = DIRECTION ( 'NONE',  ( -0.7071067811865499042, 0.0000000000000000000, -0.7071067811865451302 ) ) ;
#52 = AXIS2_PLACEMENT_3D ( 'NONE', #150, #211, #227 ) ;
#53 = ORIENTED_EDGE ( 'NONE', *, *, #112, .F. ) ;
#54 = CARTESIAN_POINT ( 'NONE',  ( 0.1250000000000000000, 1.530808498934191509E-17, 4.000000000000000000 ) ) ;
#55 = DIRECTION ( 'NONE',  ( -1.000000000000000000, 0.0000000000000000000, 0.0000000000000000000 ) ) ;
#56 = ORIENTED_EDGE ( 'NONE', *, *, #11, .F. ) ;
#57 = DIRECTION ( 'NONE',  ( 1.000000000000000000, 0.0000000000000000000, 0.0000000000000000000 ) ) ;
#58 = CIRCLE ( 'NONE', #105, 0.1250000000000000000 ) ;
#59 = CARTESIAN_POINT ( 'NONE',  ( -0.1100000000000001948, 0.0000000000000000000, 4.000000000000000000 ) ) ;
#60 = CARTESIAN_POINT ( 'NONE',  ( 0.0000000000000000000, 0.0000000000000000000, 0.1209999999999996773 ) ) ;
#61 = AXIS2_PLACEMENT_3D ( 'NONE', #205, #107, #228 ) ;
#62 = APPLICATION_CONTEXT ( 'automotive_design' ) ;
#63 =( NAMED_UNIT ( * ) PLANE_ANGLE_UNIT ( ) SI_UNIT ( $, .RADIAN. ) );
#64 = DIMENSIONAL_EXPONENTS ( 1.000000000000000000, 0.0000000000000000000, 0.0000000000000000000, 0.0000000000000000000, 0.0000000000000000000, 0.0000000000000000000, 0.0000000000000000000 ) ;
#65 = ADVANCED_FACE ( 'NONE', ( #109 ), #183, .T. ) ;
#66 = ORIENTED_EDGE ( 'NONE', *, *, #212, .T. ) ;
#67 = ORIENTED_EDGE ( 'NONE', *, *, #104, .F. ) ;
#68 = AXIS2_PLACEMENT_3D ( 'NONE', #114, #168, #1 ) ;
#69 = CARTESIAN_POINT ( 'NONE',  ( 0.0000000000000000000, 0.0000000000000000000, 0.0000000000000000000 ) ) ;
#70 = CONICAL_SURFACE ( 'NONE', #238, 0.1100000000000001948, 0.7853981633974517207 ) ;
#71 = DIRECTION ( 'NONE',  ( -1.000000000000000000, 0.0000000000000000000, 0.0000000000000000000 ) ) ;
#72 = AXIS2_PLACEMENT_3D ( 'NONE', #89, #161, #6 ) ;
#73 = DIRECTION ( 'NONE',  ( 1.000000000000000000, 0.0000000000000000000, -0.0000000000000000000 ) ) ;
#74 = AXIS2_PLACEMENT_3D ( 'NONE', #60, #196, #232 ) ;
#75 = SURFACE_STYLE_USAGE ( .BOTH. , #229 ) ;
#76 =( LENGTH_UNIT ( ) NAMED_UNIT ( * ) SI_UNIT ( $, .METRE. ) );
#77 = LINE ( 'NONE', #233, #226 ) ;
#78 = CARTESIAN_POINT ( 'NONE',  ( 0.003999999999999994879, 0.0000000000000000000, 0.0000000000000000000 ) ) ;
#79 = CARTESIAN_POINT ( 'NONE',  ( -0.1250000000000000000, 0.0000000000000000000, 4.000000000000000000 ) ) ;
#80 = PRODUCT ( 'Micro_RNC-250-14X', 'Micro_RNC-250-14X', '', ( #169 ) ) ;
#81 = EDGE_CURVE ( 'NONE', #239, #34, #129, .T. ) ;
#82 = PRODUCT_DEFINITION_FORMATION_WITH_SPECIFIED_SOURCE ( 'ANY', '', #80, .NOT_KNOWN. ) ;
#83 = UNCERTAINTY_MEASURE_WITH_UNIT (LENGTH_MEASURE( 1.000000000000000082E-05 ), #195, 'distance_accuracy_value', 'NONE');
#84 = MECHANICAL_DESIGN_GEOMETRIC_PRESENTATION_REPRESENTATION (  '', ( #215 ), #135 ) ;
#85 = CIRCLE ( 'NONE', #74, 0.1250000000000000000 ) ;
#86 = DIRECTION ( 'NONE',  ( -1.000000000000000000, 0.0000000000000000000, 0.0000000000000000000 ) ) ;
#87 = EDGE_LOOP ( 'NONE', ( #8, #10 ) ) ;
#88 = AXIS2_PLACEMENT_3D ( 'NONE', #163, #249, #71 ) ;
#89 = CARTESIAN_POINT ( 'NONE',  ( 0.0000000000000000000, 0.0000000000000000000, 0.0000000000000000000 ) ) ;
#90 = ORIENTED_EDGE ( 'NONE', *, *, #201, .T. ) ;
#91 = ADVANCED_FACE ( 'NONE', ( #113 ), #92, .T. ) ;
#92 = PLANE ( 'NONE',  #248 ) ;
#93 = CARTESIAN_POINT ( 'NONE',  ( 0.0000000000000000000, 0.0000000000000000000, 4.000000000000000000 ) ) ;
#94 = CARTESIAN_POINT ( 'NONE',  ( 0.0000000000000000000, 0.0000000000000000000, 4.000000000000000000 ) ) ;
#95 = EDGE_CURVE ( 'NONE', #200, #160, #106, .T. ) ;
#96 = CARTESIAN_POINT ( 'NONE',  ( 0.003999999999999994879, 0.0000000000000000000, 0.0000000000000000000 ) ) ;
#97 = CIRCLE ( 'NONE', #116, 0.1100000000000001948 ) ;
#98 = FACE_OUTER_BOUND ( 'NONE', #101, .T. ) ;
#99 = DIRECTION ( 'NONE',  ( 0.0000000000000000000, 0.0000000000000000000, -1.000000000000000000 ) ) ;
#100 = ORIENTED_EDGE ( 'NONE', *, *, #81, .F. ) ;
#101 = EDGE_LOOP ( 'NONE', ( #209, #45, #186, #17 ) ) ;
#102 = CIRCLE ( 'NONE', #247, 0.1250000000000000000 ) ;
#103 = AXIS2_PLACEMENT_3D ( 'NONE', #69, #224, #86 ) ;
#104 = EDGE_CURVE ( 'NONE', #239, #160, #172, .T. ) ;
#105 = AXIS2_PLACEMENT_3D ( 'NONE', #23, #99, #57 ) ;
#106 = LINE ( 'NONE', #148, #133 ) ;
#107 = DIRECTION ( 'NONE',  ( 0.0000000000000000000, 0.0000000000000000000, 1.000000000000000000 ) ) ;
#108 = PRESENTATION_STYLE_ASSIGNMENT (( #75 ) ) ;
#109 = FACE_OUTER_BOUND ( 'NONE', #15, .T. ) ;
#110 = LENGTH_MEASURE_WITH_UNIT ( LENGTH_MEASURE( 0.02539999999999999897 ), #189 );
#111 = ORIENTED_EDGE ( 'NONE', *, *, #95, .F. ) ;
#112 = EDGE_CURVE ( 'NONE', #200, #141, #97, .T. ) ;
#113 = FACE_OUTER_BOUND ( 'NONE', #178, .T. ) ;
#114 = CARTESIAN_POINT ( 'NONE',  ( 0.0000000000000000000, 0.0000000000000000000, 0.0000000000000000000 ) ) ;
#115 = CARTESIAN_POINT ( 'NONE',  ( -0.003999999999999994879, 7.898971854500427644E-18, 0.0000000000000000000 ) ) ;
#116 = AXIS2_PLACEMENT_3D ( 'NONE', #35, #145, #126 ) ;
#117 = CARTESIAN_POINT ( 'NONE',  ( -0.1250000000000000000, 0.0000000000000000000, 3.985000000000000320 ) ) ;
#118 = PRODUCT_RELATED_PRODUCT_CATEGORY ( 'part', '', ( #80 ) ) ;
#119 = EDGE_LOOP ( 'NONE', ( #100, #244, #66, #32 ) ) ;
#120 = PRESENTATION_LAYER_ASSIGNMENT (  '', '', ( #215 ) ) ;
#121 = ORIENTED_EDGE ( 'NONE', *, *, #223, .T. ) ;
#122 = DIRECTION ( 'NONE',  ( -0.0000000000000000000, -0.0000000000000000000, -1.000000000000000000 ) ) ;
#123 = EDGE_LOOP ( 'NONE', ( #156, #121, #37, #237 ) ) ;
#124 = CARTESIAN_POINT ( 'NONE',  ( 0.1100000000000001948, 1.347111479062090784E-17, 4.000000000000000000 ) ) ;
#125 = VECTOR ( 'NONE', #3, 39.37007874015748143 ) ;
#126 = DIRECTION ( 'NONE',  ( 1.000000000000000000, 0.0000000000000000000, 0.0000000000000000000 ) ) ;
#127 = ORIENTED_EDGE ( 'NONE', *, *, #112, .T. ) ;
#128 = ADVANCED_FACE ( 'NONE', ( #13 ), #49, .T. ) ;
#129 = LINE ( 'NONE', #54, #240 ) ;
#130 = CARTESIAN_POINT ( 'NONE',  ( 0.0000000000000000000, 0.0000000000000000000, 0.1209999999999996773 ) ) ;
#131 = LENGTH_MEASURE_WITH_UNIT ( LENGTH_MEASURE( 0.02539999999999999897 ), #76 );
#132 = CARTESIAN_POINT ( 'NONE',  ( 0.0000000000000000000, 0.0000000000000000000, 4.000000000000000000 ) ) ;
#133 = VECTOR ( 'NONE', #51, 39.37007874015748143 ) ;
#134 = DIRECTION ( 'NONE',  ( -0.7071067811865484609, 8.659560562354943952E-17, 0.7071067811865465735 ) ) ;
#135 =( GEOMETRIC_REPRESENTATION_CONTEXT ( 3 ) GLOBAL_UNCERTAINTY_ASSIGNED_CONTEXT ( ( #143 ) ) GLOBAL_UNIT_ASSIGNED_CONTEXT ( ( #184, #208, #166 ) ) REPRESENTATION_CONTEXT ( 'NONE', 'WORKASPACE' ) );
#136 = CARTESIAN_POINT ( 'NONE',  ( 0.1100000000000001948, 1.438959988998141146E-17, 4.000000000000000000 ) ) ;
#137 = DIRECTION ( 'NONE',  ( 1.000000000000000000, 0.0000000000000000000, 0.0000000000000000000 ) ) ;
#138 = ADVANCED_FACE ( 'NONE', ( #182 ), #180, .T. ) ;
#139 = MECHANICAL_DESIGN_GEOMETRIC_PRESENTATION_REPRESENTATION (  '', ( #164 ), #246 ) ;
#140 = COLOUR_RGB ( '',0.7921568627450980005, 0.8196078431372548767, 0.9333333333333333481 ) ;
#141 = VERTEX_POINT ( 'NONE', #136 ) ;
#142 = AXIS2_PLACEMENT_3D ( 'NONE', #18, #243, #210 ) ;
#143 = UNCERTAINTY_MEASURE_WITH_UNIT (LENGTH_MEASURE( 1.000000000000000082E-05 ), #184, 'distance_accuracy_value', 'NONE');
#144 = VERTEX_POINT ( 'NONE', #43 ) ;
#145 = DIRECTION ( 'NONE',  ( 0.0000000000000000000, 0.0000000000000000000, 1.000000000000000000 ) ) ;
#146 = APPLICATION_CONTEXT ( 'automotive_design' ) ;
#147 = MANIFOLD_SOLID_BREP ( 'Cut-Revolve1', #149 ) ;
#148 = CARTESIAN_POINT ( 'NONE',  ( -0.1100000000000001948, 0.0000000000000000000, 4.000000000000000000 ) ) ;
#149 = CLOSED_SHELL ( 'NONE', ( #138, #65, #214, #236, #91, #154, #128, #173 ) ) ;
#150 = CARTESIAN_POINT ( 'NONE',  ( 0.0000000000000000000, 0.0000000000000000000, 4.000000000000000000 ) ) ;
#151 = PRODUCT_DEFINITION_SHAPE ( 'NONE', 'NONE',  #48 ) ;
#152 = SURFACE_STYLE_USAGE ( .BOTH. , #20 ) ;
#153 =( CONVERSION_BASED_UNIT ( 'INCH', #131 ) LENGTH_UNIT ( ) NAMED_UNIT ( #7 ) );
#154 = ADVANCED_FACE ( 'NONE', ( #192 ), #70, .T. ) ;
#155 = EDGE_CURVE ( 'NONE', #160, #239, #58, .T. ) ;
#156 = ORIENTED_EDGE ( 'NONE', *, *, #26, .F. ) ;
#157 = ORIENTED_EDGE ( 'NONE', *, *, #198, .F. ) ;
#158 = VERTEX_POINT ( 'NONE', #78 ) ;
#159 = CARTESIAN_POINT ( 'NONE',  ( 0.1250000000000000000, 1.530808498934191509E-17, 0.1209999999999996773 ) ) ;
#160 = VERTEX_POINT ( 'NONE', #117 ) ;
#161 = DIRECTION ( 'NONE',  ( 0.0000000000000000000, 0.0000000000000000000, 1.000000000000000000 ) ) ;
#162 = SHAPE_DEFINITION_REPRESENTATION ( #151, #41 ) ;
#163 = CARTESIAN_POINT ( 'NONE',  ( 0.0000000000000000000, 0.0000000000000000000, 0.0000000000000000000 ) ) ;
#164 = STYLED_ITEM ( 'NONE', ( #171 ), #147 ) ;
#165 = CARTESIAN_POINT ( 'NONE',  ( 0.0000000000000000000, 0.0000000000000000000, 4.000000000000000000 ) ) ;
#166 =( NAMED_UNIT ( * ) SI_UNIT ( $, .STERADIAN. ) SOLID_ANGLE_UNIT ( ) );
#167 = AXIS2_PLACEMENT_3D ( 'NONE', #132, #191, #137 ) ;
#168 = DIRECTION ( 'NONE',  ( 0.0000000000000000000, 0.0000000000000000000, 1.000000000000000000 ) ) ;
#169 = PRODUCT_CONTEXT ( 'NONE', #62, 'mechanical' ) ;
#170 = DIRECTION ( 'NONE',  ( -1.000000000000000000, 0.0000000000000000000, 0.0000000000000000000 ) ) ;
#171 = PRESENTATION_STYLE_ASSIGNMENT (( #152 ) ) ;
#172 = CIRCLE ( 'NONE', #33, 0.1250000000000000000 ) ;
#173 = ADVANCED_FACE ( 'NONE', ( #21 ), #194, .F. ) ;
#174 = CYLINDRICAL_SURFACE ( 'NONE', #28, 0.1250000000000000000 ) ;
#175 = CIRCLE ( 'NONE', #167, 0.1100000000000001948 ) ;
#176 =( NAMED_UNIT ( * ) SI_UNIT ( $, .STERADIAN. ) SOLID_ANGLE_UNIT ( ) );
#177 = DIRECTION ( 'NONE',  ( 0.0000000000000000000, 0.0000000000000000000, -1.000000000000000000 ) ) ;
#178 = EDGE_LOOP ( 'NONE', ( #127, #202 ) ) ;
#179 = EDGE_LOOP ( 'NONE', ( #25, #53, #222, #67 ) ) ;
#180 = CONICAL_SURFACE ( 'NONE', #72, 0.003999999999999994879, 0.7853981633974496113 ) ;
#181 = CARTESIAN_POINT ( 'NONE',  ( 0.0000000000000000000, 0.0000000000000000000, 3.985000000000000320 ) ) ;
#182 = FACE_OUTER_BOUND ( 'NONE', #123, .T. ) ;
#183 = CONICAL_SURFACE ( 'NONE', #52, 0.1100000000000001948, 0.7853981633974517207 ) ;
#184 =( CONVERSION_BASED_UNIT ( 'INCH', #110 ) LENGTH_UNIT ( ) NAMED_UNIT ( #64 ) );
#185 = DIRECTION ( 'NONE',  ( -0.0000000000000000000, -0.0000000000000000000, -1.000000000000000000 ) ) ;
#186 = ORIENTED_EDGE ( 'NONE', *, *, #9, .F. ) ;
#187 = VERTEX_POINT ( 'NONE', #115 ) ;
#188 = FILL_AREA_STYLE_COLOUR ( '', #140 ) ;
#189 =( LENGTH_UNIT ( ) NAMED_UNIT ( * ) SI_UNIT ( $, .METRE. ) );
#190 =( GEOMETRIC_REPRESENTATION_CONTEXT ( 3 ) GLOBAL_UNCERTAINTY_ASSIGNED_CONTEXT ( ( #83 ) ) GLOBAL_UNIT_ASSIGNED_CONTEXT ( ( #195, #63, #176 ) ) REPRESENTATION_CONTEXT ( 'NONE', 'WORKASPACE' ) );
#191 = DIRECTION ( 'NONE',  ( 0.0000000000000000000, 0.0000000000000000000, 1.000000000000000000 ) ) ;
#192 = FACE_OUTER_BOUND ( 'NONE', #179, .T. ) ;
#193 = EDGE_CURVE ( 'NONE', #34, #144, #85, .T. ) ;
#194 = PLANE ( 'NONE',  #68 ) ;
#195 =( CONVERSION_BASED_UNIT ( 'INCH', #24 ) LENGTH_UNIT ( ) NAMED_UNIT ( #46 ) );
#196 = DIRECTION ( 'NONE',  ( -0.0000000000000000000, -0.0000000000000000000, -1.000000000000000000 ) ) ;
#197 =( LENGTH_UNIT ( ) NAMED_UNIT ( * ) SI_UNIT ( $, .METRE. ) );
#198 = EDGE_CURVE ( 'NONE', #141, #200, #175, .T. ) ;
#199 = CARTESIAN_POINT ( 'NONE',  ( 0.0000000000000000000, 0.0000000000000000000, 4.000000000000000000 ) ) ;
#200 = VERTEX_POINT ( 'NONE', #59 ) ;
#201 = EDGE_CURVE ( 'NONE', #158, #34, #19, .T. ) ;
#202 = ORIENTED_EDGE ( 'NONE', *, *, #198, .T. ) ;
#203 = CIRCLE ( 'NONE', #88, 0.003999999999999994879 ) ;
#204 = DIRECTION ( 'NONE',  ( 0.0000000000000000000, 0.0000000000000000000, 1.000000000000000000 ) ) ;
#205 = CARTESIAN_POINT ( 'NONE',  ( 0.0000000000000000000, 0.0000000000000000000, 0.0000000000000000000 ) ) ;
#206 = FILL_AREA_STYLE ('',( #188 ) ) ;
#207 = LINE ( 'NONE', #124, #220 ) ;
#208 =( NAMED_UNIT ( * ) PLANE_ANGLE_UNIT ( ) SI_UNIT ( $, .RADIAN. ) );
#209 = ORIENTED_EDGE ( 'NONE', *, *, #155, .T. ) ;
#210 = DIRECTION ( 'NONE',  ( 1.000000000000000000, 0.0000000000000000000, 0.0000000000000000000 ) ) ;
#211 = DIRECTION ( 'NONE',  ( 0.0000000000000000000, 0.0000000000000000000, -1.000000000000000000 ) ) ;
#212 = EDGE_CURVE ( 'NONE', #160, #144, #217, .T. ) ;
#213 = APPLICATION_PROTOCOL_DEFINITION ( 'draft international standard', 'automotive_design', 1998, #146 ) ;
#214 = ADVANCED_FACE ( 'NONE', ( #98 ), #174, .T. ) ;
#215 = STYLED_ITEM ( 'NONE', ( #108 ), #41 ) ;
#216 = FILL_AREA_STYLE_COLOUR ( '', #31 ) ;
#217 = LINE ( 'NONE', #79, #4 ) ;
#218 = PRESENTATION_LAYER_ASSIGNMENT (  '', '', ( #164 ) ) ;
#219 = FACE_OUTER_BOUND ( 'NONE', #119, .T. ) ;
#220 = VECTOR ( 'NONE', #245, 39.37007874015748143 ) ;
#221 = CYLINDRICAL_SURFACE ( 'NONE', #242, 0.1250000000000000000 ) ;
#222 = ORIENTED_EDGE ( 'NONE', *, *, #95, .T. ) ;
#223 = EDGE_CURVE ( 'NONE', #187, #144, #77, .T. ) ;
#224 = DIRECTION ( 'NONE',  ( -0.0000000000000000000, -0.0000000000000000000, -1.000000000000000000 ) ) ;
#225 = ORIENTED_EDGE ( 'NONE', *, *, #223, .F. ) ;
#226 = VECTOR ( 'NONE', #134, 39.37007874015748143 ) ;
#227 = DIRECTION ( 'NONE',  ( -1.000000000000000000, 0.0000000000000000000, 0.0000000000000000000 ) ) ;
#228 = DIRECTION ( 'NONE',  ( 1.000000000000000000, 0.0000000000000000000, 0.0000000000000000000 ) ) ;
#229 = SURFACE_SIDE_STYLE ('',( #2 ) ) ;
#230 = EDGE_LOOP ( 'NONE', ( #225, #56, #90, #241 ) ) ;
#231 = DIRECTION ( 'NONE',  ( -1.000000000000000000, 0.0000000000000000000, 0.0000000000000000000 ) ) ;
#232 = DIRECTION ( 'NONE',  ( -1.000000000000000000, 0.0000000000000000000, 0.0000000000000000000 ) ) ;
#233 = CARTESIAN_POINT ( 'NONE',  ( -0.003999999999999994879, 4.898587196589406797E-19, 0.0000000000000000000 ) ) ;
#234 =( NAMED_UNIT ( * ) PLANE_ANGLE_UNIT ( ) SI_UNIT ( $, .RADIAN. ) );
#235 =( NAMED_UNIT ( * ) SI_UNIT ( $, .STERADIAN. ) SOLID_ANGLE_UNIT ( ) );
#236 = ADVANCED_FACE ( 'NONE', ( #219 ), #221, .T. ) ;
#237 = ORIENTED_EDGE ( 'NONE', *, *, #201, .F. ) ;
#238 = AXIS2_PLACEMENT_3D ( 'NONE', #93, #177, #231 ) ;
#239 = VERTEX_POINT ( 'NONE', #16 ) ;
#240 = VECTOR ( 'NONE', #38, 39.37007874015748143 ) ;
#241 = ORIENTED_EDGE ( 'NONE', *, *, #193, .T. ) ;
#242 = AXIS2_PLACEMENT_3D ( 'NONE', #199, #122, #50 ) ;
#243 = DIRECTION ( 'NONE',  ( 0.0000000000000000000, 0.0000000000000000000, 1.000000000000000000 ) ) ;
#244 = ORIENTED_EDGE ( 'NONE', *, *, #104, .T. ) ;
#245 = DIRECTION ( 'NONE',  ( 0.7071067811865499042, 8.659560562354961208E-17, -0.7071067811865451302 ) ) ;
#246 =( GEOMETRIC_REPRESENTATION_CONTEXT ( 3 ) GLOBAL_UNCERTAINTY_ASSIGNED_CONTEXT ( ( #27 ) ) GLOBAL_UNIT_ASSIGNED_CONTEXT ( ( #153, #234, #235 ) ) REPRESENTATION_CONTEXT ( 'NONE', 'WORKASPACE' ) );
#247 = AXIS2_PLACEMENT_3D ( 'NONE', #130, #185, #55 ) ;
#248 = AXIS2_PLACEMENT_3D ( 'NONE', #165, #204, #73 ) ;
#249 = DIRECTION ( 'NONE',  ( -0.0000000000000000000, -0.0000000000000000000, -1.000000000000000000 ) ) ;
ENDSEC;
END-ISO-10303-21;
