ISO-10303-21;
HEADER;
FILE_DESCRIPTION (( 'STEP AP214' ),
    '1' );
FILE_NAME ('83788.STEP',
    '2023-07-05T16:05:59',
    ( '' ),
    ( '' ),
    'SwSTEP 2.0',
    'SolidWorks 2023',
    '' );
FILE_SCHEMA (( 'AUTOMOTIVE_DESIGN' ));
ENDSEC;

DATA;
#1 = PRESENTATION_LAYER_ASSIGNMENT (  '', '', ( #75 ) ) ;
#2 =( NAMED_UNIT ( * ) PLANE_ANGLE_UNIT ( ) SI_UNIT ( $, .RADIAN. ) );
#3 = PLANE ( 'NONE',  #20 ) ;
#4 = EDGE_LOOP ( 'NONE', ( #177, #196, #255, #25 ) ) ;
#5 = CONICAL_SURFACE ( 'NONE', #159, 22.73032555864674364, 0.5235987755983000369 ) ;
#6 = DIRECTION ( 'NONE',  ( 0.000000000000000000, 0.000000000000000000, 1.000000000000000000 ) ) ;
#7 = APPLICATION_CONTEXT ( 'automotive_design' ) ;
#8 = EDGE_CURVE ( 'NONE', #82, #27, #34, .T. ) ;
#9 =( LENGTH_UNIT ( ) NAMED_UNIT ( * ) SI_UNIT ( $, .METRE. ) );
#10 = AXIS2_PLACEMENT_3D ( 'NONE', #12, #89, #106 ) ;
#11 = EDGE_LOOP ( 'NONE', ( #148, #206 ) ) ;
#12 = CARTESIAN_POINT ( 'NONE',  ( -6.123233995736766036E-17, 2.500000000000000000, 0.000000000000000000 ) ) ;
#13 = CARTESIAN_POINT ( 'NONE',  ( 2.176941369951209721E-16, 0.2165063509461089553, 0.000000000000000000 ) ) ;
#14 = EDGE_CURVE ( 'NONE', #94, #199, #30, .T. ) ;
#15 =( GEOMETRIC_REPRESENTATION_CONTEXT ( 3 ) GLOBAL_UNCERTAINTY_ASSIGNED_CONTEXT ( ( #77 ) ) GLOBAL_UNIT_ASSIGNED_CONTEXT ( ( #47, #214, #259 ) ) REPRESENTATION_CONTEXT ( 'NONE', 'WORKASPACE' ) );
#16 = DIMENSIONAL_EXPONENTS ( 1.000000000000000000, 0.000000000000000000, 0.000000000000000000, 0.000000000000000000, 0.000000000000000000, 0.000000000000000000, 0.000000000000000000 ) ;
#17 = SURFACE_SIDE_STYLE ('',( #240 ) ) ;
#18 = APPLICATION_CONTEXT ( 'automotive_design' ) ;
#19 = FACE_OUTER_BOUND ( 'NONE', #11, .T. ) ;
#20 = AXIS2_PLACEMENT_3D ( 'NONE', #39, #145, #168 ) ;
#21 = ADVANCED_FACE ( 'NONE', ( #181 ), #157, .T. ) ;
#22 = DIRECTION ( 'NONE',  ( 0.000000000000000000, 1.000000000000000000, 0.000000000000000000 ) ) ;
#23 = VECTOR ( 'NONE', #189, 39.37007874015748143 ) ;
#24 = LINE ( 'NONE', #100, #23 ) ;
#25 = ORIENTED_EDGE ( 'NONE', *, *, #29, .F. ) ;
#26 = SURFACE_STYLE_USAGE ( .BOTH. , #244 ) ;
#27 = VERTEX_POINT ( 'NONE', #31 ) ;
#28 = COLOUR_RGB ( '',1.000000000000000000, 0.000000000000000000, 0.000000000000000000 ) ;
#29 = EDGE_CURVE ( 'NONE', #151, #199, #120, .T. ) ;
#30 = LINE ( 'NONE', #63, #54 ) ;
#31 = CARTESIAN_POINT ( 'NONE',  ( 1.530808498934191201E-17, 0.2165063509461090385, -0.1249999999999999861 ) ) ;
#32 = STYLED_ITEM ( 'NONE', ( #131 ), #68 ) ;
#33 = VECTOR ( 'NONE', #254, 39.37007874015748143 ) ;
#34 = LINE ( 'NONE', #198, #220 ) ;
#35 = SURFACE_STYLE_FILL_AREA ( #213 ) ;
#36 =( NAMED_UNIT ( * ) SI_UNIT ( $, .STERADIAN. ) SOLID_ANGLE_UNIT ( ) );
#37 = SURFACE_STYLE_USAGE ( .BOTH. , #17 ) ;
#38 =( NAMED_UNIT ( * ) PLANE_ANGLE_UNIT ( ) SI_UNIT ( $, .RADIAN. ) );
#39 = CARTESIAN_POINT ( 'NONE',  ( 0.1249999999999999861, 2.500000000000000000, 0.000000000000000000 ) ) ;
#40 = DIRECTION ( 'NONE',  ( 0.000000000000000000, 0.000000000000000000, 1.000000000000000000 ) ) ;
#41 = CIRCLE ( 'NONE', #70, 0.1250000000000000555 ) ;
#42 = PRODUCT_DEFINITION_CONTEXT ( 'detailed design', #18, 'design' ) ;
#43 = SURFACE_STYLE_FILL_AREA ( #59 ) ;
#44 = AXIS2_PLACEMENT_3D ( 'NONE', #90, #6, #109 ) ;
#45 = DIRECTION ( 'NONE',  ( -1.000000000000000000, 0.000000000000000000, 0.000000000000000000 ) ) ;
#46 = DIRECTION ( 'NONE',  ( 6.123233995736778362E-17, 0.8660254037844380415, -0.5000000000000009992 ) ) ;
#47 =( CONVERSION_BASED_UNIT ( 'INCH', #179 ) LENGTH_UNIT ( ) NAMED_UNIT ( #175 ) );
#48 = DIRECTION ( 'NONE',  ( -1.221490049109858028E-16, 1.000000000000000000, -0.000000000000000000 ) ) ;
#49 = COLOUR_RGB ( '',1.000000000000000000, 0.000000000000000000, 0.000000000000000000 ) ;
#50 = ORIENTED_EDGE ( 'NONE', *, *, #92, .T. ) ;
#51 = FILL_AREA_STYLE_COLOUR ( '', #184 ) ;
#52 = DIRECTION ( 'NONE',  ( 0.000000000000000000, 0.000000000000000000, -1.000000000000000000 ) ) ;
#53 = SURFACE_STYLE_USAGE ( .BOTH. , #203 ) ;
#54 = VECTOR ( 'NONE', #234, 39.37007874015748143 ) ;
#55 = FACE_OUTER_BOUND ( 'NONE', #85, .T. ) ;
#56 = EDGE_LOOP ( 'NONE', ( #210, #112, #190 ) ) ;
#57 = STYLED_ITEM ( 'NONE', ( #264 ), #103 ) ;
#58 = ADVANCED_FACE ( 'NONE', ( #200 ), #180, .T. ) ;
#59 = FILL_AREA_STYLE ('',( #193 ) ) ;
#60 = APPLICATION_PROTOCOL_DEFINITION ( 'draft international standard', 'automotive_design', 1998, #18 ) ;
#61 = CARTESIAN_POINT ( 'NONE',  ( 0.000000000000000000, 0.000000000000000000, 0.000000000000000000 ) ) ;
#62 =( GEOMETRIC_REPRESENTATION_CONTEXT ( 3 ) GLOBAL_UNCERTAINTY_ASSIGNED_CONTEXT ( ( #167 ) ) GLOBAL_UNIT_ASSIGNED_CONTEXT ( ( #163, #38, #261 ) ) REPRESENTATION_CONTEXT ( 'NONE', 'WORKASPACE' ) );
#63 = CARTESIAN_POINT ( 'NONE',  ( -0.1249999999999999584, 2.500000000000000000, 0.000000000000000000 ) ) ;
#64 = DIRECTION ( 'NONE',  ( -1.221490049109858028E-16, 1.000000000000000000, -0.000000000000000000 ) ) ;
#65 = AXIS2_PLACEMENT_3D ( 'NONE', #72, #165, #188 ) ;
#66 = ADVANCED_BREP_SHAPE_REPRESENTATION ( '83788', ( #68, #256, #44 ), #15 ) ;
#67 = EDGE_CURVE ( 'NONE', #199, #151, #41, .T. ) ;
#68 = MANIFOLD_SOLID_BREP ( 'Revolve - Cutting Edge', #99 ) ;
#69 = DIRECTION ( 'NONE',  ( 0.000000000000000000, -0.000000000000000000, 1.000000000000000000 ) ) ;
#70 = AXIS2_PLACEMENT_3D ( 'NONE', #233, #216, #155 ) ;
#71 = MECHANICAL_DESIGN_GEOMETRIC_PRESENTATION_REPRESENTATION (  '', ( #252 ), #83 ) ;
#72 = CARTESIAN_POINT ( 'NONE',  ( 0.000000000000000000, 39.37007874015748143, 0.000000000000000000 ) ) ;
#73 = CARTESIAN_POINT ( 'NONE',  ( 0.1249999999999999861, 2.500000000000000000, 1.530808498934191201E-17 ) ) ;
#74 = CARTESIAN_POINT ( 'NONE',  ( -0.1250000000000001110, 2.500000000000000000, 0.000000000000000000 ) ) ;
#75 = STYLED_ITEM ( 'NONE', ( #98 ), #160 ) ;
#76 = PRODUCT_DEFINITION ( 'UNKNOWN', '', #178, #42 ) ;
#77 = UNCERTAINTY_MEASURE_WITH_UNIT (LENGTH_MEASURE( 1.000000000000000082E-05 ), #47, 'distance_accuracy_value', 'NONE');
#78 = FACE_OUTER_BOUND ( 'NONE', #211, .T. ) ;
#79 = CARTESIAN_POINT ( 'NONE',  ( 0.000000000000000000, 0.2165063509461090385, 0.1249999999999999861 ) ) ;
#80 = ORIENTED_EDGE ( 'NONE', *, *, #8, .T. ) ;
#81 = CARTESIAN_POINT ( 'NONE',  ( 0.000000000000000000, 39.37007874015748143, 0.000000000000000000 ) ) ;
#82 = VERTEX_POINT ( 'NONE', #61 ) ;
#83 =( GEOMETRIC_REPRESENTATION_CONTEXT ( 3 ) GLOBAL_UNCERTAINTY_ASSIGNED_CONTEXT ( ( #149 ) ) GLOBAL_UNIT_ASSIGNED_CONTEXT ( ( #224, #2, #170 ) ) REPRESENTATION_CONTEXT ( 'NONE', 'WORKASPACE' ) );
#84 =( NAMED_UNIT ( * ) SI_UNIT ( $, .STERADIAN. ) SOLID_ANGLE_UNIT ( ) );
#85 = EDGE_LOOP ( 'NONE', ( #249, #110 ) ) ;
#86 = DIRECTION ( 'NONE',  ( -1.000000000000000000, 0.000000000000000000, 0.000000000000000000 ) ) ;
#87 = AXIS2_PLACEMENT_3D ( 'NONE', #241, #186, #143 ) ;
#88 = LENGTH_MEASURE_WITH_UNIT ( LENGTH_MEASURE( 0.02539999999999999897 ), #9 );
#89 = DIRECTION ( 'NONE',  ( -1.221490049109858028E-16, 1.000000000000000000, -0.000000000000000000 ) ) ;
#90 = CARTESIAN_POINT ( 'NONE',  ( 0.000000000000000000, 0.000000000000000000, 0.000000000000000000 ) ) ;
#91 = EDGE_LOOP ( 'NONE', ( #169, #136 ) ) ;
#92 = EDGE_CURVE ( 'NONE', #94, #236, #248, .T. ) ;
#93 = MECHANICAL_DESIGN_GEOMETRIC_PRESENTATION_REPRESENTATION (  '', ( #75 ), #247 ) ;
#94 = VERTEX_POINT ( 'NONE', #128 ) ;
#95 = DIRECTION ( 'NONE',  ( 0.000000000000000000, 0.000000000000000000, -1.000000000000000000 ) ) ;
#96 = PRESENTATION_LAYER_ASSIGNMENT (  '', '', ( #57 ) ) ;
#97 = PLANE ( 'NONE',  #87 ) ;
#98 = PRESENTATION_STYLE_ASSIGNMENT (( #53 ) ) ;
#99 = CLOSED_SHELL ( 'NONE', ( #215, #103, #160 ) ) ;
#100 = CARTESIAN_POINT ( 'NONE',  ( 0.1249999999999998335, 2.500000000000000000, 1.530808498934190276E-17 ) ) ;
#101 = DIRECTION ( 'NONE',  ( -1.221490049109858028E-16, 1.000000000000000000, -0.000000000000000000 ) ) ;
#102 = ORIENTED_EDGE ( 'NONE', *, *, #258, .F. ) ;
#103 = ADVANCED_FACE ( 'NONE', ( #55 ), #139, .T. ) ;
#104 = PRESENTATION_LAYER_ASSIGNMENT (  '', '', ( #32 ) ) ;
#105 = CARTESIAN_POINT ( 'NONE',  ( 0.000000000000000000, 0.000000000000000000, 0.000000000000000000 ) ) ;
#106 = DIRECTION ( 'NONE',  ( -1.000000000000000000, 0.000000000000000000, 0.000000000000000000 ) ) ;
#107 = AXIS2_PLACEMENT_3D ( 'NONE', #171, #101, #245 ) ;
#108 = PRODUCT ( '83788', '83788', '', ( #176 ) ) ;
#109 = DIRECTION ( 'NONE',  ( 1.000000000000000000, 0.000000000000000000, 0.000000000000000000 ) ) ;
#110 = ORIENTED_EDGE ( 'NONE', *, *, #119, .F. ) ;
#111 = EDGE_CURVE ( 'NONE', #227, #27, #113, .T. ) ;
#112 = ORIENTED_EDGE ( 'NONE', *, *, #258, .T. ) ;
#113 = CIRCLE ( 'NONE', #212, 0.1249999999999999861 ) ;
#114 = CARTESIAN_POINT ( 'NONE',  ( 0.000000000000000000, 0.2165063509461090385, 0.000000000000000000 ) ) ;
#115 = CARTESIAN_POINT ( 'NONE',  ( 0.000000000000000000, 0.2165063509461090385, 0.000000000000000000 ) ) ;
#116 = LENGTH_MEASURE_WITH_UNIT ( LENGTH_MEASURE( 0.02539999999999999897 ), #183 );
#117 =( CONVERSION_BASED_UNIT ( 'INCH', #185 ) LENGTH_UNIT ( ) NAMED_UNIT ( #127 ) );
#118 = FACE_OUTER_BOUND ( 'NONE', #56, .T. ) ;
#119 = EDGE_CURVE ( 'NONE', #27, #227, #122, .T. ) ;
#120 = CIRCLE ( 'NONE', #164, 0.1250000000000000555 ) ;
#121 = CARTESIAN_POINT ( 'NONE',  ( 0.1250000000000000000, 0.2165063509461089553, 1.530808498934191201E-17 ) ) ;
#122 = CIRCLE ( 'NONE', #225, 0.1249999999999999861 ) ;
#123 = ORIENTED_EDGE ( 'NONE', *, *, #14, .F. ) ;
#124 = SURFACE_SIDE_STYLE ('',( #43 ) ) ;
#125 =( NAMED_UNIT ( * ) PLANE_ANGLE_UNIT ( ) SI_UNIT ( $, .RADIAN. ) );
#126 =( LENGTH_UNIT ( ) NAMED_UNIT ( * ) SI_UNIT ( $, .METRE. ) );
#127 = DIMENSIONAL_EXPONENTS ( 1.000000000000000000, 0.000000000000000000, 0.000000000000000000, 0.000000000000000000, 0.000000000000000000, 0.000000000000000000, 0.000000000000000000 ) ;
#128 = CARTESIAN_POINT ( 'NONE',  ( -0.1249999999999995559, 0.2165063509461089553, 0.000000000000000000 ) ) ;
#129 = ADVANCED_FACE ( 'NONE', ( #19 ), #97, .F. ) ;
#130 = SHAPE_DEFINITION_REPRESENTATION ( #221, #66 ) ;
#131 = PRESENTATION_STYLE_ASSIGNMENT (( #158 ) ) ;
#132 = SURFACE_SIDE_STYLE ('',( #35 ) ) ;
#133 = MECHANICAL_DESIGN_GEOMETRIC_PRESENTATION_REPRESENTATION (  '', ( #57 ), #62 ) ;
#134 = CARTESIAN_POINT ( 'NONE',  ( -6.123233995736766036E-17, 2.500000000000000000, 0.000000000000000000 ) ) ;
#135 = DIMENSIONAL_EXPONENTS ( 1.000000000000000000, 0.000000000000000000, 0.000000000000000000, 0.000000000000000000, 0.000000000000000000, 0.000000000000000000, 0.000000000000000000 ) ;
#136 = ORIENTED_EDGE ( 'NONE', *, *, #29, .T. ) ;
#137 = PRESENTATION_LAYER_ASSIGNMENT (  '', '', ( #252 ) ) ;
#138 = FILL_AREA_STYLE_COLOUR ( '', #28 ) ;
#139 = PLANE ( 'NONE',  #141 ) ;
#140 = SURFACE_STYLE_FILL_AREA ( #218 ) ;
#141 = AXIS2_PLACEMENT_3D ( 'NONE', #114, #265, #69 ) ;
#142 = UNCERTAINTY_MEASURE_WITH_UNIT (LENGTH_MEASURE( 1.000000000000000082E-05 ), #260, 'distance_accuracy_value', 'NONE');
#143 = DIRECTION ( 'NONE',  ( -1.000000000000000000, -1.221490049109858028E-16, 0.000000000000000000 ) ) ;
#144 =( LENGTH_UNIT ( ) NAMED_UNIT ( * ) SI_UNIT ( $, .METRE. ) );
#145 = DIRECTION ( 'NONE',  ( 1.221490049109858028E-16, -1.000000000000000000, 0.000000000000000000 ) ) ;
#146 = FILL_AREA_STYLE_COLOUR ( '', #49 ) ;
#147 = MECHANICAL_DESIGN_GEOMETRIC_PRESENTATION_REPRESENTATION (  '', ( #242 ), #197 ) ;
#148 = ORIENTED_EDGE ( 'NONE', *, *, #92, .F. ) ;
#149 = UNCERTAINTY_MEASURE_WITH_UNIT (LENGTH_MEASURE( 1.000000000000000082E-05 ), #224, 'distance_accuracy_value', 'NONE');
#150 = PRODUCT_RELATED_PRODUCT_CATEGORY ( 'part', '', ( #108 ) ) ;
#151 = VERTEX_POINT ( 'NONE', #73 ) ;
#152 = DIMENSIONAL_EXPONENTS ( 1.000000000000000000, 0.000000000000000000, 0.000000000000000000, 0.000000000000000000, 0.000000000000000000, 0.000000000000000000, 0.000000000000000000 ) ;
#153 = DIRECTION ( 'NONE',  ( -1.000000000000000000, 0.000000000000000000, 0.000000000000000000 ) ) ;
#154 = MECHANICAL_DESIGN_GEOMETRIC_PRESENTATION_REPRESENTATION (  '', ( #32 ), #235 ) ;
#155 = DIRECTION ( 'NONE',  ( -1.000000000000000000, 0.000000000000000000, 0.000000000000000000 ) ) ;
#156 = LINE ( 'NONE', #105, #33 ) ;
#157 = CYLINDRICAL_SURFACE ( 'NONE', #10, 0.1249999999999999029 ) ;
#158 = SURFACE_STYLE_USAGE ( .BOTH. , #132 ) ;
#159 = AXIS2_PLACEMENT_3D ( 'NONE', #81, #22, #40 ) ;
#160 = ADVANCED_FACE ( 'NONE', ( #118 ), #192, .T. ) ;
#161 =( NAMED_UNIT ( * ) PLANE_ANGLE_UNIT ( ) SI_UNIT ( $, .RADIAN. ) );
#162 =( NAMED_UNIT ( * ) PLANE_ANGLE_UNIT ( ) SI_UNIT ( $, .RADIAN. ) );
#163 =( CONVERSION_BASED_UNIT ( 'INCH', #116 ) LENGTH_UNIT ( ) NAMED_UNIT ( #16 ) );
#164 = AXIS2_PLACEMENT_3D ( 'NONE', #134, #48, #86 ) ;
#165 = DIRECTION ( 'NONE',  ( 0.000000000000000000, 1.000000000000000000, 0.000000000000000000 ) ) ;
#166 = ADVANCED_FACE ( 'NONE', ( #250 ), #3, .F. ) ;
#167 = UNCERTAINTY_MEASURE_WITH_UNIT (LENGTH_MEASURE( 1.000000000000000082E-05 ), #163, 'distance_accuracy_value', 'NONE');
#168 = DIRECTION ( 'NONE',  ( 1.000000000000000000, 1.221490049109858028E-16, 0.000000000000000000 ) ) ;
#169 = ORIENTED_EDGE ( 'NONE', *, *, #67, .T. ) ;
#170 =( NAMED_UNIT ( * ) SI_UNIT ( $, .STERADIAN. ) SOLID_ANGLE_UNIT ( ) );
#171 = CARTESIAN_POINT ( 'NONE',  ( 2.176941369951209721E-16, 0.2165063509461089553, 0.000000000000000000 ) ) ;
#172 = ORIENTED_EDGE ( 'NONE', *, *, #67, .F. ) ;
#173 = ORIENTED_EDGE ( 'NONE', *, *, #243, .T. ) ;
#174 = APPLICATION_PROTOCOL_DEFINITION ( 'draft international standard', 'automotive_design', 1998, #7 ) ;
#175 = DIMENSIONAL_EXPONENTS ( 1.000000000000000000, 0.000000000000000000, 0.000000000000000000, 0.000000000000000000, 0.000000000000000000, 0.000000000000000000, 0.000000000000000000 ) ;
#176 = PRODUCT_CONTEXT ( 'NONE', #7, 'mechanical' ) ;
#177 = ORIENTED_EDGE ( 'NONE', *, *, #243, .F. ) ;
#178 = PRODUCT_DEFINITION_FORMATION_WITH_SPECIFIED_SOURCE ( 'ANY', '', #108, .NOT_KNOWN. ) ;
#179 = LENGTH_MEASURE_WITH_UNIT ( LENGTH_MEASURE( 0.02539999999999999897 ), #232 );
#180 = CYLINDRICAL_SURFACE ( 'NONE', #195, 0.1249999999999999029 ) ;
#181 = FACE_OUTER_BOUND ( 'NONE', #4, .T. ) ;
#182 = COLOUR_RGB ( '',0.7921568627450980005, 0.8196078431372548767, 0.9333333333333333481 ) ;
#183 =( LENGTH_UNIT ( ) NAMED_UNIT ( * ) SI_UNIT ( $, .METRE. ) );
#184 = COLOUR_RGB ( '',1.000000000000000000, 0.000000000000000000, 0.000000000000000000 ) ;
#185 = LENGTH_MEASURE_WITH_UNIT ( LENGTH_MEASURE( 0.02539999999999999897 ), #219 );
#186 = DIRECTION ( 'NONE',  ( -1.221490049109858028E-16, 1.000000000000000000, 0.000000000000000000 ) ) ;
#187 = PRESENTATION_LAYER_ASSIGNMENT (  '', '', ( #242 ) ) ;
#188 = DIRECTION ( 'NONE',  ( 0.000000000000000000, 0.000000000000000000, 1.000000000000000000 ) ) ;
#189 = DIRECTION ( 'NONE',  ( -1.221490049109858028E-16, 1.000000000000000000, -0.000000000000000000 ) ) ;
#190 = ORIENTED_EDGE ( 'NONE', *, *, #111, .T. ) ;
#191 = PRESENTATION_STYLE_ASSIGNMENT (( #207 ) ) ;
#192 = CONICAL_SURFACE ( 'NONE', #65, 22.73032555864674364, 0.5235987755983000369 ) ;
#193 = FILL_AREA_STYLE_COLOUR ( '', #182 ) ;
#194 = FILL_AREA_STYLE_COLOUR ( '', #263 ) ;
#195 = AXIS2_PLACEMENT_3D ( 'NONE', #257, #64, #153 ) ;
#196 = ORIENTED_EDGE ( 'NONE', *, *, #253, .T. ) ;
#197 =( GEOMETRIC_REPRESENTATION_CONTEXT ( 3 ) GLOBAL_UNCERTAINTY_ASSIGNED_CONTEXT ( ( #229 ) ) GLOBAL_UNIT_ASSIGNED_CONTEXT ( ( #209, #125, #84 ) ) REPRESENTATION_CONTEXT ( 'NONE', 'WORKASPACE' ) );
#198 = CARTESIAN_POINT ( 'NONE',  ( 0.000000000000000000, 0.000000000000000000, 0.000000000000000000 ) ) ;
#199 = VERTEX_POINT ( 'NONE', #74 ) ;
#200 = FACE_OUTER_BOUND ( 'NONE', #246, .T. ) ;
#201 = AXIS2_PLACEMENT_3D ( 'NONE', #13, #231, #45 ) ;
#202 = DIRECTION ( 'NONE',  ( -0.000000000000000000, -1.000000000000000000, -0.000000000000000000 ) ) ;
#203 = SURFACE_SIDE_STYLE ('',( #140 ) ) ;
#204 = CIRCLE ( 'NONE', #107, 0.1249999999999997780 ) ;
#205 = FILL_AREA_STYLE ('',( #146 ) ) ;
#206 = ORIENTED_EDGE ( 'NONE', *, *, #253, .F. ) ;
#207 = SURFACE_STYLE_USAGE ( .BOTH. , #124 ) ;
#208 = ORIENTED_EDGE ( 'NONE', *, *, #119, .T. ) ;
#209 =( CONVERSION_BASED_UNIT ( 'INCH', #228 ) LENGTH_UNIT ( ) NAMED_UNIT ( #135 ) );
#210 = ORIENTED_EDGE ( 'NONE', *, *, #8, .F. ) ;
#211 = EDGE_LOOP ( 'NONE', ( #102, #80, #208 ) ) ;
#212 = AXIS2_PLACEMENT_3D ( 'NONE', #115, #237, #52 ) ;
#213 = FILL_AREA_STYLE ('',( #194 ) ) ;
#214 =( NAMED_UNIT ( * ) PLANE_ANGLE_UNIT ( ) SI_UNIT ( $, .RADIAN. ) );
#215 = ADVANCED_FACE ( 'NONE', ( #78 ), #5, .T. ) ;
#216 = DIRECTION ( 'NONE',  ( -1.221490049109858028E-16, 1.000000000000000000, -0.000000000000000000 ) ) ;
#217 = FILL_AREA_STYLE ('',( #51 ) ) ;
#218 = FILL_AREA_STYLE ('',( #138 ) ) ;
#219 =( LENGTH_UNIT ( ) NAMED_UNIT ( * ) SI_UNIT ( $, .METRE. ) );
#220 = VECTOR ( 'NONE', #46, 39.37007874015748143 ) ;
#221 = PRODUCT_DEFINITION_SHAPE ( 'NONE', 'NONE',  #76 ) ;
#222 = UNCERTAINTY_MEASURE_WITH_UNIT (LENGTH_MEASURE( 1.000000000000000082E-05 ), #117, 'distance_accuracy_value', 'NONE');
#223 = LENGTH_MEASURE_WITH_UNIT ( LENGTH_MEASURE( 0.02539999999999999897 ), #144 );
#224 =( CONVERSION_BASED_UNIT ( 'INCH', #223 ) LENGTH_UNIT ( ) NAMED_UNIT ( #152 ) );
#225 = AXIS2_PLACEMENT_3D ( 'NONE', #239, #202, #95 ) ;
#226 = SURFACE_STYLE_FILL_AREA ( #205 ) ;
#227 = VERTEX_POINT ( 'NONE', #79 ) ;
#228 = LENGTH_MEASURE_WITH_UNIT ( LENGTH_MEASURE( 0.02539999999999999897 ), #126 );
#229 = UNCERTAINTY_MEASURE_WITH_UNIT (LENGTH_MEASURE( 1.000000000000000082E-05 ), #209, 'distance_accuracy_value', 'NONE');
#230 = PRESENTATION_STYLE_ASSIGNMENT (( #26 ) ) ;
#231 = DIRECTION ( 'NONE',  ( -1.221490049109858028E-16, 1.000000000000000000, -0.000000000000000000 ) ) ;
#232 =( LENGTH_UNIT ( ) NAMED_UNIT ( * ) SI_UNIT ( $, .METRE. ) );
#233 = CARTESIAN_POINT ( 'NONE',  ( -6.123233995736766036E-17, 2.500000000000000000, 0.000000000000000000 ) ) ;
#234 = DIRECTION ( 'NONE',  ( -1.221490049109858028E-16, 1.000000000000000000, -0.000000000000000000 ) ) ;
#235 =( GEOMETRIC_REPRESENTATION_CONTEXT ( 3 ) GLOBAL_UNCERTAINTY_ASSIGNED_CONTEXT ( ( #142 ) ) GLOBAL_UNIT_ASSIGNED_CONTEXT ( ( #260, #161, #36 ) ) REPRESENTATION_CONTEXT ( 'NONE', 'WORKASPACE' ) );
#236 = VERTEX_POINT ( 'NONE', #121 ) ;
#237 = DIRECTION ( 'NONE',  ( -0.000000000000000000, -1.000000000000000000, -0.000000000000000000 ) ) ;
#238 = CLOSED_SHELL ( 'NONE', ( #58, #129, #21, #166 ) ) ;
#239 = CARTESIAN_POINT ( 'NONE',  ( 0.000000000000000000, 0.2165063509461090385, 0.000000000000000000 ) ) ;
#240 = SURFACE_STYLE_FILL_AREA ( #217 ) ;
#241 = CARTESIAN_POINT ( 'NONE',  ( 2.176941369951209721E-16, 0.2165063509461090385, 0.000000000000000000 ) ) ;
#242 = STYLED_ITEM ( 'NONE', ( #191 ), #256 ) ;
#243 = EDGE_CURVE ( 'NONE', #236, #151, #24, .T. ) ;
#244 = SURFACE_SIDE_STYLE ('',( #226 ) ) ;
#245 = DIRECTION ( 'NONE',  ( -1.000000000000000000, 0.000000000000000000, 0.000000000000000000 ) ) ;
#246 = EDGE_LOOP ( 'NONE', ( #50, #173, #172, #123 ) ) ;
#247 =( GEOMETRIC_REPRESENTATION_CONTEXT ( 3 ) GLOBAL_UNCERTAINTY_ASSIGNED_CONTEXT ( ( #222 ) ) GLOBAL_UNIT_ASSIGNED_CONTEXT ( ( #117, #162, #262 ) ) REPRESENTATION_CONTEXT ( 'NONE', 'WORKASPACE' ) );
#248 = CIRCLE ( 'NONE', #201, 0.1249999999999997780 ) ;
#249 = ORIENTED_EDGE ( 'NONE', *, *, #111, .F. ) ;
#250 = FACE_OUTER_BOUND ( 'NONE', #91, .T. ) ;
#251 = DIMENSIONAL_EXPONENTS ( 1.000000000000000000, 0.000000000000000000, 0.000000000000000000, 0.000000000000000000, 0.000000000000000000, 0.000000000000000000, 0.000000000000000000 ) ;
#252 = STYLED_ITEM ( 'NONE', ( #230 ), #215 ) ;
#253 = EDGE_CURVE ( 'NONE', #236, #94, #204, .T. ) ;
#254 = DIRECTION ( 'NONE',  ( 0.000000000000000000, 0.8660254037844380415, 0.5000000000000009992 ) ) ;
#255 = ORIENTED_EDGE ( 'NONE', *, *, #14, .T. ) ;
#256 = MANIFOLD_SOLID_BREP ( 'Revolve - Tool Body (Pointed)', #238 ) ;
#257 = CARTESIAN_POINT ( 'NONE',  ( -6.123233995736766036E-17, 2.500000000000000000, 0.000000000000000000 ) ) ;
#258 = EDGE_CURVE ( 'NONE', #82, #227, #156, .T. ) ;
#259 =( NAMED_UNIT ( * ) SI_UNIT ( $, .STERADIAN. ) SOLID_ANGLE_UNIT ( ) );
#260 =( CONVERSION_BASED_UNIT ( 'INCH', #88 ) LENGTH_UNIT ( ) NAMED_UNIT ( #251 ) );
#261 =( NAMED_UNIT ( * ) SI_UNIT ( $, .STERADIAN. ) SOLID_ANGLE_UNIT ( ) );
#262 =( NAMED_UNIT ( * ) SI_UNIT ( $, .STERADIAN. ) SOLID_ANGLE_UNIT ( ) );
#263 = COLOUR_RGB ( '',0.7921568627450980005, 0.8196078431372548767, 0.9333333333333333481 ) ;
#264 = PRESENTATION_STYLE_ASSIGNMENT (( #37 ) ) ;
#265 = DIRECTION ( 'NONE',  ( 0.000000000000000000, 1.000000000000000000, 0.000000000000000000 ) ) ;
ENDSEC;
END-ISO-10303-21;
