ISO-10303-21;
HEADER;
FILE_DESCRIPTION (( 'STEP AP214' ),
    '1' );
FILE_NAME ('Micro_RNCM-030-2X.STEP',
    '2021-09-03T17:39:54',
    ( '' ),
    ( '' ),
    'SwSTEP 2.0',
    'SolidWorks 2020',
    '' );
FILE_SCHEMA (( 'AUTOMOTIVE_DESIGN' ));
ENDSEC;

DATA;
#1 = DIRECTION ( 'NONE',  ( 0.0000000000000000000, 0.0000000000000000000, 1.000000000000000000 ) ) ;
#2 = CARTESIAN_POINT ( 'NONE',  ( 0.003936999999999995191, 0.0000000000000000000, 0.0000000000000000000 ) ) ;
#3 = CIRCLE ( 'NONE', #102, 0.05905499999999998251 ) ;
#4 = EDGE_CURVE ( 'NONE', #190, #229, #196, .T. ) ;
#5 = AXIS2_PLACEMENT_3D ( 'NONE', #9, #215, #124 ) ;
#6 = CARTESIAN_POINT ( 'NONE',  ( 0.0000000000000000000, 0.0000000000000000000, 0.0000000000000000000 ) ) ;
#7 =( GEOMETRIC_REPRESENTATION_CONTEXT ( 3 ) GLOBAL_UNCERTAINTY_ASSIGNED_CONTEXT ( ( #226 ) ) GLOBAL_UNIT_ASSIGNED_CONTEXT ( ( #177, #244, #53 ) ) REPRESENTATION_CONTEXT ( 'NONE', 'WORKASPACE' ) );
#8 = FACE_OUTER_BOUND ( 'NONE', #207, .T. ) ;
#9 = CARTESIAN_POINT ( 'NONE',  ( 0.0000000000000000000, 0.0000000000000000000, 0.05511799999999983379 ) ) ;
#10 = FACE_OUTER_BOUND ( 'NONE', #166, .T. ) ;
#11 = DIRECTION ( 'NONE',  ( 0.0000000000000000000, 0.0000000000000000000, 1.000000000000000000 ) ) ;
#12 = AXIS2_PLACEMENT_3D ( 'NONE', #67, #201, #34 ) ;
#13 = AXIS2_PLACEMENT_3D ( 'NONE', #65, #236, #123 ) ;
#14 = COLOUR_RGB ( '',0.7921568627450980005, 0.8196078431372548767, 0.9333333333333333481 ) ;
#15 = DIRECTION ( 'NONE',  ( 1.000000000000000000, 0.0000000000000000000, -0.0000000000000000000 ) ) ;
#16 = VERTEX_POINT ( 'NONE', #142 ) ;
#17 =( LENGTH_UNIT ( ) NAMED_UNIT ( * ) SI_UNIT ( $, .METRE. ) );
#18 = CARTESIAN_POINT ( 'NONE',  ( 0.0000000000000000000, 0.0000000000000000000, 1.496062999999999921 ) ) ;
#19 = DIRECTION ( 'NONE',  ( -1.000000000000000000, 0.0000000000000000000, 0.0000000000000000000 ) ) ;
#20 = VERTEX_POINT ( 'NONE', #26 ) ;
#21 = DIRECTION ( 'NONE',  ( -1.000000000000000000, 0.0000000000000000000, 0.0000000000000000000 ) ) ;
#22 = CARTESIAN_POINT ( 'NONE',  ( 0.0000000000000000000, 0.0000000000000000000, 0.0000000000000000000 ) ) ;
#23 = MECHANICAL_DESIGN_GEOMETRIC_PRESENTATION_REPRESENTATION (  '', ( #133 ), #7 ) ;
#24 = DIRECTION ( 'NONE',  ( -1.000000000000000000, 0.0000000000000000000, 0.0000000000000000000 ) ) ;
#25 = EDGE_CURVE ( 'NONE', #82, #91, #80, .T. ) ;
#26 = CARTESIAN_POINT ( 'NONE',  ( 0.003936999999999995191, 0.0000000000000000000, 0.0000000000000000000 ) ) ;
#27 = PRODUCT ( 'Micro_RNCM-030-2X', 'Micro_RNCM-030-2X', '', ( #178 ) ) ;
#28 = VECTOR ( 'NONE', #167, 39.37007874015748854 ) ;
#29 = EDGE_CURVE ( 'NONE', #16, #66, #99, .T. ) ;
#30 = CARTESIAN_POINT ( 'NONE',  ( 0.003936999999999995191, 0.0000000000000000000, 1.496062999999999921 ) ) ;
#31 = CARTESIAN_POINT ( 'NONE',  ( 0.0000000000000000000, 0.0000000000000000000, 1.496062999999999921 ) ) ;
#32 = AXIS2_PLACEMENT_3D ( 'NONE', #118, #1, #108 ) ;
#33 = CARTESIAN_POINT ( 'NONE',  ( -0.003936999999999995191, -4.821434448243123477E-19, 1.496062999999999921 ) ) ;
#34 = DIRECTION ( 'NONE',  ( -1.000000000000000000, 0.0000000000000000000, 0.0000000000000000000 ) ) ;
#35 =( CONVERSION_BASED_UNIT ( 'INCH', #222 ) LENGTH_UNIT ( ) NAMED_UNIT ( #38 ) );
#36 = DIRECTION ( 'NONE',  ( -0.0000000000000000000, -0.0000000000000000000, -1.000000000000000000 ) ) ;
#37 = EDGE_LOOP ( 'NONE', ( #235, #176 ) ) ;
#38 = DIMENSIONAL_EXPONENTS ( 1.000000000000000000, 0.0000000000000000000, 0.0000000000000000000, 0.0000000000000000000, 0.0000000000000000000, 0.0000000000000000000, 0.0000000000000000000 ) ;
#39 = AXIS2_PLACEMENT_3D ( 'NONE', #101, #242, #183 ) ;
#40 = ORIENTED_EDGE ( 'NONE', *, *, #221, .F. ) ;
#41 = PRESENTATION_STYLE_ASSIGNMENT (( #228 ) ) ;
#42 = DIRECTION ( 'NONE',  ( -0.0000000000000000000, -0.0000000000000000000, -1.000000000000000000 ) ) ;
#43 = DIRECTION ( 'NONE',  ( 0.0000000000000000000, 0.0000000000000000000, 1.000000000000000000 ) ) ;
#44 = ADVANCED_FACE ( 'NONE', ( #10 ), #126, .F. ) ;
#45 = DIRECTION ( 'NONE',  ( -0.7071067811865484609, -8.659560562354943952E-17, -0.7071067811865464625 ) ) ;
#46 = EDGE_LOOP ( 'NONE', ( #216, #93, #227, #40 ) ) ;
#47 = DIRECTION ( 'NONE',  ( 0.0000000000000000000, 0.0000000000000000000, 1.000000000000000000 ) ) ;
#48 = ORIENTED_EDGE ( 'NONE', *, *, #29, .T. ) ;
#49 = CIRCLE ( 'NONE', #204, 0.003936999999999995191 ) ;
#50 = SURFACE_SIDE_STYLE ('',( #206 ) ) ;
#51 = ORIENTED_EDGE ( 'NONE', *, *, #214, .F. ) ;
#52 = FACE_OUTER_BOUND ( 'NONE', #37, .T. ) ;
#53 =( NAMED_UNIT ( * ) SI_UNIT ( $, .STERADIAN. ) SOLID_ANGLE_UNIT ( ) );
#54 = ADVANCED_FACE ( 'NONE', ( #87 ), #120, .T. ) ;
#55 = APPLICATION_CONTEXT ( 'automotive_design' ) ;
#56 = CARTESIAN_POINT ( 'NONE',  ( 0.0000000000000000000, 0.0000000000000000000, 1.496062999999999921 ) ) ;
#57 = SURFACE_STYLE_FILL_AREA ( #212 ) ;
#58 = LENGTH_MEASURE_WITH_UNIT ( LENGTH_MEASURE( 0.02539999999999999897 ), #209 );
#59 = VECTOR ( 'NONE', #165, 39.37007874015748854 ) ;
#60 = DIRECTION ( 'NONE',  ( 1.000000000000000000, 0.0000000000000000000, 0.0000000000000000000 ) ) ;
#61 = EDGE_CURVE ( 'NONE', #245, #91, #63, .T. ) ;
#62 = EDGE_CURVE ( 'NONE', #16, #190, #148, .T. ) ;
#63 = LINE ( 'NONE', #86, #59 ) ;
#64 = EDGE_LOOP ( 'NONE', ( #164, #48, #191, #125 ) ) ;
#65 = CARTESIAN_POINT ( 'NONE',  ( 0.0000000000000000000, 0.0000000000000000000, 0.05511799999999983379 ) ) ;
#66 = VERTEX_POINT ( 'NONE', #81 ) ;
#67 = CARTESIAN_POINT ( 'NONE',  ( 0.0000000000000000000, 0.0000000000000000000, 1.496062999999999921 ) ) ;
#68 = CIRCLE ( 'NONE', #110, 0.003936999999999995191 ) ;
#69 = CIRCLE ( 'NONE', #134, 0.05905499999999998251 ) ;
#70 = DIRECTION ( 'NONE',  ( -0.0000000000000000000, -0.0000000000000000000, -1.000000000000000000 ) ) ;
#71 = CYLINDRICAL_SURFACE ( 'NONE', #149, 0.05905500000000001720 ) ;
#72 = EDGE_CURVE ( 'NONE', #91, #82, #73, .T. ) ;
#73 = CIRCLE ( 'NONE', #13, 0.05905499999999998251 ) ;
#74 = MECHANICAL_DESIGN_GEOMETRIC_PRESENTATION_REPRESENTATION (  '', ( #182 ), #170 ) ;
#75 = ORIENTED_EDGE ( 'NONE', *, *, #138, .F. ) ;
#76 =( LENGTH_UNIT ( ) NAMED_UNIT ( * ) SI_UNIT ( $, .METRE. ) );
#77 = UNCERTAINTY_MEASURE_WITH_UNIT (LENGTH_MEASURE( 1.000000000000000082E-05 ), #78, 'distance_accuracy_value', 'NONE');
#78 =( CONVERSION_BASED_UNIT ( 'INCH', #58 ) LENGTH_UNIT ( ) NAMED_UNIT ( #85 ) );
#79 = APPLICATION_PROTOCOL_DEFINITION ( 'draft international standard', 'automotive_design', 1998, #55 ) ;
#80 = CIRCLE ( 'NONE', #5, 0.05905499999999998251 ) ;
#81 = CARTESIAN_POINT ( 'NONE',  ( -0.05905499999999998251, 0.0000000000000000000, 1.440944999999999920 ) ) ;
#82 = VERTEX_POINT ( 'NONE', #197 ) ;
#83 = CONICAL_SURFACE ( 'NONE', #225, 0.003936999999999995191, 0.7853981633974497223 ) ;
#84 = AXIS2_PLACEMENT_3D ( 'NONE', #193, #156, #95 ) ;
#85 = DIMENSIONAL_EXPONENTS ( 1.000000000000000000, 0.0000000000000000000, 0.0000000000000000000, 0.0000000000000000000, 0.0000000000000000000, 0.0000000000000000000, 0.0000000000000000000 ) ;
#86 = CARTESIAN_POINT ( 'NONE',  ( -0.003936999999999995191, 4.821434448243123477E-19, 0.0000000000000000000 ) ) ;
#87 = FACE_OUTER_BOUND ( 'NONE', #64, .T. ) ;
#88 = CARTESIAN_POINT ( 'NONE',  ( 0.0000000000000000000, 0.0000000000000000000, 1.440944999999999920 ) ) ;
#89 = EDGE_CURVE ( 'NONE', #66, #229, #3, .T. ) ;
#90 = DIRECTION ( 'NONE',  ( -0.0000000000000000000, -0.0000000000000000000, -1.000000000000000000 ) ) ;
#91 = VERTEX_POINT ( 'NONE', #179 ) ;
#92 = AXIS2_PLACEMENT_3D ( 'NONE', #31, #208, #21 ) ;
#93 = ORIENTED_EDGE ( 'NONE', *, *, #214, .T. ) ;
#94 = CYLINDRICAL_SURFACE ( 'NONE', #199, 0.05905500000000001720 ) ;
#95 = DIRECTION ( 'NONE',  ( 1.000000000000000000, 0.0000000000000000000, 0.0000000000000000000 ) ) ;
#96 = CLOSED_SHELL ( 'NONE', ( #54, #154, #180, #241, #119, #44, #98, #162 ) ) ;
#97 = DIRECTION ( 'NONE',  ( -1.000000000000000000, 0.0000000000000000000, 0.0000000000000000000 ) ) ;
#98 = ADVANCED_FACE ( 'NONE', ( #160 ), #83, .T. ) ;
#99 = LINE ( 'NONE', #33, #184 ) ;
#100 = CARTESIAN_POINT ( 'NONE',  ( 0.0000000000000000000, 0.0000000000000000000, 1.440944999999999920 ) ) ;
#101 = CARTESIAN_POINT ( 'NONE',  ( 0.0000000000000000000, 0.0000000000000000000, 1.496062999999999921 ) ) ;
#102 = AXIS2_PLACEMENT_3D ( 'NONE', #100, #186, #239 ) ;
#103 = ORIENTED_EDGE ( 'NONE', *, *, #25, .F. ) ;
#104 = EDGE_LOOP ( 'NONE', ( #128, #122, #144, #145 ) ) ;
#105 = PRODUCT_DEFINITION ( 'UNKNOWN', '', #175, #231 ) ;
#106 = CARTESIAN_POINT ( 'NONE',  ( 0.0000000000000000000, 0.0000000000000000000, 0.0000000000000000000 ) ) ;
#107 = CARTESIAN_POINT ( 'NONE',  ( -0.05905500000000001720, 0.0000000000000000000, 1.496062999999999921 ) ) ;
#108 = DIRECTION ( 'NONE',  ( 1.000000000000000000, 0.0000000000000000000, -0.0000000000000000000 ) ) ;
#109 = CARTESIAN_POINT ( 'NONE',  ( 0.0000000000000000000, 0.0000000000000000000, 1.496062999999999921 ) ) ;
#110 = AXIS2_PLACEMENT_3D ( 'NONE', #6, #42, #97 ) ;
#111 = ORIENTED_EDGE ( 'NONE', *, *, #61, .F. ) ;
#112 = FILL_AREA_STYLE ('',( #131 ) ) ;
#113 = ORIENTED_EDGE ( 'NONE', *, *, #25, .T. ) ;
#114 = LINE ( 'NONE', #168, #174 ) ;
#115 = UNCERTAINTY_MEASURE_WITH_UNIT (LENGTH_MEASURE( 1.000000000000000082E-05 ), #35, 'distance_accuracy_value', 'NONE');
#116 = CONICAL_SURFACE ( 'NONE', #248, 0.003936999999999995191, 0.7853981633974497223 ) ;
#117 = PRESENTATION_LAYER_ASSIGNMENT (  '', '', ( #182 ) ) ;
#118 = CARTESIAN_POINT ( 'NONE',  ( 0.0000000000000000000, 0.0000000000000000000, 1.496062999999999921 ) ) ;
#119 = ADVANCED_FACE ( 'NONE', ( #213 ), #232, .T. ) ;
#120 = CONICAL_SURFACE ( 'NONE', #39, 0.003936999999999995191, 0.7853981633974497223 ) ;
#121 =( NAMED_UNIT ( * ) PLANE_ANGLE_UNIT ( ) SI_UNIT ( $, .RADIAN. ) );
#122 = ORIENTED_EDGE ( 'NONE', *, *, #62, .T. ) ;
#123 = DIRECTION ( 'NONE',  ( -1.000000000000000000, 0.0000000000000000000, 0.0000000000000000000 ) ) ;
#124 = DIRECTION ( 'NONE',  ( -1.000000000000000000, 0.0000000000000000000, 0.0000000000000000000 ) ) ;
#125 = ORIENTED_EDGE ( 'NONE', *, *, #4, .F. ) ;
#126 = PLANE ( 'NONE',  #152 ) ;
#127 =( NAMED_UNIT ( * ) PLANE_ANGLE_UNIT ( ) SI_UNIT ( $, .RADIAN. ) );
#128 = ORIENTED_EDGE ( 'NONE', *, *, #29, .F. ) ;
#129 = ORIENTED_EDGE ( 'NONE', *, *, #247, .T. ) ;
#130 = DIRECTION ( 'NONE',  ( -0.0000000000000000000, -0.0000000000000000000, -1.000000000000000000 ) ) ;
#131 = FILL_AREA_STYLE_COLOUR ( '', #218 ) ;
#132 =( NAMED_UNIT ( * ) SI_UNIT ( $, .STERADIAN. ) SOLID_ANGLE_UNIT ( ) );
#133 = STYLED_ITEM ( 'NONE', ( #41 ), #233 ) ;
#134 = AXIS2_PLACEMENT_3D ( 'NONE', #88, #147, #151 ) ;
#135 = SURFACE_STYLE_USAGE ( .BOTH. , #234 ) ;
#136 = EDGE_CURVE ( 'NONE', #245, #20, #68, .T. ) ;
#137 = DIRECTION ( 'NONE',  ( 1.000000000000000000, 0.0000000000000000000, 0.0000000000000000000 ) ) ;
#138 = EDGE_CURVE ( 'NONE', #20, #82, #139, .T. ) ;
#139 = LINE ( 'NONE', #2, #141 ) ;
#140 = APPLICATION_CONTEXT ( 'automotive_design' ) ;
#141 = VECTOR ( 'NONE', #195, 39.37007874015748854 ) ;
#142 = CARTESIAN_POINT ( 'NONE',  ( -0.003936999999999995191, -3.857147558594503404E-18, 1.496062999999999921 ) ) ;
#143 = EDGE_LOOP ( 'NONE', ( #51, #129, #217, #103 ) ) ;
#144 = ORIENTED_EDGE ( 'NONE', *, *, #4, .T. ) ;
#145 = ORIENTED_EDGE ( 'NONE', *, *, #89, .F. ) ;
#146 = EDGE_CURVE ( 'NONE', #20, #245, #49, .T. ) ;
#147 = DIRECTION ( 'NONE',  ( 0.0000000000000000000, 0.0000000000000000000, -1.000000000000000000 ) ) ;
#148 = CIRCLE ( 'NONE', #12, 0.003936999999999995191 ) ;
#149 = AXIS2_PLACEMENT_3D ( 'NONE', #109, #70, #19 ) ;
#150 = ADVANCED_BREP_SHAPE_REPRESENTATION ( 'Micro_RNCM-030-2X', ( #233, #84 ), #155 ) ;
#151 = DIRECTION ( 'NONE',  ( -1.000000000000000000, 0.0000000000000000000, 0.0000000000000000000 ) ) ;
#152 = AXIS2_PLACEMENT_3D ( 'NONE', #106, #47, #15 ) ;
#153 = PLANE ( 'NONE',  #32 ) ;
#154 = ADVANCED_FACE ( 'NONE', ( #8 ), #116, .T. ) ;
#155 =( GEOMETRIC_REPRESENTATION_CONTEXT ( 3 ) GLOBAL_UNCERTAINTY_ASSIGNED_CONTEXT ( ( #115 ) ) GLOBAL_UNIT_ASSIGNED_CONTEXT ( ( #35, #127, #203 ) ) REPRESENTATION_CONTEXT ( 'NONE', 'WORKASPACE' ) );
#156 = DIRECTION ( 'NONE',  ( 0.0000000000000000000, 0.0000000000000000000, 1.000000000000000000 ) ) ;
#157 = EDGE_CURVE ( 'NONE', #190, #16, #210, .T. ) ;
#158 = SHAPE_DEFINITION_REPRESENTATION ( #171, #150 ) ;
#159 = DIRECTION ( 'NONE',  ( 0.0000000000000000000, 0.0000000000000000000, -1.000000000000000000 ) ) ;
#160 = FACE_OUTER_BOUND ( 'NONE', #104, .T. ) ;
#161 = CARTESIAN_POINT ( 'NONE',  ( 0.0000000000000000000, 0.0000000000000000000, 0.0000000000000000000 ) ) ;
#162 = ADVANCED_FACE ( 'NONE', ( #52 ), #153, .T. ) ;
#163 = ORIENTED_EDGE ( 'NONE', *, *, #136, .T. ) ;
#164 = ORIENTED_EDGE ( 'NONE', *, *, #157, .T. ) ;
#165 = DIRECTION ( 'NONE',  ( -0.7071067811865484609, 8.659560562354943952E-17, 0.7071067811865464625 ) ) ;
#166 = EDGE_LOOP ( 'NONE', ( #237, #163 ) ) ;
#167 = DIRECTION ( 'NONE',  ( 0.7071067811865484609, 0.0000000000000000000, -0.7071067811865464625 ) ) ;
#168 = CARTESIAN_POINT ( 'NONE',  ( 0.05905500000000001720, 7.232151672364695422E-18, 1.496062999999999921 ) ) ;
#169 = EDGE_LOOP ( 'NONE', ( #111, #224, #187, #113 ) ) ;
#170 =( GEOMETRIC_REPRESENTATION_CONTEXT ( 3 ) GLOBAL_UNCERTAINTY_ASSIGNED_CONTEXT ( ( #77 ) ) GLOBAL_UNIT_ASSIGNED_CONTEXT ( ( #78, #121, #132 ) ) REPRESENTATION_CONTEXT ( 'NONE', 'WORKASPACE' ) );
#171 = PRODUCT_DEFINITION_SHAPE ( 'NONE', 'NONE',  #105 ) ;
#172 = LENGTH_MEASURE_WITH_UNIT ( LENGTH_MEASURE( 0.02539999999999999897 ), #76 );
#173 = CARTESIAN_POINT ( 'NONE',  ( -0.003936999999999995191, 3.857147558594503404E-18, 0.0000000000000000000 ) ) ;
#174 = VECTOR ( 'NONE', #90, 39.37007874015748143 ) ;
#175 = PRODUCT_DEFINITION_FORMATION_WITH_SPECIFIED_SOURCE ( 'ANY', '', #27, .NOT_KNOWN. ) ;
#176 = ORIENTED_EDGE ( 'NONE', *, *, #62, .F. ) ;
#177 =( CONVERSION_BASED_UNIT ( 'INCH', #172 ) LENGTH_UNIT ( ) NAMED_UNIT ( #200 ) );
#178 = PRODUCT_CONTEXT ( 'NONE', #140, 'mechanical' ) ;
#179 = CARTESIAN_POINT ( 'NONE',  ( -0.05905499999999998251, 0.0000000000000000000, 0.05511799999999983379 ) ) ;
#180 = ADVANCED_FACE ( 'NONE', ( #249 ), #94, .T. ) ;
#181 = AXIS2_PLACEMENT_3D ( 'NONE', #22, #43, #60 ) ;
#182 = STYLED_ITEM ( 'NONE', ( #211 ), #150 ) ;
#183 = DIRECTION ( 'NONE',  ( 1.000000000000000000, 0.0000000000000000000, 0.0000000000000000000 ) ) ;
#184 = VECTOR ( 'NONE', #45, 39.37007874015748854 ) ;
#185 = CARTESIAN_POINT ( 'NONE',  ( 0.0000000000000000000, 0.0000000000000000000, 0.0000000000000000000 ) ) ;
#186 = DIRECTION ( 'NONE',  ( 0.0000000000000000000, 0.0000000000000000000, -1.000000000000000000 ) ) ;
#187 = ORIENTED_EDGE ( 'NONE', *, *, #138, .T. ) ;
#188 = ORIENTED_EDGE ( 'NONE', *, *, #72, .T. ) ;
#189 = APPLICATION_PROTOCOL_DEFINITION ( 'draft international standard', 'automotive_design', 1998, #140 ) ;
#190 = VERTEX_POINT ( 'NONE', #220 ) ;
#191 = ORIENTED_EDGE ( 'NONE', *, *, #247, .F. ) ;
#192 = CARTESIAN_POINT ( 'NONE',  ( 0.05905499999999998251, 7.232151672364692341E-18, 1.440944999999999920 ) ) ;
#193 = CARTESIAN_POINT ( 'NONE',  ( 0.0000000000000000000, 0.0000000000000000000, 0.0000000000000000000 ) ) ;
#194 = FILL_AREA_STYLE_COLOUR ( '', #14 ) ;
#195 = DIRECTION ( 'NONE',  ( 0.7071067811865484609, 0.0000000000000000000, 0.7071067811865464625 ) ) ;
#196 = LINE ( 'NONE', #30, #28 ) ;
#197 = CARTESIAN_POINT ( 'NONE',  ( 0.05905499999999998251, 7.232151672364692341E-18, 0.05511799999999983379 ) ) ;
#198 = DIRECTION ( 'NONE',  ( -0.0000000000000000000, -0.0000000000000000000, -1.000000000000000000 ) ) ;
#199 = AXIS2_PLACEMENT_3D ( 'NONE', #18, #130, #202 ) ;
#200 = DIMENSIONAL_EXPONENTS ( 1.000000000000000000, 0.0000000000000000000, 0.0000000000000000000, 0.0000000000000000000, 0.0000000000000000000, 0.0000000000000000000, 0.0000000000000000000 ) ;
#201 = DIRECTION ( 'NONE',  ( 0.0000000000000000000, 0.0000000000000000000, -1.000000000000000000 ) ) ;
#202 = DIRECTION ( 'NONE',  ( -1.000000000000000000, 0.0000000000000000000, 0.0000000000000000000 ) ) ;
#203 =( NAMED_UNIT ( * ) SI_UNIT ( $, .STERADIAN. ) SOLID_ANGLE_UNIT ( ) );
#204 = AXIS2_PLACEMENT_3D ( 'NONE', #161, #198, #24 ) ;
#205 = ORIENTED_EDGE ( 'NONE', *, *, #61, .T. ) ;
#206 = SURFACE_STYLE_FILL_AREA ( #112 ) ;
#207 = EDGE_LOOP ( 'NONE', ( #219, #205, #188, #75 ) ) ;
#208 = DIRECTION ( 'NONE',  ( 0.0000000000000000000, 0.0000000000000000000, -1.000000000000000000 ) ) ;
#209 =( LENGTH_UNIT ( ) NAMED_UNIT ( * ) SI_UNIT ( $, .METRE. ) );
#210 = CIRCLE ( 'NONE', #92, 0.003936999999999995191 ) ;
#211 = PRESENTATION_STYLE_ASSIGNMENT (( #135 ) ) ;
#212 = FILL_AREA_STYLE ('',( #194 ) ) ;
#213 = FACE_OUTER_BOUND ( 'NONE', #169, .T. ) ;
#214 = EDGE_CURVE ( 'NONE', #229, #82, #114, .T. ) ;
#215 = DIRECTION ( 'NONE',  ( -0.0000000000000000000, -0.0000000000000000000, -1.000000000000000000 ) ) ;
#216 = ORIENTED_EDGE ( 'NONE', *, *, #89, .T. ) ;
#217 = ORIENTED_EDGE ( 'NONE', *, *, #221, .T. ) ;
#218 = COLOUR_RGB ( '',0.7921568627450980005, 0.8196078431372548767, 0.9333333333333333481 ) ;
#219 = ORIENTED_EDGE ( 'NONE', *, *, #136, .F. ) ;
#220 = CARTESIAN_POINT ( 'NONE',  ( 0.003936999999999995191, 0.0000000000000000000, 1.496062999999999921 ) ) ;
#221 = EDGE_CURVE ( 'NONE', #66, #91, #230, .T. ) ;
#222 = LENGTH_MEASURE_WITH_UNIT ( LENGTH_MEASURE( 0.02539999999999999897 ), #17 );
#223 = PRODUCT_RELATED_PRODUCT_CATEGORY ( 'part', '', ( #27 ) ) ;
#224 = ORIENTED_EDGE ( 'NONE', *, *, #146, .F. ) ;
#225 = AXIS2_PLACEMENT_3D ( 'NONE', #56, #159, #137 ) ;
#226 = UNCERTAINTY_MEASURE_WITH_UNIT (LENGTH_MEASURE( 1.000000000000000082E-05 ), #177, 'distance_accuracy_value', 'NONE');
#227 = ORIENTED_EDGE ( 'NONE', *, *, #72, .F. ) ;
#228 = SURFACE_STYLE_USAGE ( .BOTH. , #50 ) ;
#229 = VERTEX_POINT ( 'NONE', #192 ) ;
#230 = LINE ( 'NONE', #107, #243 ) ;
#231 = PRODUCT_DEFINITION_CONTEXT ( 'detailed design', #55, 'design' ) ;
#232 = CONICAL_SURFACE ( 'NONE', #181, 0.003936999999999995191, 0.7853981633974497223 ) ;
#233 = MANIFOLD_SOLID_BREP ( 'Mirror1', #96 ) ;
#234 = SURFACE_SIDE_STYLE ('',( #57 ) ) ;
#235 = ORIENTED_EDGE ( 'NONE', *, *, #157, .F. ) ;
#236 = DIRECTION ( 'NONE',  ( -0.0000000000000000000, -0.0000000000000000000, -1.000000000000000000 ) ) ;
#237 = ORIENTED_EDGE ( 'NONE', *, *, #146, .T. ) ;
#238 = PRESENTATION_LAYER_ASSIGNMENT (  '', '', ( #133 ) ) ;
#239 = DIRECTION ( 'NONE',  ( -1.000000000000000000, 0.0000000000000000000, 0.0000000000000000000 ) ) ;
#240 = DIRECTION ( 'NONE',  ( 1.000000000000000000, 0.0000000000000000000, 0.0000000000000000000 ) ) ;
#241 = ADVANCED_FACE ( 'NONE', ( #246 ), #71, .T. ) ;
#242 = DIRECTION ( 'NONE',  ( 0.0000000000000000000, 0.0000000000000000000, -1.000000000000000000 ) ) ;
#243 = VECTOR ( 'NONE', #36, 39.37007874015748143 ) ;
#244 =( NAMED_UNIT ( * ) PLANE_ANGLE_UNIT ( ) SI_UNIT ( $, .RADIAN. ) );
#245 = VERTEX_POINT ( 'NONE', #173 ) ;
#246 = FACE_OUTER_BOUND ( 'NONE', #143, .T. ) ;
#247 = EDGE_CURVE ( 'NONE', #229, #66, #69, .T. ) ;
#248 = AXIS2_PLACEMENT_3D ( 'NONE', #185, #11, #240 ) ;
#249 = FACE_OUTER_BOUND ( 'NONE', #46, .T. ) ;
ENDSEC;
END-ISO-10303-21;
