ISO-10303-21;
HEADER;
FILE_DESCRIPTION (( 'STEP AP214' ),
    '1' );
FILE_NAME ('Micro_EMS-187-4X.STEP',
    '2021-09-01T17:46:59',
    ( '' ),
    ( '' ),
    'SwSTEP 2.0',
    'SolidWorks 2020',
    '' );
FILE_SCHEMA (( 'AUTOMOTIVE_DESIGN' ));
ENDSEC;

DATA;
#1 = DIRECTION ( 'NONE',  ( 0.0000000000000000000, 0.0000000000000000000, 1.000000000000000000 ) ) ;
#2 = EDGE_CURVE ( 'NONE', #214, #127, #107, .T. ) ;
#3 = EDGE_LOOP ( 'NONE', ( #23, #144, #34, #30 ) ) ;
#4 = APPLICATION_PROTOCOL_DEFINITION ( 'draft international standard', 'automotive_design', 1998, #16 ) ;
#5 = EDGE_CURVE ( 'NONE', #148, #108, #125, .T. ) ;
#6 = EDGE_CURVE ( 'NONE', #86, #148, #116, .T. ) ;
#7 = ORIENTED_EDGE ( 'NONE', *, *, #2, .F. ) ;
#8 = CARTESIAN_POINT ( 'NONE',  ( 0.09375000000000001388, 1.148106374200643863E-17, 2.000000000000000000 ) ) ;
#9 = VERTEX_POINT ( 'NONE', #189 ) ;
#10 = ADVANCED_FACE ( 'NONE', ( #281 ), #257, .T. ) ;
#11 = VERTEX_POINT ( 'NONE', #218 ) ;
#12 = CIRCLE ( 'NONE', #38, 0.09375000000000001388 ) ;
#13 = DIRECTION ( 'NONE',  ( -1.224646799147353207E-16, -0.0000000000000000000, -1.000000000000000000 ) ) ;
#14 = DIRECTION ( 'NONE',  ( 1.000000000000000000, 0.0000000000000000000, 0.0000000000000000000 ) ) ;
#15 = DIRECTION ( 'NONE',  ( 1.000000000000000000, 0.0000000000000000000, 0.0000000000000000000 ) ) ;
#16 = APPLICATION_CONTEXT ( 'automotive_design' ) ;
#17 = DIRECTION ( 'NONE',  ( 1.000000000000000000, 0.0000000000000000000, 0.0000000000000000000 ) ) ;
#18 = DIRECTION ( 'NONE',  ( 0.0000000000000000000, 0.0000000000000000000, -1.000000000000000000 ) ) ;
#19 = ADVANCED_FACE ( 'NONE', ( #112 ), #201, .T. ) ;
#20 = DIRECTION ( 'NONE',  ( 0.1736481776669313581, 0.0000000000000000000, 0.9848077530122077983 ) ) ;
#21 =( NAMED_UNIT ( * ) SI_UNIT ( $, .STERADIAN. ) SOLID_ANGLE_UNIT ( ) );
#22 = COLOUR_RGB ( '',0.7921568627450980005, 0.8196078431372548767, 0.9333333333333333481 ) ;
#23 = ORIENTED_EDGE ( 'NONE', *, *, #6, .T. ) ;
#24 = UNCERTAINTY_MEASURE_WITH_UNIT (LENGTH_MEASURE( 1.000000000000000082E-05 ), #204, 'distance_accuracy_value', 'NONE');
#25 = LINE ( 'NONE', #208, #219 ) ;
#26 = CARTESIAN_POINT ( 'NONE',  ( -0.09365624999999992706, 1.146958267826442798E-17, 0.6250000000000000000 ) ) ;
#27 = DIRECTION ( 'NONE',  ( 1.000000000000000000, 0.0000000000000000000, -0.0000000000000000000 ) ) ;
#28 = VECTOR ( 'NONE', #32, 39.37007874015748143 ) ;
#29 = ORIENTED_EDGE ( 'NONE', *, *, #212, .T. ) ;
#30 = ORIENTED_EDGE ( 'NONE', *, *, #212, .F. ) ;
#31 = PRODUCT_CONTEXT ( 'NONE', #16, 'mechanical' ) ;
#32 = DIRECTION ( 'NONE',  ( -1.224646799147353207E-16, -0.0000000000000000000, -1.000000000000000000 ) ) ;
#33 = VECTOR ( 'NONE', #174, 39.37007874015748143 ) ;
#34 = ORIENTED_EDGE ( 'NONE', *, *, #145, .F. ) ;
#35 = CARTESIAN_POINT ( 'NONE',  ( 0.0000000000000000000, 0.0000000000000000000, 0.0000000000000000000 ) ) ;
#36 = DIRECTION ( 'NONE',  ( -1.224646799147353207E-16, -0.0000000000000000000, -1.000000000000000000 ) ) ;
#37 = DIRECTION ( 'NONE',  ( -1.224646799147353207E-16, -0.0000000000000000000, -1.000000000000000000 ) ) ;
#38 = AXIS2_PLACEMENT_3D ( 'NONE', #242, #39, #133 ) ;
#39 = DIRECTION ( 'NONE',  ( -1.224646799147353207E-16, -0.0000000000000000000, -1.000000000000000000 ) ) ;
#40 = EDGE_CURVE ( 'NONE', #148, #86, #288, .T. ) ;
#41 = FACE_OUTER_BOUND ( 'NONE', #3, .T. ) ;
#42 = CARTESIAN_POINT ( 'NONE',  ( 0.0000000000000000000, 0.0000000000000000000, 0.0000000000000000000 ) ) ;
#43 = AXIS2_PLACEMENT_3D ( 'NONE', #93, #18, #202 ) ;
#44 = DIRECTION ( 'NONE',  ( -1.000000000000000000, 0.0000000000000000000, 0.0000000000000000000 ) ) ;
#45 = EDGE_LOOP ( 'NONE', ( #122, #252, #29, #103 ) ) ;
#46 = ADVANCED_FACE ( 'NONE', ( #200 ), #115, .T. ) ;
#47 = CARTESIAN_POINT ( 'NONE',  ( 0.0000000000000000000, 0.0000000000000000000, 2.000000000000000000 ) ) ;
#48 = AXIS2_PLACEMENT_3D ( 'NONE', #222, #179, #154 ) ;
#49 = PRODUCT_DEFINITION_CONTEXT ( 'detailed design', #63, 'design' ) ;
#50 = LINE ( 'NONE', #139, #237 ) ;
#51 = LENGTH_MEASURE_WITH_UNIT ( LENGTH_MEASURE( 0.02539999999999999897 ), #231 );
#52 = FILL_AREA_STYLE ('',( #253 ) ) ;
#53 = ORIENTED_EDGE ( 'NONE', *, *, #99, .F. ) ;
#54 = CONICAL_SURFACE ( 'NONE', #61, 0.07874999999999980627, 0.7853981633974466137 ) ;
#55 = SURFACE_STYLE_FILL_AREA ( #52 ) ;
#56 = VERTEX_POINT ( 'NONE', #111 ) ;
#57 =( NAMED_UNIT ( * ) SI_UNIT ( $, .STERADIAN. ) SOLID_ANGLE_UNIT ( ) );
#58 = ORIENTED_EDGE ( 'NONE', *, *, #145, .T. ) ;
#59 =( NAMED_UNIT ( * ) PLANE_ANGLE_UNIT ( ) SI_UNIT ( $, .RADIAN. ) );
#60 = EDGE_LOOP ( 'NONE', ( #88, #83, #58, #238 ) ) ;
#61 = AXIS2_PLACEMENT_3D ( 'NONE', #223, #264, #220 ) ;
#62 = EDGE_LOOP ( 'NONE', ( #76, #232, #141, #7 ) ) ;
#63 = APPLICATION_CONTEXT ( 'automotive_design' ) ;
#64 = DIRECTION ( 'NONE',  ( 0.0000000000000000000, 0.0000000000000000000, 1.000000000000000000 ) ) ;
#65 = PLANE ( 'NONE',  #236 ) ;
#66 = AXIS2_PLACEMENT_3D ( 'NONE', #69, #262, #15 ) ;
#67 = STYLED_ITEM ( 'NONE', ( #82 ), #256 ) ;
#68 = DIRECTION ( 'NONE',  ( -1.000000000000000000, 0.0000000000000000000, 1.224646799147352961E-16 ) ) ;
#69 = CARTESIAN_POINT ( 'NONE',  ( 7.654042494670957853E-17, 0.0000000000000000000, 0.6250000000000000000 ) ) ;
#70 = ADVANCED_FACE ( 'NONE', ( #243 ), #54, .T. ) ;
#71 = CARTESIAN_POINT ( 'NONE',  ( 7.654042494670957853E-17, 0.0000000000000000000, 0.6250000000000000000 ) ) ;
#72 = UNCERTAINTY_MEASURE_WITH_UNIT (LENGTH_MEASURE( 1.000000000000000082E-05 ), #128, 'distance_accuracy_value', 'NONE');
#73 = AXIS2_PLACEMENT_3D ( 'NONE', #291, #289, #68 ) ;
#74 = DIRECTION ( 'NONE',  ( -1.224646799147353207E-16, -0.0000000000000000000, -1.000000000000000000 ) ) ;
#75 = VECTOR ( 'NONE', #95, 39.37007874015747433 ) ;
#76 = ORIENTED_EDGE ( 'NONE', *, *, #104, .T. ) ;
#77 = DIRECTION ( 'NONE',  ( -0.0000000000000000000, -0.0000000000000000000, -1.000000000000000000 ) ) ;
#78 = PRODUCT ( 'Micro_EMS-187-4X', 'Micro_EMS-187-4X', '', ( #31 ) ) ;
#79 = SURFACE_STYLE_USAGE ( .BOTH. , #251 ) ;
#80 = DIRECTION ( 'NONE',  ( -1.000000000000000000, 0.0000000000000000000, 1.224646799147352961E-16 ) ) ;
#81 = ORIENTED_EDGE ( 'NONE', *, *, #130, .T. ) ;
#82 = PRESENTATION_STYLE_ASSIGNMENT (( #278 ) ) ;
#83 = ORIENTED_EDGE ( 'NONE', *, *, #293, .T. ) ;
#84 = ADVANCED_FACE ( 'NONE', ( #41 ), #136, .T. ) ;
#85 = DIRECTION ( 'NONE',  ( 1.000000000000000000, 0.0000000000000000000, 0.0000000000000000000 ) ) ;
#86 = VERTEX_POINT ( 'NONE', #134 ) ;
#87 = VECTOR ( 'NONE', #190, 39.37007874015748143 ) ;
#88 = ORIENTED_EDGE ( 'NONE', *, *, #104, .F. ) ;
#89 = DIMENSIONAL_EXPONENTS ( 1.000000000000000000, 0.0000000000000000000, 0.0000000000000000000, 0.0000000000000000000, 0.0000000000000000000, 0.0000000000000000000, 0.0000000000000000000 ) ;
#90 = DIRECTION ( 'NONE',  ( 0.0000000000000000000, 0.0000000000000000000, -1.000000000000000000 ) ) ;
#91 = DIRECTION ( 'NONE',  ( 0.7071067811865463515, 8.659560562354916834E-17, -0.7071067811865486830 ) ) ;
#92 = AXIS2_PLACEMENT_3D ( 'NONE', #292, #37, #203 ) ;
#93 = CARTESIAN_POINT ( 'NONE',  ( 0.0000000000000000000, 0.0000000000000000000, 1.984999999999999654 ) ) ;
#94 = CARTESIAN_POINT ( 'NONE',  ( -0.07874999999999980627, 0.0000000000000000000, 2.000000000000000000 ) ) ;
#95 = DIRECTION ( 'NONE',  ( -0.1736481776669311639, 2.126576849575783008E-17, 0.9848077530122080203 ) ) ;
#96 = CIRCLE ( 'NONE', #205, 0.07874999999999980627 ) ;
#97 = VERTEX_POINT ( 'NONE', #266 ) ;
#98 = FILL_AREA_STYLE_COLOUR ( '', #22 ) ;
#99 = EDGE_CURVE ( 'NONE', #56, #97, #120, .T. ) ;
#100 = UNCERTAINTY_MEASURE_WITH_UNIT (LENGTH_MEASURE( 1.000000000000000082E-05 ), #140, 'distance_accuracy_value', 'NONE');
#101 = CARTESIAN_POINT ( 'NONE',  ( -0.09374999999999994449, 0.0000000000000000000, 0.6255316826705892286 ) ) ;
#102 = AXIS2_PLACEMENT_3D ( 'NONE', #297, #180, #211 ) ;
#103 = ORIENTED_EDGE ( 'NONE', *, *, #199, .F. ) ;
#104 = EDGE_CURVE ( 'NONE', #214, #9, #295, .T. ) ;
#105 = ORIENTED_EDGE ( 'NONE', *, *, #229, .T. ) ;
#106 = DIRECTION ( 'NONE',  ( 0.0000000000000000000, 0.0000000000000000000, -1.000000000000000000 ) ) ;
#107 = LINE ( 'NONE', #171, #28 ) ;
#108 = VERTEX_POINT ( 'NONE', #265 ) ;
#109 = CLOSED_SHELL ( 'NONE', ( #46, #19, #70, #84, #261, #247, #195, #169, #10, #157 ) ) ;
#110 = CARTESIAN_POINT ( 'NONE',  ( 0.0000000000000000000, 0.0000000000000000000, 2.000000000000000000 ) ) ;
#111 = CARTESIAN_POINT ( 'NONE',  ( 0.07874999999999980627, 1.056257864264590573E-17, 2.000000000000000000 ) ) ;
#112 = FACE_OUTER_BOUND ( 'NONE', #60, .T. ) ;
#113 = AXIS2_PLACEMENT_3D ( 'NONE', #209, #74, #80 ) ;
#114 = CARTESIAN_POINT ( 'NONE',  ( -0.09365624999999999645, 0.0000000000000000000, 2.293916535652885596E-17 ) ) ;
#115 = CYLINDRICAL_SURFACE ( 'NONE', #73, 0.09365624999999999645 ) ;
#116 = CIRCLE ( 'NONE', #272, 0.09375000000000001388 ) ;
#117 = FACE_OUTER_BOUND ( 'NONE', #259, .T. ) ;
#118 = ORIENTED_EDGE ( 'NONE', *, *, #248, .T. ) ;
#119 = CARTESIAN_POINT ( 'NONE',  ( 0.09365625000000006584, 0.0000000000000000000, 0.6250000000000000000 ) ) ;
#120 = CIRCLE ( 'NONE', #283, 0.07874999999999980627 ) ;
#121 = MECHANICAL_DESIGN_GEOMETRIC_PRESENTATION_REPRESENTATION (  '', ( #67 ), #228 ) ;
#122 = ORIENTED_EDGE ( 'NONE', *, *, #5, .F. ) ;
#123 = ORIENTED_EDGE ( 'NONE', *, *, #142, .T. ) ;
#124 = SURFACE_SIDE_STYLE ('',( #55 ) ) ;
#125 = LINE ( 'NONE', #8, #87 ) ;
#126 = AXIS2_PLACEMENT_3D ( 'NONE', #47, #137, #27 ) ;
#127 = VERTEX_POINT ( 'NONE', #114 ) ;
#128 =( CONVERSION_BASED_UNIT ( 'INCH', #167 ) LENGTH_UNIT ( ) NAMED_UNIT ( #240 ) );
#129 = DIRECTION ( 'NONE',  ( -1.000000000000000000, 0.0000000000000000000, 1.224646799147352961E-16 ) ) ;
#130 = EDGE_CURVE ( 'NONE', #127, #11, #215, .T. ) ;
#131 = PRODUCT_DEFINITION ( 'UNKNOWN', '', #296, #49 ) ;
#132 = CARTESIAN_POINT ( 'NONE',  ( 0.07874999999999980627, 9.644093543285380530E-18, 2.000000000000000000 ) ) ;
#133 = DIRECTION ( 'NONE',  ( 1.000000000000000000, 0.0000000000000000000, 0.0000000000000000000 ) ) ;
#134 = CARTESIAN_POINT ( 'NONE',  ( -0.09375000000000001388, 0.0000000000000000000, 1.984999999999999654 ) ) ;
#135 = LINE ( 'NONE', #94, #33 ) ;
#136 = CYLINDRICAL_SURFACE ( 'NONE', #48, 0.09375000000000001388 ) ;
#137 = DIRECTION ( 'NONE',  ( 0.0000000000000000000, 0.0000000000000000000, 1.000000000000000000 ) ) ;
#138 = SURFACE_STYLE_FILL_AREA ( #274 ) ;
#139 = CARTESIAN_POINT ( 'NONE',  ( 0.09365624999999999645, 1.146958267826442798E-17, -1.146958267826442798E-17 ) ) ;
#140 =( CONVERSION_BASED_UNIT ( 'INCH', #51 ) LENGTH_UNIT ( ) NAMED_UNIT ( #89 ) );
#141 = ORIENTED_EDGE ( 'NONE', *, *, #130, .F. ) ;
#142 = EDGE_CURVE ( 'NONE', #97, #86, #135, .T. ) ;
#143 =( NAMED_UNIT ( * ) SI_UNIT ( $, .STERADIAN. ) SOLID_ANGLE_UNIT ( ) );
#144 = ORIENTED_EDGE ( 'NONE', *, *, #5, .T. ) ;
#145 = EDGE_CURVE ( 'NONE', #254, #108, #258, .T. ) ;
#146 = SHAPE_DEFINITION_REPRESENTATION ( #165, #256 ) ;
#147 = EDGE_LOOP ( 'NONE', ( #217, #269, #118, #282 ) ) ;
#148 = VERTEX_POINT ( 'NONE', #244 ) ;
#149 = AXIS2_PLACEMENT_3D ( 'NONE', #71, #156, #44 ) ;
#150 = CARTESIAN_POINT ( 'NONE',  ( 0.0000000000000000000, 0.0000000000000000000, 1.984999999999999654 ) ) ;
#151 = DIRECTION ( 'NONE',  ( 0.0000000000000000000, 0.0000000000000000000, 1.000000000000000000 ) ) ;
#152 = DIRECTION ( 'NONE',  ( 1.224646799147353207E-16, 0.0000000000000000000, 1.000000000000000000 ) ) ;
#153 = VECTOR ( 'NONE', #91, 39.37007874015748143 ) ;
#154 = DIRECTION ( 'NONE',  ( -1.000000000000000000, 0.0000000000000000000, 0.0000000000000000000 ) ) ;
#155 = CARTESIAN_POINT ( 'NONE',  ( 7.660553729477949085E-17, 0.0000000000000000000, 0.6255316826705892286 ) ) ;
#156 = DIRECTION ( 'NONE',  ( -1.224646799147353207E-16, -0.0000000000000000000, -1.000000000000000000 ) ) ;
#157 = ADVANCED_FACE ( 'NONE', ( #287 ), #65, .F. ) ;
#158 =( LENGTH_UNIT ( ) NAMED_UNIT ( * ) SI_UNIT ( $, .METRE. ) );
#159 = PRODUCT_RELATED_PRODUCT_CATEGORY ( 'part', '', ( #78 ) ) ;
#160 =( NAMED_UNIT ( * ) PLANE_ANGLE_UNIT ( ) SI_UNIT ( $, .RADIAN. ) );
#161 = ORIENTED_EDGE ( 'NONE', *, *, #294, .F. ) ;
#162 = CARTESIAN_POINT ( 'NONE',  ( -0.09365624999999992706, 1.147532321013543253E-17, 0.6250000000000000000 ) ) ;
#163 = PRESENTATION_LAYER_ASSIGNMENT (  '', '', ( #67 ) ) ;
#164 = CYLINDRICAL_SURFACE ( 'NONE', #102, 0.09375000000000001388 ) ;
#165 = PRODUCT_DEFINITION_SHAPE ( 'NONE', 'NONE',  #131 ) ;
#166 = APPLICATION_PROTOCOL_DEFINITION ( 'draft international standard', 'automotive_design', 1998, #63 ) ;
#167 = LENGTH_MEASURE_WITH_UNIT ( LENGTH_MEASURE( 0.02539999999999999897 ), #233 );
#168 = ORIENTED_EDGE ( 'NONE', *, *, #2, .T. ) ;
#169 = ADVANCED_FACE ( 'NONE', ( #245 ), #193, .T. ) ;
#170 = DIRECTION ( 'NONE',  ( 1.000000000000000000, 0.0000000000000000000, 0.0000000000000000000 ) ) ;
#171 = CARTESIAN_POINT ( 'NONE',  ( -0.09365624999999999645, 0.0000000000000000000, 1.146958267826442798E-17 ) ) ;
#172 = ORIENTED_EDGE ( 'NONE', *, *, #142, .F. ) ;
#173 = ORIENTED_EDGE ( 'NONE', *, *, #40, .F. ) ;
#174 = DIRECTION ( 'NONE',  ( -0.7071067811865463515, 0.0000000000000000000, -0.7071067811865486830 ) ) ;
#175 = DIRECTION ( 'NONE',  ( -1.000000000000000000, 0.0000000000000000000, 0.0000000000000000000 ) ) ;
#176 = DIRECTION ( 'NONE',  ( -1.000000000000000000, 0.0000000000000000000, 0.0000000000000000000 ) ) ;
#177 = MECHANICAL_DESIGN_GEOMETRIC_PRESENTATION_REPRESENTATION (  '', ( #250 ), #277 ) ;
#178 = DIRECTION ( 'NONE',  ( -1.224646799147353207E-16, -0.0000000000000000000, -1.000000000000000000 ) ) ;
#179 = DIRECTION ( 'NONE',  ( -0.0000000000000000000, -0.0000000000000000000, -1.000000000000000000 ) ) ;
#180 = DIRECTION ( 'NONE',  ( -0.0000000000000000000, -0.0000000000000000000, -1.000000000000000000 ) ) ;
#181 = EDGE_CURVE ( 'NONE', #9, #214, #267, .T. ) ;
#182 = CONICAL_SURFACE ( 'NONE', #276, 0.07874999999999980627, 0.7853981633974466137 ) ;
#183 = DIRECTION ( 'NONE',  ( 1.000000000000000000, 0.0000000000000000000, 0.0000000000000000000 ) ) ;
#184 = EDGE_CURVE ( 'NONE', #56, #148, #241, .T. ) ;
#185 = AXIS2_PLACEMENT_3D ( 'NONE', #225, #178, #176 ) ;
#186 = EDGE_LOOP ( 'NONE', ( #275, #279, #168, #161 ) ) ;
#187 = CIRCLE ( 'NONE', #113, 0.09365624999999999645 ) ;
#188 = EDGE_LOOP ( 'NONE', ( #81, #213 ) ) ;
#189 = CARTESIAN_POINT ( 'NONE',  ( 0.09365625000000006584, 0.0000000000000000000, 0.6250000000000000000 ) ) ;
#190 = DIRECTION ( 'NONE',  ( -0.0000000000000000000, -0.0000000000000000000, -1.000000000000000000 ) ) ;
#191 = AXIS2_PLACEMENT_3D ( 'NONE', #198, #152, #14 ) ;
#192 = EDGE_LOOP ( 'NONE', ( #53, #255, #235, #172 ) ) ;
#193 = CONICAL_SURFACE ( 'NONE', #191, 0.09365624999999999645, 0.1745329251994338637 ) ;
#194 =( GEOMETRIC_REPRESENTATION_CONTEXT ( 3 ) GLOBAL_UNCERTAINTY_ASSIGNED_CONTEXT ( ( #24 ) ) GLOBAL_UNIT_ASSIGNED_CONTEXT ( ( #204, #160, #143 ) ) REPRESENTATION_CONTEXT ( 'NONE', 'WORKASPACE' ) );
#195 = ADVANCED_FACE ( 'NONE', ( #196 ), #182, .T. ) ;
#196 = FACE_OUTER_BOUND ( 'NONE', #285, .T. ) ;
#197 = DIMENSIONAL_EXPONENTS ( 1.000000000000000000, 0.0000000000000000000, 0.0000000000000000000, 0.0000000000000000000, 0.0000000000000000000, 0.0000000000000000000, 0.0000000000000000000 ) ;
#198 = CARTESIAN_POINT ( 'NONE',  ( 7.654042494670957853E-17, 0.0000000000000000000, 0.6250000000000000000 ) ) ;
#199 = EDGE_CURVE ( 'NONE', #108, #254, #12, .T. ) ;
#200 = FACE_OUTER_BOUND ( 'NONE', #62, .T. ) ;
#201 = CONICAL_SURFACE ( 'NONE', #66, 0.09365624999999999645, 0.1745329251994338637 ) ;
#202 = DIRECTION ( 'NONE',  ( 1.000000000000000000, 0.0000000000000000000, 0.0000000000000000000 ) ) ;
#203 = DIRECTION ( 'NONE',  ( -1.000000000000000000, 0.0000000000000000000, 1.224646799147352961E-16 ) ) ;
#204 =( CONVERSION_BASED_UNIT ( 'INCH', #226 ) LENGTH_UNIT ( ) NAMED_UNIT ( #197 ) );
#205 = AXIS2_PLACEMENT_3D ( 'NONE', #270, #249, #183 ) ;
#206 = PRESENTATION_STYLE_ASSIGNMENT (( #79 ) ) ;
#207 = ORIENTED_EDGE ( 'NONE', *, *, #184, .F. ) ;
#208 = CARTESIAN_POINT ( 'NONE',  ( -0.09375000000000001388, 0.0000000000000000000, 2.000000000000000000 ) ) ;
#209 = CARTESIAN_POINT ( 'NONE',  ( 1.404618771449245766E-33, 0.0000000000000000000, 1.146958267826442798E-17 ) ) ;
#210 = AXIS2_PLACEMENT_3D ( 'NONE', #155, #13, #260 ) ;
#211 = DIRECTION ( 'NONE',  ( -1.000000000000000000, 0.0000000000000000000, 0.0000000000000000000 ) ) ;
#212 = EDGE_CURVE ( 'NONE', #86, #254, #25, .T. ) ;
#213 = ORIENTED_EDGE ( 'NONE', *, *, #294, .T. ) ;
#214 = VERTEX_POINT ( 'NONE', #162 ) ;
#215 = CIRCLE ( 'NONE', #92, 0.09365624999999999645 ) ;
#216 = ORIENTED_EDGE ( 'NONE', *, *, #229, .F. ) ;
#217 = ORIENTED_EDGE ( 'NONE', *, *, #293, .F. ) ;
#218 = CARTESIAN_POINT ( 'NONE',  ( 0.09365624999999999645, 1.146958267826442798E-17, 0.0000000000000000000 ) ) ;
#219 = VECTOR ( 'NONE', #77, 39.37007874015748143 ) ;
#220 = DIRECTION ( 'NONE',  ( -1.000000000000000000, 0.0000000000000000000, 0.0000000000000000000 ) ) ;
#221 = AXIS2_PLACEMENT_3D ( 'NONE', #35, #1, #170 ) ;
#222 = CARTESIAN_POINT ( 'NONE',  ( 0.0000000000000000000, 0.0000000000000000000, 2.000000000000000000 ) ) ;
#223 = CARTESIAN_POINT ( 'NONE',  ( 0.0000000000000000000, 0.0000000000000000000, 2.000000000000000000 ) ) ;
#224 = DIRECTION ( 'NONE',  ( 1.000000000000000000, 0.0000000000000000000, -0.0000000000000000000 ) ) ;
#225 = CARTESIAN_POINT ( 'NONE',  ( 7.654042494670957853E-17, 0.0000000000000000000, 0.6250000000000000000 ) ) ;
#226 = LENGTH_MEASURE_WITH_UNIT ( LENGTH_MEASURE( 0.02539999999999999897 ), #158 );
#227 =( NAMED_UNIT ( * ) PLANE_ANGLE_UNIT ( ) SI_UNIT ( $, .RADIAN. ) );
#228 =( GEOMETRIC_REPRESENTATION_CONTEXT ( 3 ) GLOBAL_UNCERTAINTY_ASSIGNED_CONTEXT ( ( #72 ) ) GLOBAL_UNIT_ASSIGNED_CONTEXT ( ( #128, #59, #57 ) ) REPRESENTATION_CONTEXT ( 'NONE', 'WORKASPACE' ) );
#229 = EDGE_CURVE ( 'NONE', #97, #56, #96, .T. ) ;
#230 = LINE ( 'NONE', #26, #75 ) ;
#231 =( LENGTH_UNIT ( ) NAMED_UNIT ( * ) SI_UNIT ( $, .METRE. ) );
#232 = ORIENTED_EDGE ( 'NONE', *, *, #280, .T. ) ;
#233 =( LENGTH_UNIT ( ) NAMED_UNIT ( * ) SI_UNIT ( $, .METRE. ) );
#234 = ORIENTED_EDGE ( 'NONE', *, *, #99, .T. ) ;
#235 = ORIENTED_EDGE ( 'NONE', *, *, #6, .F. ) ;
#236 = AXIS2_PLACEMENT_3D ( 'NONE', #42, #64, #224 ) ;
#237 = VECTOR ( 'NONE', #268, 39.37007874015748143 ) ;
#238 = ORIENTED_EDGE ( 'NONE', *, *, #248, .F. ) ;
#239 = CARTESIAN_POINT ( 'NONE',  ( 0.0000000000000000000, 0.0000000000000000000, 0.0000000000000000000 ) ) ;
#240 = DIMENSIONAL_EXPONENTS ( 1.000000000000000000, 0.0000000000000000000, 0.0000000000000000000, 0.0000000000000000000, 0.0000000000000000000, 0.0000000000000000000, 0.0000000000000000000 ) ;
#241 = LINE ( 'NONE', #132, #153 ) ;
#242 = CARTESIAN_POINT ( 'NONE',  ( 7.660553729477949085E-17, 0.0000000000000000000, 0.6255316826705892286 ) ) ;
#243 = FACE_OUTER_BOUND ( 'NONE', #192, .T. ) ;
#244 = CARTESIAN_POINT ( 'NONE',  ( 0.09375000000000001388, 1.148106374200643863E-17, 1.984999999999999654 ) ) ;
#245 = FACE_OUTER_BOUND ( 'NONE', #147, .T. ) ;
#246 = MANIFOLD_SOLID_BREP ( 'Cut-Revolve1', #109 ) ;
#247 = ADVANCED_FACE ( 'NONE', ( #117 ), #298, .T. ) ;
#248 = EDGE_CURVE ( 'NONE', #9, #108, #299, .T. ) ;
#249 = DIRECTION ( 'NONE',  ( 0.0000000000000000000, 0.0000000000000000000, 1.000000000000000000 ) ) ;
#250 = STYLED_ITEM ( 'NONE', ( #206 ), #246 ) ;
#251 = SURFACE_SIDE_STYLE ('',( #138 ) ) ;
#252 = ORIENTED_EDGE ( 'NONE', *, *, #40, .T. ) ;
#253 = FILL_AREA_STYLE_COLOUR ( '', #273 ) ;
#254 = VERTEX_POINT ( 'NONE', #101 ) ;
#255 = ORIENTED_EDGE ( 'NONE', *, *, #184, .T. ) ;
#256 = ADVANCED_BREP_SHAPE_REPRESENTATION ( 'Micro_EMS-187-4X', ( #246, #221 ), #194 ) ;
#257 = CYLINDRICAL_SURFACE ( 'NONE', #263, 0.09365624999999999645 ) ;
#258 = CIRCLE ( 'NONE', #210, 0.09375000000000001388 ) ;
#259 = EDGE_LOOP ( 'NONE', ( #105, #234 ) ) ;
#260 = DIRECTION ( 'NONE',  ( 1.000000000000000000, 0.0000000000000000000, 0.0000000000000000000 ) ) ;
#261 = ADVANCED_FACE ( 'NONE', ( #271 ), #164, .T. ) ;
#262 = DIRECTION ( 'NONE',  ( 1.224646799147353207E-16, 0.0000000000000000000, 1.000000000000000000 ) ) ;
#263 = AXIS2_PLACEMENT_3D ( 'NONE', #239, #36, #129 ) ;
#264 = DIRECTION ( 'NONE',  ( 0.0000000000000000000, 0.0000000000000000000, -1.000000000000000000 ) ) ;
#265 = CARTESIAN_POINT ( 'NONE',  ( 0.09375000000000006939, 1.148106374200644633E-17, 0.6255316826705892286 ) ) ;
#266 = CARTESIAN_POINT ( 'NONE',  ( -0.07874999999999980627, 0.0000000000000000000, 2.000000000000000000 ) ) ;
#267 = CIRCLE ( 'NONE', #149, 0.09365624999999999645 ) ;
#268 = DIRECTION ( 'NONE',  ( -1.224646799147353207E-16, -0.0000000000000000000, -1.000000000000000000 ) ) ;
#269 = ORIENTED_EDGE ( 'NONE', *, *, #181, .F. ) ;
#270 = CARTESIAN_POINT ( 'NONE',  ( 0.0000000000000000000, 0.0000000000000000000, 2.000000000000000000 ) ) ;
#271 = FACE_OUTER_BOUND ( 'NONE', #45, .T. ) ;
#272 = AXIS2_PLACEMENT_3D ( 'NONE', #150, #106, #85 ) ;
#273 = COLOUR_RGB ( '',0.7921568627450980005, 0.8196078431372548767, 0.9333333333333333481 ) ;
#274 = FILL_AREA_STYLE ('',( #98 ) ) ;
#275 = ORIENTED_EDGE ( 'NONE', *, *, #280, .F. ) ;
#276 = AXIS2_PLACEMENT_3D ( 'NONE', #286, #90, #175 ) ;
#277 =( GEOMETRIC_REPRESENTATION_CONTEXT ( 3 ) GLOBAL_UNCERTAINTY_ASSIGNED_CONTEXT ( ( #100 ) ) GLOBAL_UNIT_ASSIGNED_CONTEXT ( ( #140, #227, #21 ) ) REPRESENTATION_CONTEXT ( 'NONE', 'WORKASPACE' ) );
#278 = SURFACE_STYLE_USAGE ( .BOTH. , #124 ) ;
#279 = ORIENTED_EDGE ( 'NONE', *, *, #181, .T. ) ;
#280 = EDGE_CURVE ( 'NONE', #9, #11, #50, .T. ) ;
#281 = FACE_OUTER_BOUND ( 'NONE', #186, .T. ) ;
#282 = ORIENTED_EDGE ( 'NONE', *, *, #199, .T. ) ;
#283 = AXIS2_PLACEMENT_3D ( 'NONE', #110, #151, #17 ) ;
#284 = VECTOR ( 'NONE', #20, 39.37007874015748143 ) ;
#285 = EDGE_LOOP ( 'NONE', ( #207, #216, #123, #173 ) ) ;
#286 = CARTESIAN_POINT ( 'NONE',  ( 0.0000000000000000000, 0.0000000000000000000, 2.000000000000000000 ) ) ;
#287 = FACE_OUTER_BOUND ( 'NONE', #188, .T. ) ;
#288 = CIRCLE ( 'NONE', #43, 0.09375000000000001388 ) ;
#289 = DIRECTION ( 'NONE',  ( -1.224646799147353207E-16, -0.0000000000000000000, -1.000000000000000000 ) ) ;
#290 = PRESENTATION_LAYER_ASSIGNMENT (  '', '', ( #250 ) ) ;
#291 = CARTESIAN_POINT ( 'NONE',  ( 0.0000000000000000000, 0.0000000000000000000, 0.0000000000000000000 ) ) ;
#292 = CARTESIAN_POINT ( 'NONE',  ( 1.404618771449245766E-33, 0.0000000000000000000, 1.146958267826442798E-17 ) ) ;
#293 = EDGE_CURVE ( 'NONE', #214, #254, #230, .T. ) ;
#294 = EDGE_CURVE ( 'NONE', #11, #127, #187, .T. ) ;
#295 = CIRCLE ( 'NONE', #185, 0.09365624999999999645 ) ;
#296 = PRODUCT_DEFINITION_FORMATION_WITH_SPECIFIED_SOURCE ( 'ANY', '', #78, .NOT_KNOWN. ) ;
#297 = CARTESIAN_POINT ( 'NONE',  ( 0.0000000000000000000, 0.0000000000000000000, 2.000000000000000000 ) ) ;
#298 = PLANE ( 'NONE',  #126 ) ;
#299 = LINE ( 'NONE', #119, #284 ) ;
ENDSEC;
END-ISO-10303-21;
