ISO-10303-21;
HEADER;
FILE_DESCRIPTION (( 'STEP AP214' ),
    '1' );
FILE_NAME ('Micro_BMS-032-2X.STEP',
    '2021-09-03T15:12:01',
    ( '' ),
    ( '' ),
    'SwSTEP 2.0',
    'SolidWorks 2020',
    '' );
FILE_SCHEMA (( 'AUTOMOTIVE_DESIGN' ));
ENDSEC;

DATA;
#1 = DIMENSIONAL_EXPONENTS ( 1.000000000000000000, 0.0000000000000000000, 0.0000000000000000000, 0.0000000000000000000, 0.0000000000000000000, 0.0000000000000000000, 0.0000000000000000000 ) ;
#2 = AXIS2_PLACEMENT_3D ( 'NONE', #134, #93, #153 ) ;
#3 = FILL_AREA_STYLE ('',( #123 ) ) ;
#4 = ADVANCED_FACE ( 'NONE', ( #234 ), #274, .T. ) ;
#5 = CARTESIAN_POINT ( 'NONE',  ( 1.957475443757130046E-18, 0.0000000000000000000, 0.01598400000000000168 ) ) ;
#6 = ORIENTED_EDGE ( 'NONE', *, *, #143, .T. ) ;
#7 = SURFACE_SIDE_STYLE ('',( #183 ) ) ;
#8 = PRODUCT_CONTEXT ( 'NONE', #50, 'mechanical' ) ;
#9 = LINE ( 'NONE', #36, #53 ) ;
#10 = PRODUCT ( 'Micro_BMS-032-2X', 'Micro_BMS-032-2X', '', ( #8 ) ) ;
#11 = ORIENTED_EDGE ( 'NONE', *, *, #144, .T. ) ;
#12 = VERTEX_POINT ( 'NONE', #162 ) ;
#13 = DIRECTION ( 'NONE',  ( 1.000000000000000000, 0.0000000000000000000, 0.0000000000000000000 ) ) ;
#14 = VECTOR ( 'NONE', #267, 39.37007874015748143 ) ;
#15 = DIRECTION ( 'NONE',  ( 0.0000000000000000000, 0.0000000000000000000, -1.000000000000000000 ) ) ;
#16 = ORIENTED_EDGE ( 'NONE', *, *, #218, .T. ) ;
#17 = ORIENTED_EDGE ( 'NONE', *, *, #299, .F. ) ;
#18 = CARTESIAN_POINT ( 'NONE',  ( 0.06250000000000000000, 7.654042494670956004E-18, 1.500000000000000222 ) ) ;
#19 = VERTEX_POINT ( 'NONE', #206 ) ;
#20 = EDGE_CURVE ( 'NONE', #141, #42, #315, .T. ) ;
#21 = DIRECTION ( 'NONE',  ( -1.224646799147353454E-16, -0.0000000000000000000, -1.000000000000000000 ) ) ;
#22 = UNCERTAINTY_MEASURE_WITH_UNIT (LENGTH_MEASURE( 1.000000000000000082E-05 ), #103, 'distance_accuracy_value', 'NONE');
#23 = ORIENTED_EDGE ( 'NONE', *, *, #170, .T. ) ;
#24 = DIRECTION ( 'NONE',  ( -0.0000000000000000000, -0.0000000000000000000, -1.000000000000000000 ) ) ;
#25 = AXIS2_PLACEMENT_3D ( 'NONE', #164, #297, #167 ) ;
#26 = DIRECTION ( 'NONE',  ( -1.224646799147353454E-16, -0.0000000000000000000, -1.000000000000000000 ) ) ;
#27 = EDGE_CURVE ( 'NONE', #12, #19, #166, .T. ) ;
#28 = CIRCLE ( 'NONE', #150, 0.01598400000000000168 ) ;
#29 =( CONVERSION_BASED_UNIT ( 'INCH', #60 ) LENGTH_UNIT ( ) NAMED_UNIT ( #171 ) );
#30 = DIRECTION ( 'NONE',  ( 1.000000000000000000, 0.0000000000000000000, 0.0000000000000000000 ) ) ;
#31 = FACE_OUTER_BOUND ( 'NONE', #203, .T. ) ;
#32 = ORIENTED_EDGE ( 'NONE', *, *, #139, .T. ) ;
#33 = CARTESIAN_POINT ( 'NONE',  ( 0.0000000000000000000, 0.0000000000000000000, 0.0000000000000000000 ) ) ;
#34 = DIRECTION ( 'NONE',  ( 0.0000000000000000000, 0.0000000000000000000, 1.000000000000000000 ) ) ;
#35 = CARTESIAN_POINT ( 'NONE',  ( 2.936213165635694876E-18, 0.0000000000000000000, 0.0000000000000000000 ) ) ;
#36 = CARTESIAN_POINT ( 'NONE',  ( -0.04750000000000064587, 0.0000000000000000000, 1.500000000000000222 ) ) ;
#37 = ORIENTED_EDGE ( 'NONE', *, *, #174, .F. ) ;
#38 =( LENGTH_UNIT ( ) NAMED_UNIT ( * ) SI_UNIT ( $, .METRE. ) );
#39 = AXIS2_PLACEMENT_3D ( 'NONE', #213, #129, #228 ) ;
#40 = FACE_OUTER_BOUND ( 'NONE', #109, .T. ) ;
#41 = VERTEX_POINT ( 'NONE', #138 ) ;
#42 = VERTEX_POINT ( 'NONE', #231 ) ;
#43 = CARTESIAN_POINT ( 'NONE',  ( 0.01598400000000000862, 0.0000000000000000000, 0.04800000000000000100 ) ) ;
#44 = DIRECTION ( 'NONE',  ( 0.0000000000000000000, 0.0000000000000000000, 1.000000000000000000 ) ) ;
#45 = CYLINDRICAL_SURFACE ( 'NONE', #95, 0.06250000000000000000 ) ;
#46 = CIRCLE ( 'NONE', #272, 0.06250000000000000000 ) ;
#47 = CARTESIAN_POINT ( 'NONE',  ( 1.957475443757130046E-18, 0.0000000000000000000, 0.01598400000000000168 ) ) ;
#48 = CLOSED_SHELL ( 'NONE', ( #284, #56, #278, #4, #265, #135, #117, #151, #308, #71, #89 ) ) ;
#49 =( GEOMETRIC_REPRESENTATION_CONTEXT ( 3 ) GLOBAL_UNCERTAINTY_ASSIGNED_CONTEXT ( ( #22 ) ) GLOBAL_UNIT_ASSIGNED_CONTEXT ( ( #103, #313, #294 ) ) REPRESENTATION_CONTEXT ( 'NONE', 'WORKASPACE' ) );
#50 = APPLICATION_CONTEXT ( 'automotive_design' ) ;
#51 = DIRECTION ( 'NONE',  ( 1.000000000000000000, 0.0000000000000000000, 0.0000000000000000000 ) ) ;
#52 = VECTOR ( 'NONE', #26, 39.37007874015748143 ) ;
#53 = VECTOR ( 'NONE', #311, 39.37007874015748143 ) ;
#54 = ORIENTED_EDGE ( 'NONE', *, *, #299, .T. ) ;
#55 = DIRECTION ( 'NONE',  ( -1.000000000000000000, 1.224646799147353207E-16, 0.0000000000000000000 ) ) ;
#56 = ADVANCED_FACE ( 'NONE', ( #112 ), #286, .T. ) ;
#57 = CARTESIAN_POINT ( 'NONE',  ( 0.0000000000000000000, 0.0000000000000000000, 1.500000000000000222 ) ) ;
#58 = ORIENTED_EDGE ( 'NONE', *, *, #20, .F. ) ;
#59 = DIRECTION ( 'NONE',  ( 0.0000000000000000000, -1.000000000000000000, 0.0000000000000000000 ) ) ;
#60 = LENGTH_MEASURE_WITH_UNIT ( LENGTH_MEASURE( 0.02539999999999999897 ), #262 );
#61 = ORIENTED_EDGE ( 'NONE', *, *, #189, .T. ) ;
#62 = EDGE_CURVE ( 'NONE', #19, #12, #252, .T. ) ;
#63 = DIRECTION ( 'NONE',  ( -1.000000000000000000, 0.0000000000000000000, 0.0000000000000000000 ) ) ;
#64 = ORIENTED_EDGE ( 'NONE', *, *, #77, .T. ) ;
#65 = SURFACE_SIDE_STYLE ('',( #100 ) ) ;
#66 = ORIENTED_EDGE ( 'NONE', *, *, #144, .F. ) ;
#67 = VECTOR ( 'NONE', #219, 39.37007874015748143 ) ;
#68 = MANIFOLD_SOLID_BREP ( 'Fillet1', #48 ) ;
#69 =( GEOMETRIC_REPRESENTATION_CONTEXT ( 3 ) GLOBAL_UNCERTAINTY_ASSIGNED_CONTEXT ( ( #119 ) ) GLOBAL_UNIT_ASSIGNED_CONTEXT ( ( #78, #82, #175 ) ) REPRESENTATION_CONTEXT ( 'NONE', 'WORKASPACE' ) );
#70 = DIRECTION ( 'NONE',  ( -0.0000000000000000000, -0.0000000000000000000, -1.000000000000000000 ) ) ;
#71 = ADVANCED_FACE ( 'NONE', ( #102 ), #200, .T. ) ;
#72 = VERTEX_POINT ( 'NONE', #35 ) ;
#73 = CYLINDRICAL_SURFACE ( 'NONE', #260, 0.06250000000000000000 ) ;
#74 = ORIENTED_EDGE ( 'NONE', *, *, #81, .T. ) ;
#75 = MECHANICAL_DESIGN_GEOMETRIC_PRESENTATION_REPRESENTATION (  '', ( #96 ), #191 ) ;
#76 = PRODUCT_DEFINITION_CONTEXT ( 'detailed design', #227, 'design' ) ;
#77 = EDGE_CURVE ( 'NONE', #155, #41, #304, .T. ) ;
#78 =( CONVERSION_BASED_UNIT ( 'INCH', #224 ) LENGTH_UNIT ( ) NAMED_UNIT ( #248 ) );
#79 =( NAMED_UNIT ( * ) PLANE_ANGLE_UNIT ( ) SI_UNIT ( $, .RADIAN. ) );
#80 = CIRCLE ( 'NONE', #106, 0.01598400000000000168 ) ;
#81 = EDGE_CURVE ( 'NONE', #88, #41, #165, .T. ) ;
#82 =( NAMED_UNIT ( * ) PLANE_ANGLE_UNIT ( ) SI_UNIT ( $, .RADIAN. ) );
#83 = EDGE_CURVE ( 'NONE', #155, #42, #296, .T. ) ;
#84 = DIRECTION ( 'NONE',  ( -0.0000000000000000000, -0.0000000000000000000, -1.000000000000000000 ) ) ;
#85 = EDGE_CURVE ( 'NONE', #141, #19, #245, .T. ) ;
#86 = DIRECTION ( 'NONE',  ( 0.0000000000000000000, 0.0000000000000000000, -1.000000000000000000 ) ) ;
#87 = CARTESIAN_POINT ( 'NONE',  ( 0.0000000000000000000, 0.0000000000000000000, 0.0000000000000000000 ) ) ;
#88 = VERTEX_POINT ( 'NONE', #244 ) ;
#89 = ADVANCED_FACE ( 'NONE', ( #269 ), #190, .T. ) ;
#90 = CARTESIAN_POINT ( 'NONE',  ( -0.04750000000000064587, 0.0000000000000000000, 1.500000000000000222 ) ) ;
#91 = PRESENTATION_LAYER_ASSIGNMENT (  '', '', ( #96 ) ) ;
#92 = LINE ( 'NONE', #18, #282 ) ;
#93 = DIRECTION ( 'NONE',  ( 0.0000000000000000000, 0.0000000000000000000, 1.000000000000000000 ) ) ;
#94 = AXIS2_PLACEMENT_3D ( 'NONE', #114, #136, #283 ) ;
#95 = AXIS2_PLACEMENT_3D ( 'NONE', #131, #70, #63 ) ;
#96 = STYLED_ITEM ( 'NONE', ( #290 ), #68 ) ;
#97 = CARTESIAN_POINT ( 'NONE',  ( 0.0000000000000000000, 0.0000000000000000000, 1.485000000000000764 ) ) ;
#98 = EDGE_LOOP ( 'NONE', ( #184, #310, #226, #17 ) ) ;
#99 = DIRECTION ( 'NONE',  ( 0.0000000000000000000, 1.000000000000000000, 0.0000000000000000000 ) ) ;
#100 = SURFACE_STYLE_FILL_AREA ( #3 ) ;
#101 = DIRECTION ( 'NONE',  ( 0.0000000000000000000, 0.0000000000000000000, -1.000000000000000000 ) ) ;
#102 = FACE_OUTER_BOUND ( 'NONE', #193, .T. ) ;
#103 =( CONVERSION_BASED_UNIT ( 'INCH', #132 ) LENGTH_UNIT ( ) NAMED_UNIT ( #1 ) );
#104 = DIRECTION ( 'NONE',  ( 1.000000000000000000, 0.0000000000000000000, 0.0000000000000000000 ) ) ;
#105 = EDGE_LOOP ( 'NONE', ( #6, #11 ) ) ;
#106 = AXIS2_PLACEMENT_3D ( 'NONE', #201, #217, #156 ) ;
#107 = ORIENTED_EDGE ( 'NONE', *, *, #325, .F. ) ;
#108 = CARTESIAN_POINT ( 'NONE',  ( 3.818514178598799583E-17, 0.0000000000000000000, 0.3118053451213360083 ) ) ;
#109 = EDGE_LOOP ( 'NONE', ( #285, #235, #23, #291 ) ) ;
#110 = ORIENTED_EDGE ( 'NONE', *, *, #189, .F. ) ;
#111 = CARTESIAN_POINT ( 'NONE',  ( 0.01598400000000000515, 1.957475443757129660E-18, -1.957475443757130431E-18 ) ) ;
#112 = FACE_OUTER_BOUND ( 'NONE', #122, .T. ) ;
#113 = DIRECTION ( 'NONE',  ( -1.000000000000000000, 0.0000000000000000000, 0.0000000000000000000 ) ) ;
#114 = CARTESIAN_POINT ( 'NONE',  ( 1.957475443757130046E-18, 0.0000000000000000000, 0.01598400000000000168 ) ) ;
#115 = AXIS2_PLACEMENT_3D ( 'NONE', #128, #209, #163 ) ;
#116 = DIRECTION ( 'NONE',  ( 0.1736481776669313304, 0.0000000000000000000, 0.9848077530122077983 ) ) ;
#117 = ADVANCED_FACE ( 'NONE', ( #120 ), #236, .T. ) ;
#118 = ORIENTED_EDGE ( 'NONE', *, *, #85, .F. ) ;
#119 = UNCERTAINTY_MEASURE_WITH_UNIT (LENGTH_MEASURE( 1.000000000000000082E-05 ), #78, 'distance_accuracy_value', 'NONE');
#120 = FACE_OUTER_BOUND ( 'NONE', #105, .T. ) ;
#121 = EDGE_CURVE ( 'NONE', #239, #42, #233, .T. ) ;
#122 = EDGE_LOOP ( 'NONE', ( #276, #263, #288, #118 ) ) ;
#123 = FILL_AREA_STYLE_COLOUR ( '', #215 ) ;
#124 = EDGE_CURVE ( 'NONE', #216, #239, #158, .T. ) ;
#125 = CONICAL_SURFACE ( 'NONE', #178, 0.04750000000000064587, 0.7853981633974457255 ) ;
#126 = CARTESIAN_POINT ( 'NONE',  ( -0.01598399999999999474, 1.957475443757129660E-18, 0.04800000000000000100 ) ) ;
#127 = EDGE_LOOP ( 'NONE', ( #66, #74, #280, #37 ) ) ;
#128 = CARTESIAN_POINT ( 'NONE',  ( 3.818514178598799583E-17, 0.0000000000000000000, 0.3118053451213360083 ) ) ;
#129 = DIRECTION ( 'NONE',  ( 1.224646799147353454E-16, 0.0000000000000000000, 1.000000000000000000 ) ) ;
#130 = EDGE_LOOP ( 'NONE', ( #58, #172, #198, #254 ) ) ;
#131 = CARTESIAN_POINT ( 'NONE',  ( 0.0000000000000000000, 0.0000000000000000000, 1.500000000000000222 ) ) ;
#132 = LENGTH_MEASURE_WITH_UNIT ( LENGTH_MEASURE( 0.02539999999999999897 ), #38 );
#133 = ORIENTED_EDGE ( 'NONE', *, *, #85, .T. ) ;
#134 = CARTESIAN_POINT ( 'NONE',  ( 0.0000000000000000000, 0.0000000000000000000, 1.500000000000000222 ) ) ;
#135 = ADVANCED_FACE ( 'NONE', ( #321 ), #73, .T. ) ;
#136 = DIRECTION ( 'NONE',  ( 1.224646799147353454E-16, 0.0000000000000000000, 1.000000000000000000 ) ) ;
#137 = DIRECTION ( 'NONE',  ( 1.224646799147353454E-16, 0.0000000000000000000, 1.000000000000000000 ) ) ;
#138 = CARTESIAN_POINT ( 'NONE',  ( 0.06250000000000000000, 7.654042494670956004E-18, 1.485000000000000764 ) ) ;
#139 = EDGE_CURVE ( 'NONE', #216, #141, #80, .T. ) ;
#140 = CARTESIAN_POINT ( 'NONE',  ( -0.01598400000000000515, 0.0000000000000000000, 1.957475443757130431E-18 ) ) ;
#141 = VERTEX_POINT ( 'NONE', #232 ) ;
#142 = DIRECTION ( 'NONE',  ( 0.7071067811865456854, 8.659560562354911904E-17, -0.7071067811865493491 ) ) ;
#143 = EDGE_CURVE ( 'NONE', #179, #88, #169, .T. ) ;
#144 = EDGE_CURVE ( 'NONE', #88, #179, #225, .T. ) ;
#145 = AXIS2_PLACEMENT_3D ( 'NONE', #5, #99, #277 ) ;
#146 = DIRECTION ( 'NONE',  ( 1.224646799147353207E-16, 1.000000000000000000, -0.0000000000000000000 ) ) ;
#147 = ORIENTED_EDGE ( 'NONE', *, *, #62, .T. ) ;
#148 = DIRECTION ( 'NONE',  ( -1.000000000000000000, 0.0000000000000000000, 1.224646799147353454E-16 ) ) ;
#149 = AXIS2_PLACEMENT_3D ( 'NONE', #241, #154, #148 ) ;
#150 = AXIS2_PLACEMENT_3D ( 'NONE', #306, #146, #55 ) ;
#151 = ADVANCED_FACE ( 'NONE', ( #180 ), #125, .T. ) ;
#152 = SURFACE_STYLE_USAGE ( .BOTH. , #65 ) ;
#153 = DIRECTION ( 'NONE',  ( 1.000000000000000000, 0.0000000000000000000, 0.0000000000000000000 ) ) ;
#154 = DIRECTION ( 'NONE',  ( -1.224646799147353454E-16, -0.0000000000000000000, -1.000000000000000000 ) ) ;
#155 = VERTEX_POINT ( 'NONE', #240 ) ;
#156 = DIRECTION ( 'NONE',  ( -1.000000000000000000, 0.0000000000000000000, 0.0000000000000000000 ) ) ;
#157 = ORIENTED_EDGE ( 'NONE', *, *, #238, .F. ) ;
#158 = LINE ( 'NONE', #314, #159 ) ;
#159 = VECTOR ( 'NONE', #116, 39.37007874015748143 ) ;
#160 = AXIS2_PLACEMENT_3D ( 'NONE', #264, #137, #30 ) ;
#161 = EDGE_LOOP ( 'NONE', ( #110, #54, #237, #199 ) ) ;
#162 = CARTESIAN_POINT ( 'NONE',  ( 0.01598400000000000515, 1.957475443757129660E-18, 0.01598400000000000168 ) ) ;
#163 = DIRECTION ( 'NONE',  ( 1.000000000000000000, 0.0000000000000000000, 0.0000000000000000000 ) ) ;
#164 = CARTESIAN_POINT ( 'NONE',  ( 0.0000000000000000000, 0.0000000000000000000, 1.485000000000000764 ) ) ;
#165 = LINE ( 'NONE', #271, #168 ) ;
#166 = CIRCLE ( 'NONE', #94, 0.01598400000000000515 ) ;
#167 = DIRECTION ( 'NONE',  ( 1.000000000000000000, 0.0000000000000000000, 0.0000000000000000000 ) ) ;
#168 = VECTOR ( 'NONE', #142, 39.37007874015748143 ) ;
#169 = CIRCLE ( 'NONE', #253, 0.04750000000000064587 ) ;
#170 = EDGE_CURVE ( 'NONE', #42, #239, #324, .T. ) ;
#171 = DIMENSIONAL_EXPONENTS ( 1.000000000000000000, 0.0000000000000000000, 0.0000000000000000000, 0.0000000000000000000, 0.0000000000000000000, 0.0000000000000000000, 0.0000000000000000000 ) ;
#172 = ORIENTED_EDGE ( 'NONE', *, *, #139, .F. ) ;
#173 = MECHANICAL_DESIGN_GEOMETRIC_PRESENTATION_REPRESENTATION (  '', ( #247 ), #49 ) ;
#174 = EDGE_CURVE ( 'NONE', #179, #155, #9, .T. ) ;
#175 =( NAMED_UNIT ( * ) SI_UNIT ( $, .STERADIAN. ) SOLID_ANGLE_UNIT ( ) );
#176 = ORIENTED_EDGE ( 'NONE', *, *, #325, .T. ) ;
#177 = ORIENTED_EDGE ( 'NONE', *, *, #83, .F. ) ;
#178 = AXIS2_PLACEMENT_3D ( 'NONE', #212, #318, #255 ) ;
#179 = VERTEX_POINT ( 'NONE', #90 ) ;
#180 = FACE_OUTER_BOUND ( 'NONE', #98, .T. ) ;
#181 = ORIENTED_EDGE ( 'NONE', *, *, #62, .F. ) ;
#182 = CARTESIAN_POINT ( 'NONE',  ( 0.0000000000000000000, 0.0000000000000000000, 1.500000000000000222 ) ) ;
#183 = SURFACE_STYLE_FILL_AREA ( #202 ) ;
#184 = ORIENTED_EDGE ( 'NONE', *, *, #81, .F. ) ;
#185 = DIRECTION ( 'NONE',  ( 1.000000000000000000, 0.0000000000000000000, -0.0000000000000000000 ) ) ;
#186 = EDGE_CURVE ( 'NONE', #141, #216, #222, .T. ) ;
#187 = DIRECTION ( 'NONE',  ( -1.000000000000000000, 0.0000000000000000000, 0.0000000000000000000 ) ) ;
#188 = CARTESIAN_POINT ( 'NONE',  ( 0.06250000000000002776, 7.654042494670959086E-18, 0.3118053451213360083 ) ) ;
#189 = EDGE_CURVE ( 'NONE', #41, #239, #92, .T. ) ;
#190 = SPHERICAL_SURFACE ( 'NONE', #194, 0.01598400000000000168 ) ;
#191 =( GEOMETRIC_REPRESENTATION_CONTEXT ( 3 ) GLOBAL_UNCERTAINTY_ASSIGNED_CONTEXT ( ( #307 ) ) GLOBAL_UNIT_ASSIGNED_CONTEXT ( ( #29, #79, #309 ) ) REPRESENTATION_CONTEXT ( 'NONE', 'WORKASPACE' ) );
#192 = PRODUCT_DEFINITION_FORMATION_WITH_SPECIFIED_SOURCE ( 'ANY', '', #10, .NOT_KNOWN. ) ;
#193 = EDGE_LOOP ( 'NONE', ( #157, #32, #133, #147 ) ) ;
#194 = AXIS2_PLACEMENT_3D ( 'NONE', #47, #320, #104 ) ;
#195 = CARTESIAN_POINT ( 'NONE',  ( 5.878304635907297015E-18, 0.0000000000000000000, 0.04800000000000000100 ) ) ;
#196 = CONICAL_SURFACE ( 'NONE', #160, 0.01598400000000000168, 0.1745329251994338360 ) ;
#197 = FACE_OUTER_BOUND ( 'NONE', #130, .T. ) ;
#198 = ORIENTED_EDGE ( 'NONE', *, *, #124, .T. ) ;
#199 = ORIENTED_EDGE ( 'NONE', *, *, #121, .F. ) ;
#200 = CYLINDRICAL_SURFACE ( 'NONE', #149, 0.01598400000000000515 ) ;
#201 = CARTESIAN_POINT ( 'NONE',  ( 5.878304635907297015E-18, 0.0000000000000000000, 0.04800000000000000100 ) ) ;
#202 = FILL_AREA_STYLE ('',( #210 ) ) ;
#203 = EDGE_LOOP ( 'NONE', ( #223, #176, #258 ) ) ;
#204 = LINE ( 'NONE', #111, #14 ) ;
#205 = PRODUCT_DEFINITION_SHAPE ( 'NONE', 'NONE',  #303 ) ;
#206 = CARTESIAN_POINT ( 'NONE',  ( -0.01598400000000000168, 0.0000000000000000000, 0.01598400000000000515 ) ) ;
#207 = PRESENTATION_STYLE_ASSIGNMENT (( #152 ) ) ;
#208 = ORIENTED_EDGE ( 'NONE', *, *, #170, .F. ) ;
#209 = DIRECTION ( 'NONE',  ( -1.224646799147353454E-16, -0.0000000000000000000, -1.000000000000000000 ) ) ;
#210 = FILL_AREA_STYLE_COLOUR ( '', #300 ) ;
#211 = EDGE_LOOP ( 'NONE', ( #107, #16, #181 ) ) ;
#212 = CARTESIAN_POINT ( 'NONE',  ( 0.0000000000000000000, 0.0000000000000000000, 1.500000000000000222 ) ) ;
#213 = CARTESIAN_POINT ( 'NONE',  ( 1.957475443757130046E-18, 0.0000000000000000000, 0.01598400000000000168 ) ) ;
#214 = AXIS2_PLACEMENT_3D ( 'NONE', #273, #15, #187 ) ;
#215 = COLOUR_RGB ( '',0.7921568627450980005, 0.8196078431372548767, 0.9333333333333333481 ) ;
#216 = VERTEX_POINT ( 'NONE', #43 ) ;
#217 = DIRECTION ( 'NONE',  ( -1.224646799147353454E-16, -0.0000000000000000000, -1.000000000000000000 ) ) ;
#218 = EDGE_CURVE ( 'NONE', #72, #12, #221, .T. ) ;
#219 = DIRECTION ( 'NONE',  ( -0.0000000000000000000, -0.0000000000000000000, -1.000000000000000000 ) ) ;
#220 = AXIS2_PLACEMENT_3D ( 'NONE', #295, #34, #185 ) ;
#221 = CIRCLE ( 'NONE', #301, 0.01598400000000000168 ) ;
#222 = CIRCLE ( 'NONE', #293, 0.01598400000000000168 ) ;
#223 = ORIENTED_EDGE ( 'NONE', *, *, #218, .F. ) ;
#224 = LENGTH_MEASURE_WITH_UNIT ( LENGTH_MEASURE( 0.02539999999999999897 ), #250 );
#225 = CIRCLE ( 'NONE', #2, 0.04750000000000064587 ) ;
#226 = ORIENTED_EDGE ( 'NONE', *, *, #174, .T. ) ;
#227 = APPLICATION_CONTEXT ( 'automotive_design' ) ;
#228 = DIRECTION ( 'NONE',  ( -1.000000000000000000, 0.0000000000000000000, 1.335245398554932983E-16 ) ) ;
#229 = DIRECTION ( 'NONE',  ( 1.000000000000000000, 0.0000000000000000000, 0.0000000000000000000 ) ) ;
#230 = CARTESIAN_POINT ( 'NONE',  ( 1.957475443757130046E-18, 0.0000000000000000000, 0.01598400000000000168 ) ) ;
#231 = CARTESIAN_POINT ( 'NONE',  ( -0.06249999999999996531, 0.0000000000000000000, 0.3118053451213360083 ) ) ;
#232 = CARTESIAN_POINT ( 'NONE',  ( -0.01598399999999999474, 4.805758969214043988E-18, 0.04800000000000000100 ) ) ;
#233 = CIRCLE ( 'NONE', #246, 0.06250000000000000000 ) ;
#234 = FACE_OUTER_BOUND ( 'NONE', #127, .T. ) ;
#235 = ORIENTED_EDGE ( 'NONE', *, *, #20, .T. ) ;
#236 = PLANE ( 'NONE',  #220 ) ;
#237 = ORIENTED_EDGE ( 'NONE', *, *, #83, .T. ) ;
#238 = EDGE_CURVE ( 'NONE', #216, #12, #204, .T. ) ;
#239 = VERTEX_POINT ( 'NONE', #188 ) ;
#240 = CARTESIAN_POINT ( 'NONE',  ( -0.06250000000000000000, 0.0000000000000000000, 1.485000000000000764 ) ) ;
#241 = CARTESIAN_POINT ( 'NONE',  ( 0.0000000000000000000, 0.0000000000000000000, 0.0000000000000000000 ) ) ;
#242 = PRODUCT_RELATED_PRODUCT_CATEGORY ( 'part', '', ( #10 ) ) ;
#243 = DIRECTION ( 'NONE',  ( 1.000000000000000000, 0.0000000000000000000, 0.0000000000000000000 ) ) ;
#244 = CARTESIAN_POINT ( 'NONE',  ( 0.04750000000000064587, 6.735557395310482421E-18, 1.500000000000000222 ) ) ;
#245 = LINE ( 'NONE', #140, #52 ) ;
#246 = AXIS2_PLACEMENT_3D ( 'NONE', #108, #292, #243 ) ;
#247 = STYLED_ITEM ( 'NONE', ( #207 ), #305 ) ;
#248 = DIMENSIONAL_EXPONENTS ( 1.000000000000000000, 0.0000000000000000000, 0.0000000000000000000, 0.0000000000000000000, 0.0000000000000000000, 0.0000000000000000000, 0.0000000000000000000 ) ;
#249 = SPHERICAL_SURFACE ( 'NONE', #145, 0.01598400000000000168 ) ;
#250 =( LENGTH_UNIT ( ) NAMED_UNIT ( * ) SI_UNIT ( $, .METRE. ) );
#251 = DIRECTION ( 'NONE',  ( 1.224646799147353454E-16, 0.0000000000000000000, 1.000000000000000000 ) ) ;
#252 = CIRCLE ( 'NONE', #39, 0.01598400000000000515 ) ;
#253 = AXIS2_PLACEMENT_3D ( 'NONE', #57, #281, #13 ) ;
#254 = ORIENTED_EDGE ( 'NONE', *, *, #121, .T. ) ;
#255 = DIRECTION ( 'NONE',  ( -1.000000000000000000, 0.0000000000000000000, 0.0000000000000000000 ) ) ;
#256 = FACE_OUTER_BOUND ( 'NONE', #322, .T. ) ;
#257 = DIRECTION ( 'NONE',  ( -1.224646799147353454E-16, -0.0000000000000000000, -1.000000000000000000 ) ) ;
#258 = ORIENTED_EDGE ( 'NONE', *, *, #27, .F. ) ;
#259 = CARTESIAN_POINT ( 'NONE',  ( 5.878304635907297015E-18, 0.0000000000000000000, 0.04800000000000000100 ) ) ;
#260 = AXIS2_PLACEMENT_3D ( 'NONE', #182, #24, #113 ) ;
#261 = PRESENTATION_LAYER_ASSIGNMENT (  '', '', ( #247 ) ) ;
#262 =( LENGTH_UNIT ( ) NAMED_UNIT ( * ) SI_UNIT ( $, .METRE. ) );
#263 = ORIENTED_EDGE ( 'NONE', *, *, #238, .T. ) ;
#264 = CARTESIAN_POINT ( 'NONE',  ( 5.878304635907297015E-18, 0.0000000000000000000, 0.04800000000000000100 ) ) ;
#265 = ADVANCED_FACE ( 'NONE', ( #256 ), #45, .T. ) ;
#266 = DIRECTION ( 'NONE',  ( -0.1736481776669311639, 2.126576849575782392E-17, 0.9848077530122080203 ) ) ;
#267 = DIRECTION ( 'NONE',  ( -1.224646799147353454E-16, -0.0000000000000000000, -1.000000000000000000 ) ) ;
#268 = CARTESIAN_POINT ( 'NONE',  ( -0.06250000000000000000, 0.0000000000000000000, 1.500000000000000222 ) ) ;
#269 = FACE_OUTER_BOUND ( 'NONE', #211, .T. ) ;
#270 = AXIS2_PLACEMENT_3D ( 'NONE', #33, #44, #229 ) ;
#271 = CARTESIAN_POINT ( 'NONE',  ( 0.04750000000000064587, 5.817072295950006528E-18, 1.500000000000000222 ) ) ;
#272 = AXIS2_PLACEMENT_3D ( 'NONE', #97, #101, #51 ) ;
#273 = CARTESIAN_POINT ( 'NONE',  ( 0.0000000000000000000, 0.0000000000000000000, 1.500000000000000222 ) ) ;
#274 = CONICAL_SURFACE ( 'NONE', #214, 0.04750000000000064587, 0.7853981633974457255 ) ;
#275 = VECTOR ( 'NONE', #266, 39.37007874015747433 ) ;
#276 = ORIENTED_EDGE ( 'NONE', *, *, #186, .T. ) ;
#277 = DIRECTION ( 'NONE',  ( 1.000000000000000000, 0.0000000000000000000, 0.0000000000000000000 ) ) ;
#278 = ADVANCED_FACE ( 'NONE', ( #40 ), #196, .T. ) ;
#279 = APPLICATION_PROTOCOL_DEFINITION ( 'draft international standard', 'automotive_design', 1998, #50 ) ;
#280 = ORIENTED_EDGE ( 'NONE', *, *, #77, .F. ) ;
#281 = DIRECTION ( 'NONE',  ( 0.0000000000000000000, 0.0000000000000000000, 1.000000000000000000 ) ) ;
#282 = VECTOR ( 'NONE', #84, 39.37007874015748143 ) ;
#283 = DIRECTION ( 'NONE',  ( -1.000000000000000000, 0.0000000000000000000, 1.335245398554932983E-16 ) ) ;
#284 = ADVANCED_FACE ( 'NONE', ( #31 ), #249, .T. ) ;
#285 = ORIENTED_EDGE ( 'NONE', *, *, #186, .F. ) ;
#286 = CYLINDRICAL_SURFACE ( 'NONE', #323, 0.01598400000000000515 ) ;
#287 = SHAPE_DEFINITION_REPRESENTATION ( #205, #305 ) ;
#288 = ORIENTED_EDGE ( 'NONE', *, *, #27, .T. ) ;
#289 = DIRECTION ( 'NONE',  ( -1.000000000000000000, 0.0000000000000000000, 0.0000000000000000000 ) ) ;
#290 = PRESENTATION_STYLE_ASSIGNMENT (( #312 ) ) ;
#291 = ORIENTED_EDGE ( 'NONE', *, *, #124, .F. ) ;
#292 = DIRECTION ( 'NONE',  ( -1.224646799147353454E-16, -0.0000000000000000000, -1.000000000000000000 ) ) ;
#293 = AXIS2_PLACEMENT_3D ( 'NONE', #259, #21, #289 ) ;
#294 =( NAMED_UNIT ( * ) SI_UNIT ( $, .STERADIAN. ) SOLID_ANGLE_UNIT ( ) );
#295 = CARTESIAN_POINT ( 'NONE',  ( 0.0000000000000000000, 0.0000000000000000000, 1.500000000000000222 ) ) ;
#296 = LINE ( 'NONE', #268, #67 ) ;
#297 = DIRECTION ( 'NONE',  ( 0.0000000000000000000, 0.0000000000000000000, -1.000000000000000000 ) ) ;
#298 = AXIS2_PLACEMENT_3D ( 'NONE', #195, #251, #302 ) ;
#299 = EDGE_CURVE ( 'NONE', #41, #155, #46, .T. ) ;
#300 = COLOUR_RGB ( '',0.7921568627450980005, 0.8196078431372548767, 0.9333333333333333481 ) ;
#301 = AXIS2_PLACEMENT_3D ( 'NONE', #230, #59, #86 ) ;
#302 = DIRECTION ( 'NONE',  ( 1.000000000000000000, 0.0000000000000000000, 0.0000000000000000000 ) ) ;
#303 = PRODUCT_DEFINITION ( 'UNKNOWN', '', #192, #76 ) ;
#304 = CIRCLE ( 'NONE', #25, 0.06250000000000000000 ) ;
#305 = ADVANCED_BREP_SHAPE_REPRESENTATION ( 'Micro_BMS-032-2X', ( #68, #270 ), #69 ) ;
#306 = CARTESIAN_POINT ( 'NONE',  ( 1.957475443757130046E-18, 0.0000000000000000000, 0.01598400000000000168 ) ) ;
#307 = UNCERTAINTY_MEASURE_WITH_UNIT (LENGTH_MEASURE( 1.000000000000000082E-05 ), #29, 'distance_accuracy_value', 'NONE');
#308 = ADVANCED_FACE ( 'NONE', ( #197 ), #319, .T. ) ;
#309 =( NAMED_UNIT ( * ) SI_UNIT ( $, .STERADIAN. ) SOLID_ANGLE_UNIT ( ) );
#310 = ORIENTED_EDGE ( 'NONE', *, *, #143, .F. ) ;
#311 = DIRECTION ( 'NONE',  ( -0.7071067811865456854, 0.0000000000000000000, -0.7071067811865493491 ) ) ;
#312 = SURFACE_STYLE_USAGE ( .BOTH. , #7 ) ;
#313 =( NAMED_UNIT ( * ) PLANE_ANGLE_UNIT ( ) SI_UNIT ( $, .RADIAN. ) );
#314 = CARTESIAN_POINT ( 'NONE',  ( 0.01598400000000000862, 0.0000000000000000000, 0.04800000000000000100 ) ) ;
#315 = LINE ( 'NONE', #126, #275 ) ;
#316 = DIRECTION ( 'NONE',  ( -1.000000000000000000, 0.0000000000000000000, 1.224646799147353454E-16 ) ) ;
#317 = APPLICATION_PROTOCOL_DEFINITION ( 'draft international standard', 'automotive_design', 1998, #227 ) ;
#318 = DIRECTION ( 'NONE',  ( 0.0000000000000000000, 0.0000000000000000000, -1.000000000000000000 ) ) ;
#319 = CONICAL_SURFACE ( 'NONE', #298, 0.01598400000000000168, 0.1745329251994338360 ) ;
#320 = DIRECTION ( 'NONE',  ( 0.0000000000000000000, 1.000000000000000000, 0.0000000000000000000 ) ) ;
#321 = FACE_OUTER_BOUND ( 'NONE', #161, .T. ) ;
#322 = EDGE_LOOP ( 'NONE', ( #64, #61, #208, #177 ) ) ;
#323 = AXIS2_PLACEMENT_3D ( 'NONE', #87, #257, #316 ) ;
#324 = CIRCLE ( 'NONE', #115, 0.06250000000000000000 ) ;
#325 = EDGE_CURVE ( 'NONE', #72, #19, #28, .T. ) ;
ENDSEC;
END-ISO-10303-21;
