ISO-10303-21;
HEADER;
FILE_DESCRIPTION (( 'STEP AP214' ),
    '1' );
FILE_NAME ('Micro_RNC-500-24.STEP',
    '2021-09-03T17:38:58',
    ( '' ),
    ( '' ),
    'SwSTEP 2.0',
    'SolidWorks 2020',
    '' );
FILE_SCHEMA (( 'AUTOMOTIVE_DESIGN' ));
ENDSEC;

DATA;
#1 = DIMENSIONAL_EXPONENTS ( 1.000000000000000000, 0.0000000000000000000, 0.0000000000000000000, 0.0000000000000000000, 0.0000000000000000000, 0.0000000000000000000, 0.0000000000000000000 ) ;
#2 = ADVANCED_FACE ( 'NONE', ( #140 ), #128, .T. ) ;
#3 = ORIENTED_EDGE ( 'NONE', *, *, #127, .T. ) ;
#4 = EDGE_LOOP ( 'NONE', ( #53, #216, #232, #179 ) ) ;
#5 = LINE ( 'NONE', #160, #95 ) ;
#6 = AXIS2_PLACEMENT_3D ( 'NONE', #168, #13, #206 ) ;
#7 = CARTESIAN_POINT ( 'NONE',  ( 0.0000000000000000000, 0.0000000000000000000, 4.000000000000000000 ) ) ;
#8 = EDGE_CURVE ( 'NONE', #23, #98, #5, .T. ) ;
#9 = DIRECTION ( 'NONE',  ( -1.000000000000000000, 0.0000000000000000000, 0.0000000000000000000 ) ) ;
#10 = CARTESIAN_POINT ( 'NONE',  ( 0.0000000000000000000, 0.0000000000000000000, 3.754000000000000892 ) ) ;
#11 = AXIS2_PLACEMENT_3D ( 'NONE', #211, #34, #21 ) ;
#12 = DIMENSIONAL_EXPONENTS ( 1.000000000000000000, 0.0000000000000000000, 0.0000000000000000000, 0.0000000000000000000, 0.0000000000000000000, 0.0000000000000000000, 0.0000000000000000000 ) ;
#13 = DIRECTION ( 'NONE',  ( -0.0000000000000000000, -0.0000000000000000000, -1.000000000000000000 ) ) ;
#14 = CARTESIAN_POINT ( 'NONE',  ( 0.0000000000000000000, 0.0000000000000000000, 0.0000000000000000000 ) ) ;
#15 = CONICAL_SURFACE ( 'NONE', #117, 0.003999999999999999216, 0.7853981633974503884 ) ;
#16 = MECHANICAL_DESIGN_GEOMETRIC_PRESENTATION_REPRESENTATION (  '', ( #25 ), #20 ) ;
#17 = CARTESIAN_POINT ( 'NONE',  ( -0.2500000000000000000, 0.0000000000000000000, 3.754000000000000892 ) ) ;
#18 = ORIENTED_EDGE ( 'NONE', *, *, #158, .T. ) ;
#19 = ADVANCED_FACE ( 'NONE', ( #136 ), #15, .T. ) ;
#20 =( GEOMETRIC_REPRESENTATION_CONTEXT ( 3 ) GLOBAL_UNCERTAINTY_ASSIGNED_CONTEXT ( ( #92 ) ) GLOBAL_UNIT_ASSIGNED_CONTEXT ( ( #69, #50, #35 ) ) REPRESENTATION_CONTEXT ( 'NONE', 'WORKASPACE' ) );
#21 = DIRECTION ( 'NONE',  ( 1.000000000000000000, 0.0000000000000000000, 0.0000000000000000000 ) ) ;
#22 = CARTESIAN_POINT ( 'NONE',  ( 0.0000000000000000000, 0.0000000000000000000, 4.000000000000000000 ) ) ;
#23 = VERTEX_POINT ( 'NONE', #36 ) ;
#24 =( LENGTH_UNIT ( ) NAMED_UNIT ( * ) SI_UNIT ( $, .METRE. ) );
#25 = STYLED_ITEM ( 'NONE', ( #74 ), #198 ) ;
#26 = SURFACE_STYLE_USAGE ( .BOTH. , #182 ) ;
#27 = ADVANCED_FACE ( 'NONE', ( #141 ), #165, .T. ) ;
#28 = CARTESIAN_POINT ( 'NONE',  ( 0.003999999999999999216, 0.0000000000000000000, 4.000000000000000000 ) ) ;
#29 = CARTESIAN_POINT ( 'NONE',  ( 0.0000000000000000000, 0.0000000000000000000, 3.754000000000000892 ) ) ;
#30 = DIRECTION ( 'NONE',  ( -1.000000000000000000, 0.0000000000000000000, 0.0000000000000000000 ) ) ;
#31 = DIRECTION ( 'NONE',  ( -0.0000000000000000000, -0.0000000000000000000, -1.000000000000000000 ) ) ;
#32 = AXIS2_PLACEMENT_3D ( 'NONE', #29, #40, #57 ) ;
#33 = ORIENTED_EDGE ( 'NONE', *, *, #167, .F. ) ;
#34 = DIRECTION ( 'NONE',  ( 0.0000000000000000000, 0.0000000000000000000, -1.000000000000000000 ) ) ;
#35 =( NAMED_UNIT ( * ) SI_UNIT ( $, .STERADIAN. ) SOLID_ANGLE_UNIT ( ) );
#36 = CARTESIAN_POINT ( 'NONE',  ( 0.003999999999999999216, 0.0000000000000000000, 0.0000000000000000000 ) ) ;
#37 = ORIENTED_EDGE ( 'NONE', *, *, #203, .T. ) ;
#38 = ORIENTED_EDGE ( 'NONE', *, *, #46, .F. ) ;
#39 =( NAMED_UNIT ( * ) SI_UNIT ( $, .STERADIAN. ) SOLID_ANGLE_UNIT ( ) );
#40 = DIRECTION ( 'NONE',  ( 0.0000000000000000000, 0.0000000000000000000, -1.000000000000000000 ) ) ;
#41 = DIRECTION ( 'NONE',  ( -0.0000000000000000000, -0.0000000000000000000, -1.000000000000000000 ) ) ;
#42 = UNCERTAINTY_MEASURE_WITH_UNIT (LENGTH_MEASURE( 1.000000000000000082E-05 ), #85, 'distance_accuracy_value', 'NONE');
#43 = DIRECTION ( 'NONE',  ( -1.000000000000000000, 0.0000000000000000000, 0.0000000000000000000 ) ) ;
#44 = CARTESIAN_POINT ( 'NONE',  ( -0.003999999999999999216, 4.898587196589411612E-19, 0.0000000000000000000 ) ) ;
#45 =( LENGTH_UNIT ( ) NAMED_UNIT ( * ) SI_UNIT ( $, .METRE. ) );
#46 = EDGE_CURVE ( 'NONE', #115, #249, #176, .T. ) ;
#47 = AXIS2_PLACEMENT_3D ( 'NONE', #146, #231, #75 ) ;
#48 = DIRECTION ( 'NONE',  ( -0.7071067811865490160, 8.659560562354951347E-17, 0.7071067811865460184 ) ) ;
#49 = MANIFOLD_SOLID_BREP ( 'Mirror1', #240 ) ;
#50 =( NAMED_UNIT ( * ) PLANE_ANGLE_UNIT ( ) SI_UNIT ( $, .RADIAN. ) );
#51 = DIRECTION ( 'NONE',  ( 0.7071067811865490160, 0.0000000000000000000, 0.7071067811865460184 ) ) ;
#52 =( GEOMETRIC_REPRESENTATION_CONTEXT ( 3 ) GLOBAL_UNCERTAINTY_ASSIGNED_CONTEXT ( ( #42 ) ) GLOBAL_UNIT_ASSIGNED_CONTEXT ( ( #85, #184, #39 ) ) REPRESENTATION_CONTEXT ( 'NONE', 'WORKASPACE' ) );
#53 = ORIENTED_EDGE ( 'NONE', *, *, #58, .T. ) ;
#54 = EDGE_LOOP ( 'NONE', ( #70, #93 ) ) ;
#55 = DIRECTION ( 'NONE',  ( 1.000000000000000000, 0.0000000000000000000, 0.0000000000000000000 ) ) ;
#56 = EDGE_LOOP ( 'NONE', ( #177, #193, #18, #33 ) ) ;
#57 = DIRECTION ( 'NONE',  ( -1.000000000000000000, 0.0000000000000000000, 0.0000000000000000000 ) ) ;
#58 = EDGE_CURVE ( 'NONE', #159, #115, #180, .T. ) ;
#59 = DIRECTION ( 'NONE',  ( 0.0000000000000000000, 0.0000000000000000000, -1.000000000000000000 ) ) ;
#60 = APPLICATION_CONTEXT ( 'automotive_design' ) ;
#61 = CIRCLE ( 'NONE', #72, 0.003999999999999999216 ) ;
#62 = CARTESIAN_POINT ( 'NONE',  ( 0.2500000000000000000, 3.061616997868383018E-17, 0.2459999999999989695 ) ) ;
#63 = DIRECTION ( 'NONE',  ( -0.0000000000000000000, -0.0000000000000000000, -1.000000000000000000 ) ) ;
#64 = CARTESIAN_POINT ( 'NONE',  ( -0.2500000000000000000, 0.0000000000000000000, 4.000000000000000000 ) ) ;
#65 =( CONVERSION_BASED_UNIT ( 'INCH', #109 ) LENGTH_UNIT ( ) NAMED_UNIT ( #178 ) );
#66 = CIRCLE ( 'NONE', #134, 0.2500000000000000000 ) ;
#67 = FACE_OUTER_BOUND ( 'NONE', #56, .T. ) ;
#68 = PRODUCT_DEFINITION_SHAPE ( 'NONE', 'NONE',  #169 ) ;
#69 =( CONVERSION_BASED_UNIT ( 'INCH', #152 ) LENGTH_UNIT ( ) NAMED_UNIT ( #12 ) );
#70 = ORIENTED_EDGE ( 'NONE', *, *, #58, .F. ) ;
#71 = FACE_OUTER_BOUND ( 'NONE', #212, .T. ) ;
#72 = AXIS2_PLACEMENT_3D ( 'NONE', #83, #124, #205 ) ;
#73 = VECTOR ( 'NONE', #144, 39.37007874015748143 ) ;
#74 = PRESENTATION_STYLE_ASSIGNMENT (( #166 ) ) ;
#75 = DIRECTION ( 'NONE',  ( 1.000000000000000000, 0.0000000000000000000, 0.0000000000000000000 ) ) ;
#76 = VERTEX_POINT ( 'NONE', #145 ) ;
#77 = ORIENTED_EDGE ( 'NONE', *, *, #158, .F. ) ;
#78 = PRODUCT ( 'Micro_RNC-500-24', 'Micro_RNC-500-24', '', ( #114 ) ) ;
#79 = ORIENTED_EDGE ( 'NONE', *, *, #125, .F. ) ;
#80 = ORIENTED_EDGE ( 'NONE', *, *, #149, .T. ) ;
#81 = CARTESIAN_POINT ( 'NONE',  ( 0.0000000000000000000, 0.0000000000000000000, 0.0000000000000000000 ) ) ;
#82 = ADVANCED_FACE ( 'NONE', ( #129 ), #218, .T. ) ;
#83 = CARTESIAN_POINT ( 'NONE',  ( 0.0000000000000000000, 0.0000000000000000000, 0.0000000000000000000 ) ) ;
#84 = LINE ( 'NONE', #28, #73 ) ;
#85 =( CONVERSION_BASED_UNIT ( 'INCH', #163 ) LENGTH_UNIT ( ) NAMED_UNIT ( #1 ) );
#86 = VECTOR ( 'NONE', #196, 39.37007874015748143 ) ;
#87 = PLANE ( 'NONE',  #162 ) ;
#88 = APPLICATION_CONTEXT ( 'automotive_design' ) ;
#89 = EDGE_CURVE ( 'NONE', #155, #249, #121, .T. ) ;
#90 = CARTESIAN_POINT ( 'NONE',  ( 0.0000000000000000000, 0.0000000000000000000, 4.000000000000000000 ) ) ;
#91 =( LENGTH_UNIT ( ) NAMED_UNIT ( * ) SI_UNIT ( $, .METRE. ) );
#92 = UNCERTAINTY_MEASURE_WITH_UNIT (LENGTH_MEASURE( 1.000000000000000082E-05 ), #69, 'distance_accuracy_value', 'NONE');
#93 = ORIENTED_EDGE ( 'NONE', *, *, #203, .F. ) ;
#94 = VERTEX_POINT ( 'NONE', #241 ) ;
#95 = VECTOR ( 'NONE', #51, 39.37007874015748143 ) ;
#96 = ORIENTED_EDGE ( 'NONE', *, *, #8, .T. ) ;
#97 = ORIENTED_EDGE ( 'NONE', *, *, #183, .T. ) ;
#98 = VERTEX_POINT ( 'NONE', #62 ) ;
#99 = COLOUR_RGB ( '',0.7921568627450980005, 0.8196078431372548767, 0.9333333333333333481 ) ;
#100 = CARTESIAN_POINT ( 'NONE',  ( 0.0000000000000000000, 0.0000000000000000000, 0.2459999999999989695 ) ) ;
#101 = SURFACE_STYLE_FILL_AREA ( #237 ) ;
#102 = EDGE_CURVE ( 'NONE', #76, #23, #147, .T. ) ;
#103 = CIRCLE ( 'NONE', #245, 0.2500000000000000000 ) ;
#104 = DIRECTION ( 'NONE',  ( -1.000000000000000000, 0.0000000000000000000, 0.0000000000000000000 ) ) ;
#105 = UNCERTAINTY_MEASURE_WITH_UNIT (LENGTH_MEASURE( 1.000000000000000082E-05 ), #65, 'distance_accuracy_value', 'NONE');
#106 = CARTESIAN_POINT ( 'NONE',  ( 0.2500000000000000000, 3.061616997868383018E-17, 4.000000000000000000 ) ) ;
#107 = APPLICATION_PROTOCOL_DEFINITION ( 'draft international standard', 'automotive_design', 1998, #60 ) ;
#108 = AXIS2_PLACEMENT_3D ( 'NONE', #10, #59, #9 ) ;
#109 = LENGTH_MEASURE_WITH_UNIT ( LENGTH_MEASURE( 0.02539999999999999897 ), #91 );
#110 = DIRECTION ( 'NONE',  ( 0.0000000000000000000, 0.0000000000000000000, -1.000000000000000000 ) ) ;
#111 = MECHANICAL_DESIGN_GEOMETRIC_PRESENTATION_REPRESENTATION (  '', ( #221 ), #52 ) ;
#112 = AXIS2_PLACEMENT_3D ( 'NONE', #90, #31, #227 ) ;
#113 = DIRECTION ( 'NONE',  ( 0.0000000000000000000, 0.0000000000000000000, 1.000000000000000000 ) ) ;
#114 = PRODUCT_CONTEXT ( 'NONE', #60, 'mechanical' ) ;
#115 = VERTEX_POINT ( 'NONE', #148 ) ;
#116 = EDGE_LOOP ( 'NONE', ( #197, #97, #156, #143 ) ) ;
#117 = AXIS2_PLACEMENT_3D ( 'NONE', #22, #139, #55 ) ;
#118 = ORIENTED_EDGE ( 'NONE', *, *, #138, .T. ) ;
#119 = EDGE_LOOP ( 'NONE', ( #230, #157 ) ) ;
#120 = DIRECTION ( 'NONE',  ( -1.000000000000000000, 0.0000000000000000000, 0.0000000000000000000 ) ) ;
#121 = CIRCLE ( 'NONE', #108, 0.2500000000000000000 ) ;
#122 = DIRECTION ( 'NONE',  ( -0.0000000000000000000, -0.0000000000000000000, -1.000000000000000000 ) ) ;
#123 = EDGE_CURVE ( 'NONE', #23, #76, #61, .T. ) ;
#124 = DIRECTION ( 'NONE',  ( -0.0000000000000000000, -0.0000000000000000000, -1.000000000000000000 ) ) ;
#125 = EDGE_CURVE ( 'NONE', #94, #98, #103, .T. ) ;
#126 = CARTESIAN_POINT ( 'NONE',  ( 0.0000000000000000000, 0.0000000000000000000, 4.000000000000000000 ) ) ;
#127 = EDGE_CURVE ( 'NONE', #155, #98, #161, .T. ) ;
#128 = CONICAL_SURFACE ( 'NONE', #142, 0.003999999999999999216, 0.7853981633974503884 ) ;
#129 = FACE_OUTER_BOUND ( 'NONE', #54, .T. ) ;
#130 = LINE ( 'NONE', #44, #235 ) ;
#131 =( NAMED_UNIT ( * ) SI_UNIT ( $, .STERADIAN. ) SOLID_ANGLE_UNIT ( ) );
#132 = COLOUR_RGB ( '',0.7921568627450980005, 0.8196078431372548767, 0.9333333333333333481 ) ;
#133 = CONICAL_SURFACE ( 'NONE', #172, 0.003999999999999999216, 0.7853981633974503884 ) ;
#134 = AXIS2_PLACEMENT_3D ( 'NONE', #220, #217, #120 ) ;
#135 = CARTESIAN_POINT ( 'NONE',  ( 0.0000000000000000000, 0.0000000000000000000, 4.000000000000000000 ) ) ;
#136 = FACE_OUTER_BOUND ( 'NONE', #248, .T. ) ;
#137 = CIRCLE ( 'NONE', #32, 0.2500000000000000000 ) ;
#138 = EDGE_CURVE ( 'NONE', #249, #155, #137, .T. ) ;
#139 = DIRECTION ( 'NONE',  ( 0.0000000000000000000, 0.0000000000000000000, -1.000000000000000000 ) ) ;
#140 = FACE_OUTER_BOUND ( 'NONE', #173, .T. ) ;
#141 = FACE_OUTER_BOUND ( 'NONE', #4, .T. ) ;
#142 = AXIS2_PLACEMENT_3D ( 'NONE', #81, #113, #214 ) ;
#143 = ORIENTED_EDGE ( 'NONE', *, *, #8, .F. ) ;
#144 = DIRECTION ( 'NONE',  ( 0.7071067811865490160, 0.0000000000000000000, -0.7071067811865460184 ) ) ;
#145 = CARTESIAN_POINT ( 'NONE',  ( -0.003999999999999999216, 1.555301434917138211E-17, 0.0000000000000000000 ) ) ;
#146 = CARTESIAN_POINT ( 'NONE',  ( 0.0000000000000000000, 0.0000000000000000000, 0.0000000000000000000 ) ) ;
#147 = CIRCLE ( 'NONE', #174, 0.003999999999999999216 ) ;
#148 = CARTESIAN_POINT ( 'NONE',  ( -0.003999999999999999216, -1.555301434917138211E-17, 4.000000000000000000 ) ) ;
#149 = EDGE_CURVE ( 'NONE', #159, #155, #84, .T. ) ;
#150 = DIRECTION ( 'NONE',  ( 0.0000000000000000000, 0.0000000000000000000, -1.000000000000000000 ) ) ;
#151 = SURFACE_SIDE_STYLE ('',( #246 ) ) ;
#152 = LENGTH_MEASURE_WITH_UNIT ( LENGTH_MEASURE( 0.02539999999999999897 ), #45 );
#153 = DIRECTION ( 'NONE',  ( -1.000000000000000000, 0.0000000000000000000, 0.0000000000000000000 ) ) ;
#154 = PRESENTATION_LAYER_ASSIGNMENT (  '', '', ( #221 ) ) ;
#155 = VERTEX_POINT ( 'NONE', #186 ) ;
#156 = ORIENTED_EDGE ( 'NONE', *, *, #125, .T. ) ;
#157 = ORIENTED_EDGE ( 'NONE', *, *, #102, .T. ) ;
#158 = EDGE_CURVE ( 'NONE', #249, #94, #164, .T. ) ;
#159 = VERTEX_POINT ( 'NONE', #202 ) ;
#160 = CARTESIAN_POINT ( 'NONE',  ( 0.003999999999999999216, 0.0000000000000000000, 0.0000000000000000000 ) ) ;
#161 = LINE ( 'NONE', #106, #181 ) ;
#162 = AXIS2_PLACEMENT_3D ( 'NONE', #190, #209, #225 ) ;
#163 = LENGTH_MEASURE_WITH_UNIT ( LENGTH_MEASURE( 0.02539999999999999897 ), #24 );
#164 = LINE ( 'NONE', #64, #210 ) ;
#165 = CONICAL_SURFACE ( 'NONE', #11, 0.003999999999999999216, 0.7853981633974503884 ) ;
#166 = SURFACE_STYLE_USAGE ( .BOTH. , #151 ) ;
#167 = EDGE_CURVE ( 'NONE', #98, #94, #66, .T. ) ;
#168 = CARTESIAN_POINT ( 'NONE',  ( 0.0000000000000000000, 0.0000000000000000000, 4.000000000000000000 ) ) ;
#169 = PRODUCT_DEFINITION ( 'UNKNOWN', '', #222, #189 ) ;
#170 = DIRECTION ( 'NONE',  ( 1.000000000000000000, 0.0000000000000000000, 0.0000000000000000000 ) ) ;
#171 = FILL_AREA_STYLE_COLOUR ( '', #99 ) ;
#172 = AXIS2_PLACEMENT_3D ( 'NONE', #14, #208, #170 ) ;
#173 = EDGE_LOOP ( 'NONE', ( #233, #192, #96, #234 ) ) ;
#174 = AXIS2_PLACEMENT_3D ( 'NONE', #242, #63, #104 ) ;
#175 = AXIS2_PLACEMENT_3D ( 'NONE', #135, #110, #153 ) ;
#176 = LINE ( 'NONE', #215, #86 ) ;
#177 = ORIENTED_EDGE ( 'NONE', *, *, #127, .F. ) ;
#178 = DIMENSIONAL_EXPONENTS ( 1.000000000000000000, 0.0000000000000000000, 0.0000000000000000000, 0.0000000000000000000, 0.0000000000000000000, 0.0000000000000000000, 0.0000000000000000000 ) ;
#179 = ORIENTED_EDGE ( 'NONE', *, *, #149, .F. ) ;
#180 = CIRCLE ( 'NONE', #200, 0.003999999999999999216 ) ;
#181 = VECTOR ( 'NONE', #236, 39.37007874015748143 ) ;
#182 = SURFACE_SIDE_STYLE ('',( #101 ) ) ;
#183 = EDGE_CURVE ( 'NONE', #76, #94, #130, .T. ) ;
#184 =( NAMED_UNIT ( * ) PLANE_ANGLE_UNIT ( ) SI_UNIT ( $, .RADIAN. ) );
#185 = AXIS2_PLACEMENT_3D ( 'NONE', #7, #219, #187 ) ;
#186 = CARTESIAN_POINT ( 'NONE',  ( 0.2500000000000000000, 3.061616997868383018E-17, 3.754000000000000892 ) ) ;
#187 = DIRECTION ( 'NONE',  ( 1.000000000000000000, 0.0000000000000000000, -0.0000000000000000000 ) ) ;
#188 = FILL_AREA_STYLE ('',( #171 ) ) ;
#189 = PRODUCT_DEFINITION_CONTEXT ( 'detailed design', #88, 'design' ) ;
#190 = CARTESIAN_POINT ( 'NONE',  ( 0.0000000000000000000, 0.0000000000000000000, 0.0000000000000000000 ) ) ;
#191 = FACE_OUTER_BOUND ( 'NONE', #116, .T. ) ;
#192 = ORIENTED_EDGE ( 'NONE', *, *, #123, .F. ) ;
#193 = ORIENTED_EDGE ( 'NONE', *, *, #89, .T. ) ;
#194 = ORIENTED_EDGE ( 'NONE', *, *, #138, .F. ) ;
#195 = ADVANCED_FACE ( 'NONE', ( #71 ), #228, .T. ) ;
#196 = DIRECTION ( 'NONE',  ( -0.7071067811865490160, -8.659560562354951347E-17, -0.7071067811865460184 ) ) ;
#197 = ORIENTED_EDGE ( 'NONE', *, *, #102, .F. ) ;
#198 = ADVANCED_BREP_SHAPE_REPRESENTATION ( 'Micro_RNC-500-24', ( #49, #47 ), #226 ) ;
#199 = FILL_AREA_STYLE_COLOUR ( '', #132 ) ;
#200 = AXIS2_PLACEMENT_3D ( 'NONE', #126, #150, #43 ) ;
#201 = PRESENTATION_LAYER_ASSIGNMENT (  '', '', ( #25 ) ) ;
#202 = CARTESIAN_POINT ( 'NONE',  ( 0.003999999999999999216, 0.0000000000000000000, 4.000000000000000000 ) ) ;
#203 = EDGE_CURVE ( 'NONE', #115, #159, #243, .T. ) ;
#204 = PRODUCT_RELATED_PRODUCT_CATEGORY ( 'part', '', ( #78 ) ) ;
#205 = DIRECTION ( 'NONE',  ( -1.000000000000000000, 0.0000000000000000000, 0.0000000000000000000 ) ) ;
#206 = DIRECTION ( 'NONE',  ( -1.000000000000000000, 0.0000000000000000000, 0.0000000000000000000 ) ) ;
#207 =( NAMED_UNIT ( * ) PLANE_ANGLE_UNIT ( ) SI_UNIT ( $, .RADIAN. ) );
#208 = DIRECTION ( 'NONE',  ( 0.0000000000000000000, 0.0000000000000000000, 1.000000000000000000 ) ) ;
#209 = DIRECTION ( 'NONE',  ( 0.0000000000000000000, 0.0000000000000000000, 1.000000000000000000 ) ) ;
#210 = VECTOR ( 'NONE', #122, 39.37007874015748143 ) ;
#211 = CARTESIAN_POINT ( 'NONE',  ( 0.0000000000000000000, 0.0000000000000000000, 4.000000000000000000 ) ) ;
#212 = EDGE_LOOP ( 'NONE', ( #118, #3, #79, #77 ) ) ;
#213 = ADVANCED_FACE ( 'NONE', ( #244 ), #87, .F. ) ;
#214 = DIRECTION ( 'NONE',  ( 1.000000000000000000, 0.0000000000000000000, 0.0000000000000000000 ) ) ;
#215 = CARTESIAN_POINT ( 'NONE',  ( -0.003999999999999999216, -4.898587196589411612E-19, 4.000000000000000000 ) ) ;
#216 = ORIENTED_EDGE ( 'NONE', *, *, #46, .T. ) ;
#217 = DIRECTION ( 'NONE',  ( -0.0000000000000000000, -0.0000000000000000000, -1.000000000000000000 ) ) ;
#218 = PLANE ( 'NONE',  #185 ) ;
#219 = DIRECTION ( 'NONE',  ( 0.0000000000000000000, 0.0000000000000000000, 1.000000000000000000 ) ) ;
#220 = CARTESIAN_POINT ( 'NONE',  ( 0.0000000000000000000, 0.0000000000000000000, 0.2459999999999989695 ) ) ;
#221 = STYLED_ITEM ( 'NONE', ( #239 ), #49 ) ;
#222 = PRODUCT_DEFINITION_FORMATION_WITH_SPECIFIED_SOURCE ( 'ANY', '', #78, .NOT_KNOWN. ) ;
#223 = ADVANCED_FACE ( 'NONE', ( #67 ), #224, .T. ) ;
#224 = CYLINDRICAL_SURFACE ( 'NONE', #6, 0.2500000000000000000 ) ;
#225 = DIRECTION ( 'NONE',  ( 1.000000000000000000, 0.0000000000000000000, -0.0000000000000000000 ) ) ;
#226 =( GEOMETRIC_REPRESENTATION_CONTEXT ( 3 ) GLOBAL_UNCERTAINTY_ASSIGNED_CONTEXT ( ( #105 ) ) GLOBAL_UNIT_ASSIGNED_CONTEXT ( ( #65, #207, #131 ) ) REPRESENTATION_CONTEXT ( 'NONE', 'WORKASPACE' ) );
#227 = DIRECTION ( 'NONE',  ( -1.000000000000000000, 0.0000000000000000000, 0.0000000000000000000 ) ) ;
#228 = CYLINDRICAL_SURFACE ( 'NONE', #112, 0.2500000000000000000 ) ;
#229 = SHAPE_DEFINITION_REPRESENTATION ( #68, #198 ) ;
#230 = ORIENTED_EDGE ( 'NONE', *, *, #123, .T. ) ;
#231 = DIRECTION ( 'NONE',  ( 0.0000000000000000000, 0.0000000000000000000, 1.000000000000000000 ) ) ;
#232 = ORIENTED_EDGE ( 'NONE', *, *, #89, .F. ) ;
#233 = ORIENTED_EDGE ( 'NONE', *, *, #183, .F. ) ;
#234 = ORIENTED_EDGE ( 'NONE', *, *, #167, .T. ) ;
#235 = VECTOR ( 'NONE', #48, 39.37007874015748143 ) ;
#236 = DIRECTION ( 'NONE',  ( -0.0000000000000000000, -0.0000000000000000000, -1.000000000000000000 ) ) ;
#237 = FILL_AREA_STYLE ('',( #199 ) ) ;
#238 = ADVANCED_FACE ( 'NONE', ( #191 ), #133, .T. ) ;
#239 = PRESENTATION_STYLE_ASSIGNMENT (( #26 ) ) ;
#240 = CLOSED_SHELL ( 'NONE', ( #27, #238, #195, #223, #2, #213, #19, #82 ) ) ;
#241 = CARTESIAN_POINT ( 'NONE',  ( -0.2500000000000000000, 0.0000000000000000000, 0.2459999999999989695 ) ) ;
#242 = CARTESIAN_POINT ( 'NONE',  ( 0.0000000000000000000, 0.0000000000000000000, 0.0000000000000000000 ) ) ;
#243 = CIRCLE ( 'NONE', #175, 0.003999999999999999216 ) ;
#244 = FACE_OUTER_BOUND ( 'NONE', #119, .T. ) ;
#245 = AXIS2_PLACEMENT_3D ( 'NONE', #100, #41, #30 ) ;
#246 = SURFACE_STYLE_FILL_AREA ( #188 ) ;
#247 = APPLICATION_PROTOCOL_DEFINITION ( 'draft international standard', 'automotive_design', 1998, #88 ) ;
#248 = EDGE_LOOP ( 'NONE', ( #38, #37, #80, #194 ) ) ;
#249 = VERTEX_POINT ( 'NONE', #17 ) ;
ENDSEC;
END-ISO-10303-21;
