ISO-10303-21;
HEADER;
FILE_DESCRIPTION (( 'STEP AP214' ),
    '1' );
FILE_NAME ('Micro_AEMM-100-2X.STEP',
    '2022-03-15T14:29:53',
    ( '' ),
    ( '' ),
    'SwSTEP 2.0',
    'SolidWorks 2022',
    '' );
FILE_SCHEMA (( 'AUTOMOTIVE_DESIGN' ));
ENDSEC;

DATA;
#1 = CIRCLE ( 'NONE', #163, 0.1968504999999999838 ) ;
#2 = SURFACE_STYLE_FILL_AREA ( #145 ) ;
#3 = CARTESIAN_POINT ( 'NONE',  ( 1.205361061354380629E-16, 0.000000000000000000, 0.9842519999999999047 ) ) ;
#4 = ORIENTED_EDGE ( 'NONE', *, *, #204, .T. ) ;
#5 = DIRECTION ( 'NONE',  ( 0.000000000000000000, 0.000000000000000000, -1.000000000000000000 ) ) ;
#6 = CONICAL_SURFACE ( 'NONE', #245, 0.1966536494999999996, 0.1745329251994338360 ) ;
#7 = DIRECTION ( 'NONE',  ( 1.224646799147353207E-16, 0.000000000000000000, 1.000000000000000000 ) ) ;
#8 = AXIS2_PLACEMENT_3D ( 'NONE', #66, #250, #46 ) ;
#9 = ORIENTED_EDGE ( 'NONE', *, *, #149, .F. ) ;
#10 = CARTESIAN_POINT ( 'NONE',  ( 1.205361061354380629E-16, 0.000000000000000000, 0.9842519999999999047 ) ) ;
#11 = ORIENTED_EDGE ( 'NONE', *, *, #22, .T. ) ;
#12 = DIRECTION ( 'NONE',  ( 1.000000000000000000, 0.000000000000000000, -0.000000000000000000 ) ) ;
#13 = VERTEX_POINT ( 'NONE', #272 ) ;
#14 = CARTESIAN_POINT ( 'NONE',  ( 0.1968504999999999838, 2.410723347355560646E-17, 2.819646000000000097 ) ) ;
#15 = MECHANICAL_DESIGN_GEOMETRIC_PRESENTATION_REPRESENTATION (  '', ( #24 ), #168 ) ;
#16 = CARTESIAN_POINT ( 'NONE',  ( 0.000000000000000000, 0.000000000000000000, 2.819646000000000097 ) ) ;
#17 = ORIENTED_EDGE ( 'NONE', *, *, #184, .T. ) ;
#18 =( CONVERSION_BASED_UNIT ( 'INCH', #55 ) LENGTH_UNIT ( ) NAMED_UNIT ( #29 ) );
#19 = VERTEX_POINT ( 'NONE', #21 ) ;
#20 = DIRECTION ( 'NONE',  ( 0.000000000000000000, 0.000000000000000000, 1.000000000000000000 ) ) ;
#21 = CARTESIAN_POINT ( 'NONE',  ( -0.1966536494999999996, 0.000000000000000000, 4.816625248016410340E-17 ) ) ;
#22 = EDGE_CURVE ( 'NONE', #13, #97, #233, .T. ) ;
#23 = DIRECTION ( 'NONE',  ( -1.000000000000000000, 0.000000000000000000, 0.000000000000000000 ) ) ;
#24 = STYLED_ITEM ( 'NONE', ( #47 ), #217 ) ;
#25 = CARTESIAN_POINT ( 'NONE',  ( 1.205361061354380629E-16, 0.000000000000000000, 0.9842519999999999047 ) ) ;
#26 = PRESENTATION_LAYER_ASSIGNMENT (  '', '', ( #24 ) ) ;
#27 = CIRCLE ( 'NONE', #129, 0.1966536494999999996 ) ;
#28 = CARTESIAN_POINT ( 'NONE',  ( 2.949332346337811403E-33, 0.000000000000000000, 2.408312624008205170E-17 ) ) ;
#29 = DIMENSIONAL_EXPONENTS ( 1.000000000000000000, 0.000000000000000000, 0.000000000000000000, 0.000000000000000000, 0.000000000000000000, 0.000000000000000000, 0.000000000000000000 ) ;
#30 = CYLINDRICAL_SURFACE ( 'NONE', #213, 0.1968504999999999838 ) ;
#31 = CARTESIAN_POINT ( 'NONE',  ( 0.000000000000000000, 0.000000000000000000, 2.834646000000000665 ) ) ;
#32 = ORIENTED_EDGE ( 'NONE', *, *, #244, .F. ) ;
#33 = DIRECTION ( 'NONE',  ( 1.000000000000000000, 0.000000000000000000, -0.000000000000000000 ) ) ;
#34 = ORIENTED_EDGE ( 'NONE', *, *, #156, .T. ) ;
#35 = EDGE_CURVE ( 'NONE', #243, #40, #1, .T. ) ;
#36 = CARTESIAN_POINT ( 'NONE',  ( 1.206728250503579029E-16, 0.000000000000000000, 0.9853683946618325695 ) ) ;
#37 =( LENGTH_UNIT ( ) NAMED_UNIT ( * ) SI_UNIT ( $, .METRE. ) );
#38 = ORIENTED_EDGE ( 'NONE', *, *, #44, .F. ) ;
#39 = CARTESIAN_POINT ( 'NONE',  ( 0.000000000000000000, 0.000000000000000000, 2.834646000000000665 ) ) ;
#40 = VERTEX_POINT ( 'NONE', #288 ) ;
#41 = LENGTH_MEASURE_WITH_UNIT ( LENGTH_MEASURE( 0.02539999999999999897 ), #37 );
#42 = ORIENTED_EDGE ( 'NONE', *, *, #84, .F. ) ;
#43 = VERTEX_POINT ( 'NONE', #69 ) ;
#44 = EDGE_CURVE ( 'NONE', #40, #192, #226, .T. ) ;
#45 = DIRECTION ( 'NONE',  ( -1.000000000000000000, 0.000000000000000000, 0.000000000000000000 ) ) ;
#46 = DIRECTION ( 'NONE',  ( 1.000000000000000000, 0.000000000000000000, 0.000000000000000000 ) ) ;
#47 = PRESENTATION_STYLE_ASSIGNMENT (( #167 ) ) ;
#48 = AXIS2_PLACEMENT_3D ( 'NONE', #25, #187, #95 ) ;
#49 = AXIS2_PLACEMENT_3D ( 'NONE', #225, #152, #33 ) ;
#50 = ADVANCED_BREP_SHAPE_REPRESENTATION ( 'Micro_AEMM-100-2X', ( #217, #8 ), #247 ) ;
#51 = DIRECTION ( 'NONE',  ( 0.000000000000000000, 0.000000000000000000, 1.000000000000000000 ) ) ;
#52 = ADVANCED_FACE ( 'NONE', ( #274 ), #221, .T. ) ;
#53 = DIRECTION ( 'NONE',  ( 1.000000000000000000, 0.000000000000000000, 0.000000000000000000 ) ) ;
#54 = DIRECTION ( 'NONE',  ( -1.000000000000000000, 0.000000000000000000, 0.000000000000000000 ) ) ;
#55 = LENGTH_MEASURE_WITH_UNIT ( LENGTH_MEASURE( 0.02539999999999999897 ), #79 );
#56 = ADVANCED_FACE ( 'NONE', ( #64 ), #100, .T. ) ;
#57 = SURFACE_STYLE_FILL_AREA ( #286 ) ;
#58 = PLANE ( 'NONE',  #281 ) ;
#59 = ORIENTED_EDGE ( 'NONE', *, *, #263, .F. ) ;
#60 = ADVANCED_FACE ( 'NONE', ( #111 ), #199, .T. ) ;
#61 = PRODUCT_DEFINITION_CONTEXT ( 'detailed design', #98, 'design' ) ;
#62 = VECTOR ( 'NONE', #275, 39.37007874015748143 ) ;
#63 = ORIENTED_EDGE ( 'NONE', *, *, #84, .T. ) ;
#64 = FACE_OUTER_BOUND ( 'NONE', #128, .T. ) ;
#65 = CARTESIAN_POINT ( 'NONE',  ( 2.949332346337811403E-33, 0.000000000000000000, 2.408312624008205170E-17 ) ) ;
#66 = CARTESIAN_POINT ( 'NONE',  ( 0.000000000000000000, 0.000000000000000000, 0.000000000000000000 ) ) ;
#67 = CLOSED_SHELL ( 'NONE', ( #60, #144, #123, #212, #208, #237, #56, #188, #52, #258 ) ) ;
#68 = CIRCLE ( 'NONE', #141, 0.1968504999999999838 ) ;
#69 = CARTESIAN_POINT ( 'NONE',  ( -0.1966536494999998608, 2.409517985681882600E-17, 0.9842519999999999047 ) ) ;
#70 = FACE_OUTER_BOUND ( 'NONE', #81, .T. ) ;
#71 = EDGE_CURVE ( 'NONE', #97, #243, #181, .T. ) ;
#72 = FACE_OUTER_BOUND ( 'NONE', #126, .T. ) ;
#73 = CYLINDRICAL_SURFACE ( 'NONE', #176, 0.1968504999999999838 ) ;
#74 = AXIS2_PLACEMENT_3D ( 'NONE', #292, #91, #157 ) ;
#75 = FILL_AREA_STYLE_COLOUR ( '', #88 ) ;
#76 = FACE_OUTER_BOUND ( 'NONE', #219, .T. ) ;
#77 = ORIENTED_EDGE ( 'NONE', *, *, #156, .F. ) ;
#78 = VECTOR ( 'NONE', #284, 39.37007874015747433 ) ;
#79 =( LENGTH_UNIT ( ) NAMED_UNIT ( * ) SI_UNIT ( $, .METRE. ) );
#80 = CIRCLE ( 'NONE', #273, 0.1966536494999999996 ) ;
#81 = EDGE_LOOP ( 'NONE', ( #133, #214, #105, #59 ) ) ;
#82 = UNCERTAINTY_MEASURE_WITH_UNIT (LENGTH_MEASURE( 1.000000000000000082E-05 ), #18, 'distance_accuracy_value', 'NONE');
#83 = CARTESIAN_POINT ( 'NONE',  ( -0.1968504999999999838, 0.000000000000000000, 2.834646000000000665 ) ) ;
#84 = EDGE_CURVE ( 'NONE', #269, #19, #260, .T. ) ;
#85 = CARTESIAN_POINT ( 'NONE',  ( 0.1968504999999999838, 2.410723347355560646E-17, 2.834646000000000665 ) ) ;
#86 = DIRECTION ( 'NONE',  ( -1.000000000000000000, 0.000000000000000000, 1.224646799147353207E-16 ) ) ;
#87 = CARTESIAN_POINT ( 'NONE',  ( 0.1966536494999999996, 2.408312624008205170E-17, 0.000000000000000000 ) ) ;
#88 = COLOUR_RGB ( '',0.7921568627450980005, 0.8196078431372548767, 0.9333333333333333481 ) ;
#89 = DIRECTION ( 'NONE',  ( 0.7071067811865354713, 8.659560562354783714E-17, -0.7071067811865594521 ) ) ;
#90 = EDGE_CURVE ( 'NONE', #40, #243, #207, .T. ) ;
#91 = DIRECTION ( 'NONE',  ( -1.224646799147353207E-16, -0.000000000000000000, -1.000000000000000000 ) ) ;
#92 = CARTESIAN_POINT ( 'NONE',  ( 0.000000000000000000, 0.000000000000000000, 2.834646000000000665 ) ) ;
#93 = LINE ( 'NONE', #96, #113 ) ;
#94 = AXIS2_PLACEMENT_3D ( 'NONE', #65, #251, #276 ) ;
#95 = DIRECTION ( 'NONE',  ( -1.000000000000000000, 0.000000000000000000, 0.000000000000000000 ) ) ;
#96 = CARTESIAN_POINT ( 'NONE',  ( -0.1818505000000002481, 0.000000000000000000, 2.834646000000000665 ) ) ;
#97 = VERTEX_POINT ( 'NONE', #209 ) ;
#98 = APPLICATION_CONTEXT ( 'automotive_design' ) ;
#99 = DIRECTION ( 'NONE',  ( -0.7071067811865354713, 0.000000000000000000, -0.7071067811865594521 ) ) ;
#100 = CONICAL_SURFACE ( 'NONE', #271, 0.1818505000000002481, 0.7853981633974312926 ) ;
#101 = FACE_OUTER_BOUND ( 'NONE', #203, .T. ) ;
#102 = APPLICATION_CONTEXT ( 'automotive_design' ) ;
#103 = ORIENTED_EDGE ( 'NONE', *, *, #280, .T. ) ;
#104 = FACE_OUTER_BOUND ( 'NONE', #230, .T. ) ;
#105 = ORIENTED_EDGE ( 'NONE', *, *, #244, .T. ) ;
#106 = DIRECTION ( 'NONE',  ( 1.000000000000000000, 0.000000000000000000, 0.000000000000000000 ) ) ;
#107 = CARTESIAN_POINT ( 'NONE',  ( 0.000000000000000000, 0.000000000000000000, 2.834646000000000665 ) ) ;
#108 = DIRECTION ( 'NONE',  ( -1.000000000000000000, 0.000000000000000000, 0.000000000000000000 ) ) ;
#109 = CARTESIAN_POINT ( 'NONE',  ( 0.000000000000000000, 0.000000000000000000, 2.819646000000000097 ) ) ;
#110 = FILL_AREA_STYLE_COLOUR ( '', #278 ) ;
#111 = FACE_OUTER_BOUND ( 'NONE', #124, .T. ) ;
#112 = PRODUCT_RELATED_PRODUCT_CATEGORY ( 'part', '', ( #295 ) ) ;
#113 = VECTOR ( 'NONE', #99, 39.37007874015748854 ) ;
#114 = ORIENTED_EDGE ( 'NONE', *, *, #267, .F. ) ;
#115 = DIRECTION ( 'NONE',  ( 1.000000000000000000, 0.000000000000000000, 0.000000000000000000 ) ) ;
#116 = DIRECTION ( 'NONE',  ( -1.224646799147353207E-16, -0.000000000000000000, -1.000000000000000000 ) ) ;
#117 = PRODUCT_CONTEXT ( 'NONE', #102, 'mechanical' ) ;
#118 =( GEOMETRIC_REPRESENTATION_CONTEXT ( 3 ) GLOBAL_UNCERTAINTY_ASSIGNED_CONTEXT ( ( #241 ) ) GLOBAL_UNIT_ASSIGNED_CONTEXT ( ( #227, #254, #231 ) ) REPRESENTATION_CONTEXT ( 'NONE', 'WORKASPACE' ) );
#119 = VECTOR ( 'NONE', #116, 39.37007874015748143 ) ;
#120 = CARTESIAN_POINT ( 'NONE',  ( 0.000000000000000000, 0.000000000000000000, 2.834646000000000665 ) ) ;
#121 = DIRECTION ( 'NONE',  ( -0.000000000000000000, -0.000000000000000000, -1.000000000000000000 ) ) ;
#122 = CARTESIAN_POINT ( 'NONE',  ( 1.206728250503579029E-16, 0.000000000000000000, 0.9853683946618325695 ) ) ;
#123 = ADVANCED_FACE ( 'NONE', ( #165 ), #134, .T. ) ;
#124 = EDGE_LOOP ( 'NONE', ( #224, #103, #294, #205 ) ) ;
#125 = LINE ( 'NONE', #289, #201 ) ;
#126 = EDGE_LOOP ( 'NONE', ( #114, #130, #196, #77 ) ) ;
#127 = ORIENTED_EDGE ( 'NONE', *, *, #149, .T. ) ;
#128 = EDGE_LOOP ( 'NONE', ( #175, #255, #127, #285 ) ) ;
#129 = AXIS2_PLACEMENT_3D ( 'NONE', #10, #151, #108 ) ;
#130 = ORIENTED_EDGE ( 'NONE', *, *, #35, .T. ) ;
#131 = DIRECTION ( 'NONE',  ( 0.000000000000000000, 0.000000000000000000, 1.000000000000000000 ) ) ;
#132 = DIRECTION ( 'NONE',  ( 0.000000000000000000, 0.000000000000000000, -1.000000000000000000 ) ) ;
#133 = ORIENTED_EDGE ( 'NONE', *, *, #297, .F. ) ;
#134 = CONICAL_SURFACE ( 'NONE', #200, 0.1818505000000002481, 0.7853981633974312926 ) ;
#135 = CIRCLE ( 'NONE', #177, 0.1968504999999999838 ) ;
#136 = EDGE_LOOP ( 'NONE', ( #153, #268, #266, #9 ) ) ;
#137 = LINE ( 'NONE', #206, #78 ) ;
#138 = SURFACE_SIDE_STYLE ('',( #2 ) ) ;
#139 = CONICAL_SURFACE ( 'NONE', #253, 0.1966536494999999996, 0.1745329251994338360 ) ;
#140 = DIRECTION ( 'NONE',  ( 1.000000000000000000, 0.000000000000000000, 0.000000000000000000 ) ) ;
#141 = AXIS2_PLACEMENT_3D ( 'NONE', #122, #143, #234 ) ;
#142 = PRODUCT_DEFINITION_FORMATION_WITH_SPECIFIED_SOURCE ( 'ANY', '', #295, .NOT_KNOWN. ) ;
#143 = DIRECTION ( 'NONE',  ( -1.224646799147353207E-16, -0.000000000000000000, -1.000000000000000000 ) ) ;
#144 = ADVANCED_FACE ( 'NONE', ( #70 ), #139, .T. ) ;
#145 = FILL_AREA_STYLE ('',( #75 ) ) ;
#146 = DIRECTION ( 'NONE',  ( -1.224646799147353207E-16, -0.000000000000000000, -1.000000000000000000 ) ) ;
#147 = ORIENTED_EDGE ( 'NONE', *, *, #162, .F. ) ;
#148 = PRESENTATION_STYLE_ASSIGNMENT (( #242 ) ) ;
#149 = EDGE_CURVE ( 'NONE', #13, #40, #93, .T. ) ;
#150 = EDGE_CURVE ( 'NONE', #179, #43, #182, .T. ) ;
#151 = DIRECTION ( 'NONE',  ( -1.224646799147353207E-16, -0.000000000000000000, -1.000000000000000000 ) ) ;
#152 = DIRECTION ( 'NONE',  ( 0.000000000000000000, 0.000000000000000000, 1.000000000000000000 ) ) ;
#153 = ORIENTED_EDGE ( 'NONE', *, *, #204, .F. ) ;
#154 = CIRCLE ( 'NONE', #291, 0.1818505000000002481 ) ;
#155 = ORIENTED_EDGE ( 'NONE', *, *, #150, .F. ) ;
#156 = EDGE_CURVE ( 'NONE', #239, #192, #68, .T. ) ;
#157 = DIRECTION ( 'NONE',  ( -1.000000000000000000, 0.000000000000000000, 1.224646799147353207E-16 ) ) ;
#158 = ORIENTED_EDGE ( 'NONE', *, *, #150, .T. ) ;
#159 = DIRECTION ( 'NONE',  ( 0.000000000000000000, 0.000000000000000000, -1.000000000000000000 ) ) ;
#160 = APPLICATION_PROTOCOL_DEFINITION ( 'draft international standard', 'automotive_design', 1998, #98 ) ;
#161 = DIRECTION ( 'NONE',  ( 1.000000000000000000, 0.000000000000000000, 0.000000000000000000 ) ) ;
#162 = EDGE_CURVE ( 'NONE', #43, #192, #137, .T. ) ;
#163 = AXIS2_PLACEMENT_3D ( 'NONE', #109, #132, #290 ) ;
#164 = MECHANICAL_DESIGN_GEOMETRIC_PRESENTATION_REPRESENTATION (  '', ( #299 ), #118 ) ;
#165 = FACE_OUTER_BOUND ( 'NONE', #136, .T. ) ;
#166 = DIMENSIONAL_EXPONENTS ( 1.000000000000000000, 0.000000000000000000, 0.000000000000000000, 0.000000000000000000, 0.000000000000000000, 0.000000000000000000, 0.000000000000000000 ) ;
#167 = SURFACE_STYLE_USAGE ( .BOTH. , #138 ) ;
#168 =( GEOMETRIC_REPRESENTATION_CONTEXT ( 3 ) GLOBAL_UNCERTAINTY_ASSIGNED_CONTEXT ( ( #173 ) ) GLOBAL_UNIT_ASSIGNED_CONTEXT ( ( #298, #236, #186 ) ) REPRESENTATION_CONTEXT ( 'NONE', 'WORKASPACE' ) );
#169 = PRODUCT_DEFINITION ( 'UNKNOWN', '', #142, #61 ) ;
#170 = CARTESIAN_POINT ( 'NONE',  ( -0.1966536494999999996, 0.000000000000000000, 2.408312624008205170E-17 ) ) ;
#171 = DIRECTION ( 'NONE',  ( -1.224646799147353207E-16, -0.000000000000000000, -1.000000000000000000 ) ) ;
#172 = CARTESIAN_POINT ( 'NONE',  ( 0.000000000000000000, 0.000000000000000000, 0.000000000000000000 ) ) ;
#173 = UNCERTAINTY_MEASURE_WITH_UNIT (LENGTH_MEASURE( 1.000000000000000082E-05 ), #298, 'distance_accuracy_value', 'NONE');
#174 = LINE ( 'NONE', #85, #257 ) ;
#175 = ORIENTED_EDGE ( 'NONE', *, *, #71, .F. ) ;
#176 = AXIS2_PLACEMENT_3D ( 'NONE', #211, #121, #23 ) ;
#177 = AXIS2_PLACEMENT_3D ( 'NONE', #36, #191, #106 ) ;
#178 = SURFACE_SIDE_STYLE ('',( #57 ) ) ;
#179 = VERTEX_POINT ( 'NONE', #282 ) ;
#180 = CARTESIAN_POINT ( 'NONE',  ( 0.1818505000000002481, 2.227026327483460228E-17, 2.834646000000000665 ) ) ;
#181 = LINE ( 'NONE', #180, #229 ) ;
#182 = CIRCLE ( 'NONE', #48, 0.1966536494999999996 ) ;
#183 = VECTOR ( 'NONE', #171, 39.37007874015748143 ) ;
#184 = EDGE_CURVE ( 'NONE', #43, #19, #235, .T. ) ;
#185 = DIMENSIONAL_EXPONENTS ( 1.000000000000000000, 0.000000000000000000, 0.000000000000000000, 0.000000000000000000, 0.000000000000000000, 0.000000000000000000, 0.000000000000000000 ) ;
#186 =( NAMED_UNIT ( * ) SI_UNIT ( $, .STERADIAN. ) SOLID_ANGLE_UNIT ( ) );
#187 = DIRECTION ( 'NONE',  ( -1.224646799147353207E-16, -0.000000000000000000, -1.000000000000000000 ) ) ;
#188 = ADVANCED_FACE ( 'NONE', ( #76 ), #6, .T. ) ;
#189 = CARTESIAN_POINT ( 'NONE',  ( 1.205361061354380629E-16, 0.000000000000000000, 0.9842519999999999047 ) ) ;
#190 = CARTESIAN_POINT ( 'NONE',  ( 0.000000000000000000, 0.000000000000000000, 2.834646000000000665 ) ) ;
#191 = DIRECTION ( 'NONE',  ( -1.224646799147353207E-16, -0.000000000000000000, -1.000000000000000000 ) ) ;
#192 = VERTEX_POINT ( 'NONE', #256 ) ;
#193 = DIRECTION ( 'NONE',  ( 0.1736481776669313304, 0.000000000000000000, 0.9848077530122077983 ) ) ;
#194 = ORIENTED_EDGE ( 'NONE', *, *, #223, .T. ) ;
#195 = APPLICATION_PROTOCOL_DEFINITION ( 'draft international standard', 'automotive_design', 1998, #102 ) ;
#196 = ORIENTED_EDGE ( 'NONE', *, *, #44, .T. ) ;
#197 = ORIENTED_EDGE ( 'NONE', *, *, #90, .T. ) ;
#198 = DIRECTION ( 'NONE',  ( -1.000000000000000000, 0.000000000000000000, 1.224646799147353207E-16 ) ) ;
#199 = CYLINDRICAL_SURFACE ( 'NONE', #74, 0.1966536494999999996 ) ;
#200 = AXIS2_PLACEMENT_3D ( 'NONE', #31, #5, #279 ) ;
#201 = VECTOR ( 'NONE', #193, 39.37007874015748143 ) ;
#202 = SHAPE_DEFINITION_REPRESENTATION ( #249, #50 ) ;
#203 = EDGE_LOOP ( 'NONE', ( #197, #216, #32, #38 ) ) ;
#204 = EDGE_CURVE ( 'NONE', #97, #13, #154, .T. ) ;
#205 = ORIENTED_EDGE ( 'NONE', *, *, #184, .F. ) ;
#206 = CARTESIAN_POINT ( 'NONE',  ( -0.1966536494999998608, 2.408312624008205170E-17, 0.9842519999999999047 ) ) ;
#207 = CIRCLE ( 'NONE', #265, 0.1968504999999999838 ) ;
#208 = ADVANCED_FACE ( 'NONE', ( #72 ), #30, .T. ) ;
#209 = CARTESIAN_POINT ( 'NONE',  ( 0.1818505000000002481, 2.318874837419510283E-17, 2.834646000000000665 ) ) ;
#210 = LENGTH_MEASURE_WITH_UNIT ( LENGTH_MEASURE( 0.02539999999999999897 ), #261 );
#211 = CARTESIAN_POINT ( 'NONE',  ( 0.000000000000000000, 0.000000000000000000, 2.834646000000000665 ) ) ;
#212 = ADVANCED_FACE ( 'NONE', ( #101 ), #73, .T. ) ;
#213 = AXIS2_PLACEMENT_3D ( 'NONE', #190, #283, #54 ) ;
#214 = ORIENTED_EDGE ( 'NONE', *, *, #162, .T. ) ;
#215 = DIRECTION ( 'NONE',  ( -0.000000000000000000, -0.000000000000000000, -1.000000000000000000 ) ) ;
#216 = ORIENTED_EDGE ( 'NONE', *, *, #267, .T. ) ;
#217 = MANIFOLD_SOLID_BREP ( 'Cut-Revolve1', #67 ) ;
#218 = CARTESIAN_POINT ( 'NONE',  ( 0.1968505000000001226, 2.410723347355561878E-17, 0.9853683946618325695 ) ) ;
#219 = EDGE_LOOP ( 'NONE', ( #147, #155, #246, #34 ) ) ;
#220 =( NAMED_UNIT ( * ) PLANE_ANGLE_UNIT ( ) SI_UNIT ( $, .RADIAN. ) );
#221 = CYLINDRICAL_SURFACE ( 'NONE', #277, 0.1966536494999999996 ) ;
#222 = CARTESIAN_POINT ( 'NONE',  ( 0.1966536494999999996, 2.408312624008205170E-17, -2.408312624008205170E-17 ) ) ;
#223 = EDGE_CURVE ( 'NONE', #19, #269, #80, .T. ) ;
#224 = ORIENTED_EDGE ( 'NONE', *, *, #297, .T. ) ;
#225 = CARTESIAN_POINT ( 'NONE',  ( 0.000000000000000000, 0.000000000000000000, 0.000000000000000000 ) ) ;
#226 = LINE ( 'NONE', #83, #62 ) ;
#227 =( CONVERSION_BASED_UNIT ( 'INCH', #41 ) LENGTH_UNIT ( ) NAMED_UNIT ( #185 ) );
#228 = EDGE_LOOP ( 'NONE', ( #194, #63 ) ) ;
#229 = VECTOR ( 'NONE', #89, 39.37007874015748854 ) ;
#230 = EDGE_LOOP ( 'NONE', ( #11, #4 ) ) ;
#231 =( NAMED_UNIT ( * ) SI_UNIT ( $, .STERADIAN. ) SOLID_ANGLE_UNIT ( ) );
#232 = AXIS2_PLACEMENT_3D ( 'NONE', #107, #20, #115 ) ;
#233 = CIRCLE ( 'NONE', #232, 0.1818505000000002481 ) ;
#234 = DIRECTION ( 'NONE',  ( 1.000000000000000000, 0.000000000000000000, 0.000000000000000000 ) ) ;
#235 = LINE ( 'NONE', #170, #119 ) ;
#236 =( NAMED_UNIT ( * ) PLANE_ANGLE_UNIT ( ) SI_UNIT ( $, .RADIAN. ) );
#237 = ADVANCED_FACE ( 'NONE', ( #104 ), #58, .T. ) ;
#238 = FACE_OUTER_BOUND ( 'NONE', #228, .T. ) ;
#239 = VERTEX_POINT ( 'NONE', #218 ) ;
#240 = ORIENTED_EDGE ( 'NONE', *, *, #280, .F. ) ;
#241 = UNCERTAINTY_MEASURE_WITH_UNIT (LENGTH_MEASURE( 1.000000000000000082E-05 ), #227, 'distance_accuracy_value', 'NONE');
#242 = SURFACE_STYLE_USAGE ( .BOTH. , #178 ) ;
#243 = VERTEX_POINT ( 'NONE', #14 ) ;
#244 = EDGE_CURVE ( 'NONE', #192, #239, #135, .T. ) ;
#245 = AXIS2_PLACEMENT_3D ( 'NONE', #189, #259, #262 ) ;
#246 = ORIENTED_EDGE ( 'NONE', *, *, #263, .T. ) ;
#247 =( GEOMETRIC_REPRESENTATION_CONTEXT ( 3 ) GLOBAL_UNCERTAINTY_ASSIGNED_CONTEXT ( ( #82 ) ) GLOBAL_UNIT_ASSIGNED_CONTEXT ( ( #18, #220, #264 ) ) REPRESENTATION_CONTEXT ( 'NONE', 'WORKASPACE' ) );
#248 = DIRECTION ( 'NONE',  ( 0.000000000000000000, 0.000000000000000000, -1.000000000000000000 ) ) ;
#249 = PRODUCT_DEFINITION_SHAPE ( 'NONE', 'NONE',  #169 ) ;
#250 = DIRECTION ( 'NONE',  ( 0.000000000000000000, 0.000000000000000000, 1.000000000000000000 ) ) ;
#251 = DIRECTION ( 'NONE',  ( -1.224646799147353207E-16, -0.000000000000000000, -1.000000000000000000 ) ) ;
#252 = EDGE_LOOP ( 'NONE', ( #240, #158, #17, #42 ) ) ;
#253 = AXIS2_PLACEMENT_3D ( 'NONE', #3, #7, #161 ) ;
#254 =( NAMED_UNIT ( * ) PLANE_ANGLE_UNIT ( ) SI_UNIT ( $, .RADIAN. ) );
#255 = ORIENTED_EDGE ( 'NONE', *, *, #22, .F. ) ;
#256 = CARTESIAN_POINT ( 'NONE',  ( -0.1968504999999998450, 0.000000000000000000, 0.9853683946618325695 ) ) ;
#257 = VECTOR ( 'NONE', #215, 39.37007874015748143 ) ;
#258 = ADVANCED_FACE ( 'NONE', ( #238 ), #287, .F. ) ;
#259 = DIRECTION ( 'NONE',  ( 1.224646799147353207E-16, 0.000000000000000000, 1.000000000000000000 ) ) ;
#260 = CIRCLE ( 'NONE', #94, 0.1966536494999999996 ) ;
#261 =( LENGTH_UNIT ( ) NAMED_UNIT ( * ) SI_UNIT ( $, .METRE. ) );
#262 = DIRECTION ( 'NONE',  ( 1.000000000000000000, 0.000000000000000000, 0.000000000000000000 ) ) ;
#263 = EDGE_CURVE ( 'NONE', #179, #239, #125, .T. ) ;
#264 =( NAMED_UNIT ( * ) SI_UNIT ( $, .STERADIAN. ) SOLID_ANGLE_UNIT ( ) );
#265 = AXIS2_PLACEMENT_3D ( 'NONE', #16, #159, #53 ) ;
#266 = ORIENTED_EDGE ( 'NONE', *, *, #90, .F. ) ;
#267 = EDGE_CURVE ( 'NONE', #243, #239, #174, .T. ) ;
#268 = ORIENTED_EDGE ( 'NONE', *, *, #71, .T. ) ;
#269 = VERTEX_POINT ( 'NONE', #87 ) ;
#270 = LINE ( 'NONE', #222, #183 ) ;
#271 = AXIS2_PLACEMENT_3D ( 'NONE', #92, #248, #45 ) ;
#272 = CARTESIAN_POINT ( 'NONE',  ( -0.1818505000000002481, 0.000000000000000000, 2.834646000000000665 ) ) ;
#273 = AXIS2_PLACEMENT_3D ( 'NONE', #28, #146, #198 ) ;
#274 = FACE_OUTER_BOUND ( 'NONE', #252, .T. ) ;
#275 = DIRECTION ( 'NONE',  ( -0.000000000000000000, -0.000000000000000000, -1.000000000000000000 ) ) ;
#276 = DIRECTION ( 'NONE',  ( -1.000000000000000000, 0.000000000000000000, 1.224646799147353207E-16 ) ) ;
#277 = AXIS2_PLACEMENT_3D ( 'NONE', #172, #296, #86 ) ;
#278 = COLOUR_RGB ( '',0.7921568627450980005, 0.8196078431372548767, 0.9333333333333333481 ) ;
#279 = DIRECTION ( 'NONE',  ( -1.000000000000000000, 0.000000000000000000, 0.000000000000000000 ) ) ;
#280 = EDGE_CURVE ( 'NONE', #179, #269, #270, .T. ) ;
#281 = AXIS2_PLACEMENT_3D ( 'NONE', #39, #131, #12 ) ;
#282 = CARTESIAN_POINT ( 'NONE',  ( 0.1966536495000001383, 0.000000000000000000, 0.9842519999999999047 ) ) ;
#283 = DIRECTION ( 'NONE',  ( -0.000000000000000000, -0.000000000000000000, -1.000000000000000000 ) ) ;
#284 = DIRECTION ( 'NONE',  ( -0.1736481776669311639, 2.126576849575782392E-17, 0.9848077530122080203 ) ) ;
#285 = ORIENTED_EDGE ( 'NONE', *, *, #35, .F. ) ;
#286 = FILL_AREA_STYLE ('',( #110 ) ) ;
#287 = PLANE ( 'NONE',  #49 ) ;
#288 = CARTESIAN_POINT ( 'NONE',  ( -0.1968504999999999838, 0.000000000000000000, 2.819646000000000097 ) ) ;
#289 = CARTESIAN_POINT ( 'NONE',  ( 0.1966536495000001383, 0.000000000000000000, 0.9842519999999999047 ) ) ;
#290 = DIRECTION ( 'NONE',  ( 1.000000000000000000, 0.000000000000000000, 0.000000000000000000 ) ) ;
#291 = AXIS2_PLACEMENT_3D ( 'NONE', #120, #51, #140 ) ;
#292 = CARTESIAN_POINT ( 'NONE',  ( 0.000000000000000000, 0.000000000000000000, 0.000000000000000000 ) ) ;
#293 = PRESENTATION_LAYER_ASSIGNMENT (  '', '', ( #299 ) ) ;
#294 = ORIENTED_EDGE ( 'NONE', *, *, #223, .F. ) ;
#295 = PRODUCT ( 'Micro_AEMM-100-2X', 'Micro_AEMM-100-2X', '', ( #117 ) ) ;
#296 = DIRECTION ( 'NONE',  ( -1.224646799147353207E-16, -0.000000000000000000, -1.000000000000000000 ) ) ;
#297 = EDGE_CURVE ( 'NONE', #43, #179, #27, .T. ) ;
#298 =( CONVERSION_BASED_UNIT ( 'INCH', #210 ) LENGTH_UNIT ( ) NAMED_UNIT ( #166 ) );
#299 = STYLED_ITEM ( 'NONE', ( #148 ), #50 ) ;
ENDSEC;
END-ISO-10303-21;
