ISO-10303-21;
HEADER;
FILE_DESCRIPTION (( 'STEP AP214' ),
    '1' );
FILE_NAME ('82957.STEP',
    '2023-06-23T07:45:33',
    ( '' ),
    ( '' ),
    'SwSTEP 2.0',
    'SolidWorks 2023',
    '' );
FILE_SCHEMA (( 'AUTOMOTIVE_DESIGN' ));
ENDSEC;

DATA;
#1 = CYLINDRICAL_SURFACE ( 'NONE', #194, 0.3750000000000000555 ) ;
#2 =( NAMED_UNIT ( * ) SI_UNIT ( $, .STERADIAN. ) SOLID_ANGLE_UNIT ( ) );
#3 = STYLED_ITEM ( 'NONE', ( #69 ), #177 ) ;
#4 =( GEOMETRIC_REPRESENTATION_CONTEXT ( 3 ) GLOBAL_UNCERTAINTY_ASSIGNED_CONTEXT ( ( #271 ) ) GLOBAL_UNIT_ASSIGNED_CONTEXT ( ( #26, #287, #48 ) ) REPRESENTATION_CONTEXT ( 'NONE', 'WORKASPACE' ) );
#5 = CYLINDRICAL_SURFACE ( 'NONE', #202, 0.3750000000000002220 ) ;
#6 = EDGE_LOOP ( 'NONE', ( #95, #189 ) ) ;
#7 = APPLICATION_CONTEXT ( 'automotive_design' ) ;
#8 = CARTESIAN_POINT ( 'NONE',  ( 0.000000000000000000, 0.000000000000000000, 0.000000000000000000 ) ) ;
#9 = ORIENTED_EDGE ( 'NONE', *, *, #246, .F. ) ;
#10 = DIMENSIONAL_EXPONENTS ( 1.000000000000000000, 0.000000000000000000, 0.000000000000000000, 0.000000000000000000, 0.000000000000000000, 0.000000000000000000, 0.000000000000000000 ) ;
#11 = DIRECTION ( 'NONE',  ( -0.000000000000000000, -1.000000000000000000, -0.000000000000000000 ) ) ;
#12 = EDGE_CURVE ( 'NONE', #101, #127, #225, .T. ) ;
#13 =( CONVERSION_BASED_UNIT ( 'INCH', #169 ) LENGTH_UNIT ( ) NAMED_UNIT ( #150 ) );
#14 = ORIENTED_EDGE ( 'NONE', *, *, #153, .T. ) ;
#15 =( LENGTH_UNIT ( ) NAMED_UNIT ( * ) SI_UNIT ( $, .METRE. ) );
#16 = VECTOR ( 'NONE', #109, 39.37007874015748143 ) ;
#17 = DIRECTION ( 'NONE',  ( -1.000000000000000000, 0.000000000000000000, 0.000000000000000000 ) ) ;
#18 = PRODUCT_DEFINITION_CONTEXT ( 'detailed design', #256, 'design' ) ;
#19 = DIRECTION ( 'NONE',  ( -1.335978326342567180E-16, 1.000000000000000000, -0.000000000000000000 ) ) ;
#20 = CIRCLE ( 'NONE', #293, 0.3750000000000000555 ) ;
#21 = DIRECTION ( 'NONE',  ( -1.335978326342567180E-16, 1.000000000000000000, -0.000000000000000000 ) ) ;
#22 = EDGE_CURVE ( 'NONE', #51, #80, #67, .T. ) ;
#23 = SURFACE_SIDE_STYLE ('',( #226 ) ) ;
#24 = SURFACE_STYLE_USAGE ( .BOTH. , #252 ) ;
#25 = PRESENTATION_LAYER_ASSIGNMENT (  '', '', ( #232 ) ) ;
#26 =( CONVERSION_BASED_UNIT ( 'INCH', #159 ) LENGTH_UNIT ( ) NAMED_UNIT ( #10 ) );
#27 = DIRECTION ( 'NONE',  ( 0.000000000000000000, 0.000000000000000000, -1.000000000000000000 ) ) ;
#28 = APPLICATION_PROTOCOL_DEFINITION ( 'draft international standard', 'automotive_design', 1998, #7 ) ;
#29 = CARTESIAN_POINT ( 'NONE',  ( 3.346571415857037971E-33, 3.250000000000000000, 0.000000000000000000 ) ) ;
#30 = DIRECTION ( 'NONE',  ( 1.335978326342567180E-16, -1.000000000000000000, 0.000000000000000000 ) ) ;
#31 = ORIENTED_EDGE ( 'NONE', *, *, #81, .F. ) ;
#32 = DIRECTION ( 'NONE',  ( 0.000000000000000000, 0.000000000000000000, 1.000000000000000000 ) ) ;
#33 = ORIENTED_EDGE ( 'NONE', *, *, #12, .T. ) ;
#34 = DIRECTION ( 'NONE',  ( 1.000000000000000000, 0.000000000000000000, 0.000000000000000000 ) ) ;
#35 = CARTESIAN_POINT ( 'NONE',  ( 0.000000000000000000, 3.250000000000000000, 0.000000000000000000 ) ) ;
#36 = ORIENTED_EDGE ( 'NONE', *, *, #278, .T. ) ;
#37 = MECHANICAL_DESIGN_GEOMETRIC_PRESENTATION_REPRESENTATION (  '', ( #92 ), #213 ) ;
#38 = AXIS2_PLACEMENT_3D ( 'NONE', #98, #30, #253 ) ;
#39 = CARTESIAN_POINT ( 'NONE',  ( 0.3749999999999998890, 6.000000000000000888, 4.592425496802577300E-17 ) ) ;
#40 = ORIENTED_EDGE ( 'NONE', *, *, #266, .F. ) ;
#41 = STYLED_ITEM ( 'NONE', ( #78 ), #234 ) ;
#42 = UNCERTAINTY_MEASURE_WITH_UNIT (LENGTH_MEASURE( 1.000000000000000082E-05 ), #290, 'distance_accuracy_value', 'NONE');
#43 = AXIS2_PLACEMENT_3D ( 'NONE', #121, #32, #34 ) ;
#44 = FACE_OUTER_BOUND ( 'NONE', #57, .T. ) ;
#45 =( LENGTH_UNIT ( ) NAMED_UNIT ( * ) SI_UNIT ( $, .METRE. ) );
#46 = DIRECTION ( 'NONE',  ( -1.000000000000000000, 0.000000000000000000, 0.000000000000000000 ) ) ;
#47 = DIRECTION ( 'NONE',  ( 0.000000000000000000, -0.000000000000000000, 1.000000000000000000 ) ) ;
#48 =( NAMED_UNIT ( * ) SI_UNIT ( $, .STERADIAN. ) SOLID_ANGLE_UNIT ( ) );
#49 = LENGTH_MEASURE_WITH_UNIT ( LENGTH_MEASURE( 0.02539999999999999897 ), #291 );
#50 = PRESENTATION_LAYER_ASSIGNMENT (  '', '', ( #92 ) ) ;
#51 = VERTEX_POINT ( 'NONE', #248 ) ;
#52 = COLOUR_RGB ( '',1.000000000000000000, 0.000000000000000000, 0.000000000000000000 ) ;
#53 = SURFACE_SIDE_STYLE ('',( #296 ) ) ;
#54 = ORIENTED_EDGE ( 'NONE', *, *, #228, .F. ) ;
#55 = DIMENSIONAL_EXPONENTS ( 1.000000000000000000, 0.000000000000000000, 0.000000000000000000, 0.000000000000000000, 0.000000000000000000, 0.000000000000000000, 0.000000000000000000 ) ;
#56 = SURFACE_SIDE_STYLE ('',( #144 ) ) ;
#57 = EDGE_LOOP ( 'NONE', ( #54, #145, #216, #96 ) ) ;
#58 =( NAMED_UNIT ( * ) PLANE_ANGLE_UNIT ( ) SI_UNIT ( $, .RADIAN. ) );
#59 = DIMENSIONAL_EXPONENTS ( 1.000000000000000000, 0.000000000000000000, 0.000000000000000000, 0.000000000000000000, 0.000000000000000000, 0.000000000000000000, 0.000000000000000000 ) ;
#60 = AXIS2_PLACEMENT_3D ( 'NONE', #86, #66, #130 ) ;
#61 =( GEOMETRIC_REPRESENTATION_CONTEXT ( 3 ) GLOBAL_UNCERTAINTY_ASSIGNED_CONTEXT ( ( #42 ) ) GLOBAL_UNIT_ASSIGNED_CONTEXT ( ( #290, #146, #239 ) ) REPRESENTATION_CONTEXT ( 'NONE', 'WORKASPACE' ) );
#62 = ADVANCED_FACE ( 'NONE', ( #44 ), #178, .T. ) ;
#63 = ORIENTED_EDGE ( 'NONE', *, *, #22, .T. ) ;
#64 = FILL_AREA_STYLE ('',( #276 ) ) ;
#65 = UNCERTAINTY_MEASURE_WITH_UNIT (LENGTH_MEASURE( 1.000000000000000082E-05 ), #13, 'distance_accuracy_value', 'NONE');
#66 = DIRECTION ( 'NONE',  ( -1.335978326342567180E-16, 1.000000000000000000, -0.000000000000000000 ) ) ;
#67 = CIRCLE ( 'NONE', #187, 0.3750000000000003886 ) ;
#68 = SURFACE_STYLE_USAGE ( .BOTH. , #23 ) ;
#69 = PRESENTATION_STYLE_ASSIGNMENT (( #24 ) ) ;
#70 = CARTESIAN_POINT ( 'NONE',  ( 0.000000000000000000, 3.250000000000000000, 0.000000000000000000 ) ) ;
#71 = MECHANICAL_DESIGN_GEOMETRIC_PRESENTATION_REPRESENTATION (  '', ( #281 ), #4 ) ;
#72 = MECHANICAL_DESIGN_GEOMETRIC_PRESENTATION_REPRESENTATION (  '', ( #170 ), #61 ) ;
#73 = DIRECTION ( 'NONE',  ( -1.335978326342567180E-16, 1.000000000000000000, -0.000000000000000000 ) ) ;
#74 = EDGE_CURVE ( 'NONE', #260, #101, #161, .T. ) ;
#75 =( LENGTH_UNIT ( ) NAMED_UNIT ( * ) SI_UNIT ( $, .METRE. ) );
#76 = LENGTH_MEASURE_WITH_UNIT ( LENGTH_MEASURE( 0.02539999999999999897 ), #241 );
#77 = SURFACE_STYLE_USAGE ( .BOTH. , #56 ) ;
#78 = PRESENTATION_STYLE_ASSIGNMENT (( #79 ) ) ;
#79 = SURFACE_STYLE_USAGE ( .BOTH. , #53 ) ;
#80 = VERTEX_POINT ( 'NONE', #195 ) ;
#81 = EDGE_CURVE ( 'NONE', #244, #51, #103, .T. ) ;
#82 = PRESENTATION_STYLE_ASSIGNMENT (( #77 ) ) ;
#83 = EDGE_LOOP ( 'NONE', ( #63, #14 ) ) ;
#84 = CLOSED_SHELL ( 'NONE', ( #177, #197, #289, #234 ) ) ;
#85 = UNCERTAINTY_MEASURE_WITH_UNIT (LENGTH_MEASURE( 1.000000000000000082E-05 ), #285, 'distance_accuracy_value', 'NONE');
#86 = CARTESIAN_POINT ( 'NONE',  ( -3.673940397442060361E-16, 6.000000000000000888, 0.000000000000000000 ) ) ;
#87 = AXIS2_PLACEMENT_3D ( 'NONE', #222, #19, #111 ) ;
#88 = DIRECTION ( 'NONE',  ( 0.000000000000000000, 1.000000000000000000, 0.000000000000000000 ) ) ;
#89 = LINE ( 'NONE', #227, #120 ) ;
#90 = SURFACE_SIDE_STYLE ('',( #117 ) ) ;
#91 = FILL_AREA_STYLE ('',( #112 ) ) ;
#92 = STYLED_ITEM ( 'NONE', ( #306 ), #118 ) ;
#93 =( GEOMETRIC_REPRESENTATION_CONTEXT ( 3 ) GLOBAL_UNCERTAINTY_ASSIGNED_CONTEXT ( ( #65 ) ) GLOBAL_UNIT_ASSIGNED_CONTEXT ( ( #13, #139, #240 ) ) REPRESENTATION_CONTEXT ( 'NONE', 'WORKASPACE' ) );
#94 = DIRECTION ( 'NONE',  ( 0.000000000000000000, -1.000000000000000000, -0.000000000000000000 ) ) ;
#95 = ORIENTED_EDGE ( 'NONE', *, *, #193, .F. ) ;
#96 = ORIENTED_EDGE ( 'NONE', *, *, #153, .F. ) ;
#97 = ADVANCED_BREP_SHAPE_REPRESENTATION ( '82957', ( #118, #218, #43 ), #93 ) ;
#98 = CARTESIAN_POINT ( 'NONE',  ( 0.3750000000000000555, 6.000000000000000888, 0.000000000000000000 ) ) ;
#99 = MECHANICAL_DESIGN_GEOMETRIC_PRESENTATION_REPRESENTATION (  '', ( #232 ), #110 ) ;
#100 = LINE ( 'NONE', #39, #220 ) ;
#101 = VERTEX_POINT ( 'NONE', #304 ) ;
#102 = UNCERTAINTY_MEASURE_WITH_UNIT (LENGTH_MEASURE( 1.000000000000000082E-05 ), #280, 'distance_accuracy_value', 'NONE');
#103 = LINE ( 'NONE', #133, #224 ) ;
#104 = COLOUR_RGB ( '',1.000000000000000000, 0.000000000000000000, 0.000000000000000000 ) ;
#105 = AXIS2_PLACEMENT_3D ( 'NONE', #8, #94, #125 ) ;
#106 =( NAMED_UNIT ( * ) PLANE_ANGLE_UNIT ( ) SI_UNIT ( $, .RADIAN. ) );
#107 = UNCERTAINTY_MEASURE_WITH_UNIT (LENGTH_MEASURE( 1.000000000000000082E-05 ), #229, 'distance_accuracy_value', 'NONE');
#108 = CARTESIAN_POINT ( 'NONE',  ( 0.000000000000000000, 0.000000000000000000, -0.3750000000000000555 ) ) ;
#109 = DIRECTION ( 'NONE',  ( -0.000000000000000000, -1.000000000000000000, -0.000000000000000000 ) ) ;
#110 =( GEOMETRIC_REPRESENTATION_CONTEXT ( 3 ) GLOBAL_UNCERTAINTY_ASSIGNED_CONTEXT ( ( #107 ) ) GLOBAL_UNIT_ASSIGNED_CONTEXT ( ( #229, #283, #173 ) ) REPRESENTATION_CONTEXT ( 'NONE', 'WORKASPACE' ) );
#111 = DIRECTION ( 'NONE',  ( -1.000000000000000000, 0.000000000000000000, 0.000000000000000000 ) ) ;
#112 = FILL_AREA_STYLE_COLOUR ( '', #188 ) ;
#113 = FILL_AREA_STYLE_COLOUR ( '', #255 ) ;
#114 = PRESENTATION_LAYER_ASSIGNMENT (  '', '', ( #41 ) ) ;
#115 = CARTESIAN_POINT ( 'NONE',  ( 0.000000000000000000, 0.000000000000000000, 0.000000000000000000 ) ) ;
#116 = SURFACE_STYLE_USAGE ( .BOTH. , #90 ) ;
#117 = SURFACE_STYLE_FILL_AREA ( #203 ) ;
#118 = MANIFOLD_SOLID_BREP ( 'Revolve - Cutting Edge', #84 ) ;
#119 = SHAPE_DEFINITION_REPRESENTATION ( #167, #97 ) ;
#120 = VECTOR ( 'NONE', #138, 39.37007874015748143 ) ;
#121 = CARTESIAN_POINT ( 'NONE',  ( 0.000000000000000000, 0.000000000000000000, 0.000000000000000000 ) ) ;
#122 = CARTESIAN_POINT ( 'NONE',  ( -0.3750000000000000555, 3.250000000000000000, 0.000000000000000000 ) ) ;
#123 = DIRECTION ( 'NONE',  ( -1.335978326342567180E-16, 1.000000000000000000, -0.000000000000000000 ) ) ;
#124 = CARTESIAN_POINT ( 'NONE',  ( 0.000000000000000000, 0.000000000000000000, 0.000000000000000000 ) ) ;
#125 = DIRECTION ( 'NONE',  ( 0.000000000000000000, 0.000000000000000000, -1.000000000000000000 ) ) ;
#126 = COLOUR_RGB ( '',0.7921568627450980005, 0.8196078431372548767, 0.9333333333333333481 ) ;
#127 = VERTEX_POINT ( 'NONE', #132 ) ;
#128 = DIRECTION ( 'NONE',  ( -0.000000000000000000, -1.000000000000000000, -0.000000000000000000 ) ) ;
#129 = ORIENTED_EDGE ( 'NONE', *, *, #12, .F. ) ;
#130 = DIRECTION ( 'NONE',  ( -1.000000000000000000, 0.000000000000000000, 0.000000000000000000 ) ) ;
#131 = DIMENSIONAL_EXPONENTS ( 1.000000000000000000, 0.000000000000000000, 0.000000000000000000, 0.000000000000000000, 0.000000000000000000, 0.000000000000000000, 0.000000000000000000 ) ;
#132 = CARTESIAN_POINT ( 'NONE',  ( 4.592425496802575451E-17, 0.000000000000000000, 0.3750000000000000555 ) ) ;
#133 = CARTESIAN_POINT ( 'NONE',  ( -0.3750000000000005551, 6.000000000000000888, 0.000000000000000000 ) ) ;
#134 = DIRECTION ( 'NONE',  ( -1.335978326342567180E-16, 1.000000000000000000, -0.000000000000000000 ) ) ;
#135 = LENGTH_MEASURE_WITH_UNIT ( LENGTH_MEASURE( 0.02539999999999999897 ), #45 );
#136 =( LENGTH_UNIT ( ) NAMED_UNIT ( * ) SI_UNIT ( $, .METRE. ) );
#137 = MECHANICAL_DESIGN_GEOMETRIC_PRESENTATION_REPRESENTATION (  '', ( #3 ), #176 ) ;
#138 = DIRECTION ( 'NONE',  ( -0.000000000000000000, -1.000000000000000000, -0.000000000000000000 ) ) ;
#139 =( NAMED_UNIT ( * ) PLANE_ANGLE_UNIT ( ) SI_UNIT ( $, .RADIAN. ) );
#140 = FILL_AREA_STYLE_COLOUR ( '', #206 ) ;
#141 = PRODUCT_RELATED_PRODUCT_CATEGORY ( 'part', '', ( #164 ) ) ;
#142 = PRESENTATION_LAYER_ASSIGNMENT (  '', '', ( #281 ) ) ;
#143 = CIRCLE ( 'NONE', #237, 0.3750000000000000555 ) ;
#144 = SURFACE_STYLE_FILL_AREA ( #191 ) ;
#145 = ORIENTED_EDGE ( 'NONE', *, *, #174, .T. ) ;
#146 =( NAMED_UNIT ( * ) PLANE_ANGLE_UNIT ( ) SI_UNIT ( $, .RADIAN. ) );
#147 = MECHANICAL_DESIGN_GEOMETRIC_PRESENTATION_REPRESENTATION (  '', ( #41 ), #301 ) ;
#148 = ORIENTED_EDGE ( 'NONE', *, *, #193, .T. ) ;
#149 = ORIENTED_EDGE ( 'NONE', *, *, #156, .F. ) ;
#150 = DIMENSIONAL_EXPONENTS ( 1.000000000000000000, 0.000000000000000000, 0.000000000000000000, 0.000000000000000000, 0.000000000000000000, 0.000000000000000000, 0.000000000000000000 ) ;
#151 = DIRECTION ( 'NONE',  ( -0.000000000000000000, -1.000000000000000000, -0.000000000000000000 ) ) ;
#152 = SURFACE_STYLE_FILL_AREA ( #64 ) ;
#153 = EDGE_CURVE ( 'NONE', #80, #51, #274, .T. ) ;
#154 = SURFACE_SIDE_STYLE ('',( #152 ) ) ;
#155 = CIRCLE ( 'NONE', #309, 0.3750000000000000555 ) ;
#156 = EDGE_CURVE ( 'NONE', #260, #263, #89, .T. ) ;
#157 = AXIS2_PLACEMENT_3D ( 'NONE', #29, #243, #258 ) ;
#158 = DIRECTION ( 'NONE',  ( 0.000000000000000000, 0.000000000000000000, -1.000000000000000000 ) ) ;
#159 = LENGTH_MEASURE_WITH_UNIT ( LENGTH_MEASURE( 0.02539999999999999897 ), #205 );
#160 = CYLINDRICAL_SURFACE ( 'NONE', #264, 0.3750000000000000555 ) ;
#161 = CIRCLE ( 'NONE', #305, 0.3750000000000000555 ) ;
#162 = CARTESIAN_POINT ( 'NONE',  ( 0.000000000000000000, 0.000000000000000000, 0.000000000000000000 ) ) ;
#163 = PRESENTATION_STYLE_ASSIGNMENT (( #116 ) ) ;
#164 = PRODUCT ( '82957', '82957', '', ( #165 ) ) ;
#165 = PRODUCT_CONTEXT ( 'NONE', #7, 'mechanical' ) ;
#166 = PLANE ( 'NONE',  #38 ) ;
#167 = PRODUCT_DEFINITION_SHAPE ( 'NONE', 'NONE',  #217 ) ;
#168 = EDGE_LOOP ( 'NONE', ( #299, #33, #254, #149 ) ) ;
#169 = LENGTH_MEASURE_WITH_UNIT ( LENGTH_MEASURE( 0.02539999999999999897 ), #75 );
#170 = STYLED_ITEM ( 'NONE', ( #82 ), #218 ) ;
#171 = CARTESIAN_POINT ( 'NONE',  ( -3.673940397442060361E-16, 6.000000000000000888, 0.000000000000000000 ) ) ;
#172 = ORIENTED_EDGE ( 'NONE', *, *, #246, .T. ) ;
#173 =( NAMED_UNIT ( * ) SI_UNIT ( $, .STERADIAN. ) SOLID_ANGLE_UNIT ( ) );
#174 = EDGE_CURVE ( 'NONE', #212, #244, #20, .T. ) ;
#175 = ORIENTED_EDGE ( 'NONE', *, *, #266, .T. ) ;
#176 =( GEOMETRIC_REPRESENTATION_CONTEXT ( 3 ) GLOBAL_UNCERTAINTY_ASSIGNED_CONTEXT ( ( #85 ) ) GLOBAL_UNIT_ASSIGNED_CONTEXT ( ( #285, #251, #2 ) ) REPRESENTATION_CONTEXT ( 'NONE', 'WORKASPACE' ) );
#177 = ADVANCED_FACE ( 'NONE', ( #230 ), #160, .T. ) ;
#178 = CYLINDRICAL_SURFACE ( 'NONE', #60, 0.3750000000000002220 ) ;
#179 = LENGTH_MEASURE_WITH_UNIT ( LENGTH_MEASURE( 0.02539999999999999897 ), #15 );
#180 = PLANE ( 'NONE',  #286 ) ;
#181 = FACE_OUTER_BOUND ( 'NONE', #83, .T. ) ;
#182 = DIRECTION ( 'NONE',  ( -1.000000000000000000, 0.000000000000000000, 0.000000000000000000 ) ) ;
#183 = CARTESIAN_POINT ( 'NONE',  ( 0.000000000000000000, 3.250000000000000000, 0.000000000000000000 ) ) ;
#184 = PRESENTATION_LAYER_ASSIGNMENT (  '', '', ( #3 ) ) ;
#185 = FILL_AREA_STYLE_COLOUR ( '', #104 ) ;
#186 = ORIENTED_EDGE ( 'NONE', *, *, #228, .T. ) ;
#187 = AXIS2_PLACEMENT_3D ( 'NONE', #302, #21, #17 ) ;
#188 = COLOUR_RGB ( '',1.000000000000000000, 0.000000000000000000, 0.000000000000000000 ) ;
#189 = ORIENTED_EDGE ( 'NONE', *, *, #174, .F. ) ;
#190 = ORIENTED_EDGE ( 'NONE', *, *, #22, .F. ) ;
#191 = FILL_AREA_STYLE ('',( #140 ) ) ;
#192 = EDGE_LOOP ( 'NONE', ( #36, #175 ) ) ;
#193 = EDGE_CURVE ( 'NONE', #244, #212, #236, .T. ) ;
#194 = AXIS2_PLACEMENT_3D ( 'NONE', #124, #128, #288 ) ;
#195 = CARTESIAN_POINT ( 'NONE',  ( 0.3750000000000000555, 6.000000000000000888, 4.592425496802578533E-17 ) ) ;
#196 = CARTESIAN_POINT ( 'NONE',  ( 0.000000000000000000, 3.250000000000000000, 0.000000000000000000 ) ) ;
#197 = ADVANCED_FACE ( 'NONE', ( #308 ), #180, .T. ) ;
#198 = CARTESIAN_POINT ( 'NONE',  ( 0.000000000000000000, 3.250000000000000000, -0.3750000000000000555 ) ) ;
#199 = PRESENTATION_STYLE_ASSIGNMENT (( #68 ) ) ;
#200 = FILL_AREA_STYLE ('',( #113 ) ) ;
#201 = DIRECTION ( 'NONE',  ( -1.335978326342567180E-16, 1.000000000000000000, -0.000000000000000000 ) ) ;
#202 = AXIS2_PLACEMENT_3D ( 'NONE', #171, #223, #303 ) ;
#203 = FILL_AREA_STYLE ('',( #185 ) ) ;
#204 = FACE_OUTER_BOUND ( 'NONE', #292, .T. ) ;
#205 =( LENGTH_UNIT ( ) NAMED_UNIT ( * ) SI_UNIT ( $, .METRE. ) );
#206 = COLOUR_RGB ( '',0.7921568627450980005, 0.8196078431372548767, 0.9333333333333333481 ) ;
#207 = DIRECTION ( 'NONE',  ( 0.000000000000000000, 0.000000000000000000, -1.000000000000000000 ) ) ;
#208 = APPLICATION_PROTOCOL_DEFINITION ( 'draft international standard', 'automotive_design', 1998, #256 ) ;
#209 = FACE_OUTER_BOUND ( 'NONE', #297, .T. ) ;
#210 = ADVANCED_FACE ( 'NONE', ( #181 ), #166, .F. ) ;
#211 =( NAMED_UNIT ( * ) SI_UNIT ( $, .STERADIAN. ) SOLID_ANGLE_UNIT ( ) );
#212 = VERTEX_POINT ( 'NONE', #214 ) ;
#213 =( GEOMETRIC_REPRESENTATION_CONTEXT ( 3 ) GLOBAL_UNCERTAINTY_ASSIGNED_CONTEXT ( ( #102 ) ) GLOBAL_UNIT_ASSIGNED_CONTEXT ( ( #280, #106, #247 ) ) REPRESENTATION_CONTEXT ( 'NONE', 'WORKASPACE' ) );
#214 = CARTESIAN_POINT ( 'NONE',  ( 0.3750000000000000555, 3.250000000000000000, 4.592425496802578533E-17 ) ) ;
#215 = EDGE_LOOP ( 'NONE', ( #261, #9 ) ) ;
#216 = ORIENTED_EDGE ( 'NONE', *, *, #81, .T. ) ;
#217 = PRODUCT_DEFINITION ( 'UNKNOWN', '', #275, #18 ) ;
#218 = MANIFOLD_SOLID_BREP ( 'Revolve - Tool Body (Straight Shanked)', #219 ) ;
#219 = CLOSED_SHELL ( 'NONE', ( #249, #307, #62, #210 ) ) ;
#220 = VECTOR ( 'NONE', #123, 39.37007874015748143 ) ;
#221 = UNCERTAINTY_MEASURE_WITH_UNIT (LENGTH_MEASURE( 1.000000000000000082E-05 ), #262, 'distance_accuracy_value', 'NONE');
#222 = CARTESIAN_POINT ( 'NONE',  ( -3.673940397442060361E-16, 6.000000000000000888, 0.000000000000000000 ) ) ;
#223 = DIRECTION ( 'NONE',  ( -1.335978326342567180E-16, 1.000000000000000000, -0.000000000000000000 ) ) ;
#224 = VECTOR ( 'NONE', #134, 39.37007874015748143 ) ;
#225 = LINE ( 'NONE', #277, #16 ) ;
#226 = SURFACE_STYLE_FILL_AREA ( #91 ) ;
#227 = CARTESIAN_POINT ( 'NONE',  ( 0.000000000000000000, 0.000000000000000000, -0.3750000000000000555 ) ) ;
#228 = EDGE_CURVE ( 'NONE', #212, #80, #100, .T. ) ;
#229 =( CONVERSION_BASED_UNIT ( 'INCH', #135 ) LENGTH_UNIT ( ) NAMED_UNIT ( #55 ) );
#230 = FACE_OUTER_BOUND ( 'NONE', #168, .T. ) ;
#231 = LENGTH_MEASURE_WITH_UNIT ( LENGTH_MEASURE( 0.02539999999999999897 ), #136 );
#232 = STYLED_ITEM ( 'NONE', ( #199 ), #289 ) ;
#233 = SURFACE_STYLE_FILL_AREA ( #200 ) ;
#234 = ADVANCED_FACE ( 'NONE', ( #295 ), #298, .T. ) ;
#235 = PLANE ( 'NONE',  #157 ) ;
#236 = CIRCLE ( 'NONE', #300, 0.3750000000000000555 ) ;
#237 = AXIS2_PLACEMENT_3D ( 'NONE', #269, #151, #272 ) ;
#238 = FACE_OUTER_BOUND ( 'NONE', #6, .T. ) ;
#239 =( NAMED_UNIT ( * ) SI_UNIT ( $, .STERADIAN. ) SOLID_ANGLE_UNIT ( ) );
#240 =( NAMED_UNIT ( * ) SI_UNIT ( $, .STERADIAN. ) SOLID_ANGLE_UNIT ( ) );
#241 =( LENGTH_UNIT ( ) NAMED_UNIT ( * ) SI_UNIT ( $, .METRE. ) );
#242 = FILL_AREA_STYLE ('',( #259 ) ) ;
#243 = DIRECTION ( 'NONE',  ( -1.335978326342567180E-16, 1.000000000000000000, 0.000000000000000000 ) ) ;
#244 = VERTEX_POINT ( 'NONE', #122 ) ;
#245 = SURFACE_STYLE_USAGE ( .BOTH. , #154 ) ;
#246 = EDGE_CURVE ( 'NONE', #101, #260, #155, .T. ) ;
#247 =( NAMED_UNIT ( * ) SI_UNIT ( $, .STERADIAN. ) SOLID_ANGLE_UNIT ( ) );
#248 = CARTESIAN_POINT ( 'NONE',  ( -0.3750000000000007216, 6.000000000000000888, 0.000000000000000000 ) ) ;
#249 = ADVANCED_FACE ( 'NONE', ( #209 ), #5, .T. ) ;
#250 = CIRCLE ( 'NONE', #265, 0.3750000000000000555 ) ;
#251 =( NAMED_UNIT ( * ) PLANE_ANGLE_UNIT ( ) SI_UNIT ( $, .RADIAN. ) );
#252 = SURFACE_SIDE_STYLE ('',( #233 ) ) ;
#253 = DIRECTION ( 'NONE',  ( 1.000000000000000000, 1.335978326342567180E-16, 0.000000000000000000 ) ) ;
#254 = ORIENTED_EDGE ( 'NONE', *, *, #278, .F. ) ;
#255 = COLOUR_RGB ( '',1.000000000000000000, 0.000000000000000000, 0.000000000000000000 ) ;
#256 = APPLICATION_CONTEXT ( 'automotive_design' ) ;
#257 = PRESENTATION_LAYER_ASSIGNMENT (  '', '', ( #170 ) ) ;
#258 = DIRECTION ( 'NONE',  ( -1.000000000000000000, -1.335978326342567180E-16, 0.000000000000000000 ) ) ;
#259 = FILL_AREA_STYLE_COLOUR ( '', #52 ) ;
#260 = VERTEX_POINT ( 'NONE', #198 ) ;
#261 = ORIENTED_EDGE ( 'NONE', *, *, #74, .F. ) ;
#262 =( CONVERSION_BASED_UNIT ( 'INCH', #76 ) LENGTH_UNIT ( ) NAMED_UNIT ( #59 ) );
#263 = VERTEX_POINT ( 'NONE', #108 ) ;
#264 = AXIS2_PLACEMENT_3D ( 'NONE', #115, #282, #158 ) ;
#265 = AXIS2_PLACEMENT_3D ( 'NONE', #162, #279, #27 ) ;
#266 = EDGE_CURVE ( 'NONE', #127, #263, #143, .T. ) ;
#267 = ORIENTED_EDGE ( 'NONE', *, *, #156, .T. ) ;
#268 = DIMENSIONAL_EXPONENTS ( 1.000000000000000000, 0.000000000000000000, 0.000000000000000000, 0.000000000000000000, 0.000000000000000000, 0.000000000000000000, 0.000000000000000000 ) ;
#269 = CARTESIAN_POINT ( 'NONE',  ( 0.000000000000000000, 0.000000000000000000, 0.000000000000000000 ) ) ;
#270 = DIRECTION ( 'NONE',  ( 0.000000000000000000, 0.000000000000000000, -1.000000000000000000 ) ) ;
#271 = UNCERTAINTY_MEASURE_WITH_UNIT (LENGTH_MEASURE( 1.000000000000000082E-05 ), #26, 'distance_accuracy_value', 'NONE');
#272 = DIRECTION ( 'NONE',  ( 0.000000000000000000, 0.000000000000000000, -1.000000000000000000 ) ) ;
#273 = DIRECTION ( 'NONE',  ( -0.000000000000000000, -1.000000000000000000, -0.000000000000000000 ) ) ;
#274 = CIRCLE ( 'NONE', #87, 0.3750000000000003886 ) ;
#275 = PRODUCT_DEFINITION_FORMATION_WITH_SPECIFIED_SOURCE ( 'ANY', '', #164, .NOT_KNOWN. ) ;
#276 = FILL_AREA_STYLE_COLOUR ( '', #126 ) ;
#277 = CARTESIAN_POINT ( 'NONE',  ( 4.592425496802575451E-17, 0.000000000000000000, 0.3750000000000000555 ) ) ;
#278 = EDGE_CURVE ( 'NONE', #263, #127, #250, .T. ) ;
#279 = DIRECTION ( 'NONE',  ( -0.000000000000000000, -1.000000000000000000, -0.000000000000000000 ) ) ;
#280 =( CONVERSION_BASED_UNIT ( 'INCH', #179 ) LENGTH_UNIT ( ) NAMED_UNIT ( #268 ) );
#281 = STYLED_ITEM ( 'NONE', ( #163 ), #197 ) ;
#282 = DIRECTION ( 'NONE',  ( -0.000000000000000000, -1.000000000000000000, -0.000000000000000000 ) ) ;
#283 =( NAMED_UNIT ( * ) PLANE_ANGLE_UNIT ( ) SI_UNIT ( $, .RADIAN. ) );
#284 = CARTESIAN_POINT ( 'NONE',  ( 0.000000000000000000, 3.250000000000000000, 0.000000000000000000 ) ) ;
#285 =( CONVERSION_BASED_UNIT ( 'INCH', #231 ) LENGTH_UNIT ( ) NAMED_UNIT ( #294 ) );
#286 = AXIS2_PLACEMENT_3D ( 'NONE', #183, #88, #47 ) ;
#287 =( NAMED_UNIT ( * ) PLANE_ANGLE_UNIT ( ) SI_UNIT ( $, .RADIAN. ) );
#288 = DIRECTION ( 'NONE',  ( 0.000000000000000000, 0.000000000000000000, -1.000000000000000000 ) ) ;
#289 = ADVANCED_FACE ( 'NONE', ( #204 ), #1, .T. ) ;
#290 =( CONVERSION_BASED_UNIT ( 'INCH', #49 ) LENGTH_UNIT ( ) NAMED_UNIT ( #131 ) );
#291 =( LENGTH_UNIT ( ) NAMED_UNIT ( * ) SI_UNIT ( $, .METRE. ) );
#292 = EDGE_LOOP ( 'NONE', ( #129, #172, #267, #40 ) ) ;
#293 = AXIS2_PLACEMENT_3D ( 'NONE', #70, #73, #46 ) ;
#294 = DIMENSIONAL_EXPONENTS ( 1.000000000000000000, 0.000000000000000000, 0.000000000000000000, 0.000000000000000000, 0.000000000000000000, 0.000000000000000000, 0.000000000000000000 ) ;
#295 = FACE_OUTER_BOUND ( 'NONE', #192, .T. ) ;
#296 = SURFACE_STYLE_FILL_AREA ( #242 ) ;
#297 = EDGE_LOOP ( 'NONE', ( #148, #186, #190, #31 ) ) ;
#298 = PLANE ( 'NONE',  #105 ) ;
#299 = ORIENTED_EDGE ( 'NONE', *, *, #74, .T. ) ;
#300 = AXIS2_PLACEMENT_3D ( 'NONE', #284, #201, #182 ) ;
#301 =( GEOMETRIC_REPRESENTATION_CONTEXT ( 3 ) GLOBAL_UNCERTAINTY_ASSIGNED_CONTEXT ( ( #221 ) ) GLOBAL_UNIT_ASSIGNED_CONTEXT ( ( #262, #58, #211 ) ) REPRESENTATION_CONTEXT ( 'NONE', 'WORKASPACE' ) );
#302 = CARTESIAN_POINT ( 'NONE',  ( -3.673940397442060361E-16, 6.000000000000000888, 0.000000000000000000 ) ) ;
#303 = DIRECTION ( 'NONE',  ( -1.000000000000000000, 0.000000000000000000, 0.000000000000000000 ) ) ;
#304 = CARTESIAN_POINT ( 'NONE',  ( 4.592425496802575451E-17, 3.250000000000000000, 0.3750000000000000555 ) ) ;
#305 = AXIS2_PLACEMENT_3D ( 'NONE', #196, #273, #270 ) ;
#306 = PRESENTATION_STYLE_ASSIGNMENT (( #245 ) ) ;
#307 = ADVANCED_FACE ( 'NONE', ( #238 ), #235, .F. ) ;
#308 = FACE_OUTER_BOUND ( 'NONE', #215, .T. ) ;
#309 = AXIS2_PLACEMENT_3D ( 'NONE', #35, #11, #207 ) ;
ENDSEC;
END-ISO-10303-21;
