ISO-10303-21;
HEADER;
FILE_DESCRIPTION (( 'STEP AP214' ),
    '1' );
FILE_NAME ('Micro_GELM-060-4.STEP',
    '2021-09-01T18:26:50',
    ( '' ),
    ( '' ),
    'SwSTEP 2.0',
    'SolidWorks 2020',
    '' );
FILE_SCHEMA (( 'AUTOMOTIVE_DESIGN' ));
ENDSEC;

DATA;
#1 = CARTESIAN_POINT ( 'NONE',  ( 0.1181100000000000066, 1.446430334472939084E-17, 2.952755999999999936 ) ) ;
#2 = CARTESIAN_POINT ( 'NONE',  ( 0.0000000000000000000, 0.0000000000000000000, 2.937755999999999368 ) ) ;
#3 = DIRECTION ( 'NONE',  ( 1.224646799147353207E-16, 0.0000000000000000000, 1.000000000000000000 ) ) ;
#4 = VERTEX_POINT ( 'NONE', #168 ) ;
#5 = DIRECTION ( 'NONE',  ( -1.000000000000000000, 0.0000000000000000000, 0.0000000000000000000 ) ) ;
#6 = VECTOR ( 'NONE', #257, 39.37007874015748143 ) ;
#7 = ORIENTED_EDGE ( 'NONE', *, *, #220, .T. ) ;
#8 = CARTESIAN_POINT ( 'NONE',  ( -0.1031099999999991607, 0.0000000000000000000, 2.952755999999999936 ) ) ;
#9 = ORIENTED_EDGE ( 'NONE', *, *, #29, .F. ) ;
#10 = UNCERTAINTY_MEASURE_WITH_UNIT (LENGTH_MEASURE( 1.000000000000000082E-05 ), #198, 'distance_accuracy_value', 'NONE');
#11 = AXIS2_PLACEMENT_3D ( 'NONE', #241, #295, #154 ) ;
#12 = ORIENTED_EDGE ( 'NONE', *, *, #23, .F. ) ;
#13 = ORIENTED_EDGE ( 'NONE', *, *, #289, .F. ) ;
#14 = CARTESIAN_POINT ( 'NONE',  ( -0.1179918899999998771, 1.445707119305702357E-17, 0.9842519999999999047 ) ) ;
#15 = FACE_OUTER_BOUND ( 'NONE', #153, .T. ) ;
#16 = CARTESIAN_POINT ( 'NONE',  ( 0.1181100000000001454, 1.446430334472940625E-17, 0.9849218350957150703 ) ) ;
#17 = ADVANCED_FACE ( 'NONE', ( #264 ), #145, .T. ) ;
#18 = CIRCLE ( 'NONE', #126, 0.1181100000000000066 ) ;
#19 = AXIS2_PLACEMENT_3D ( 'NONE', #282, #163, #260 ) ;
#20 = CARTESIAN_POINT ( 'NONE',  ( 1.206181372760304730E-16, 0.0000000000000000000, 0.9849218350957150703 ) ) ;
#21 = CYLINDRICAL_SURFACE ( 'NONE', #81, 0.1181100000000000066 ) ;
#22 = PLANE ( 'NONE',  #89 ) ;
#23 = EDGE_CURVE ( 'NONE', #222, #55, #105, .T. ) ;
#24 = DIRECTION ( 'NONE',  ( -1.000000000000000000, 0.0000000000000000000, 1.224646799147353454E-16 ) ) ;
#25 = CIRCLE ( 'NONE', #194, 0.1181100000000000066 ) ;
#26 = CARTESIAN_POINT ( 'NONE',  ( 0.0000000000000000000, 0.0000000000000000000, 0.0000000000000000000 ) ) ;
#27 = ORIENTED_EDGE ( 'NONE', *, *, #167, .F. ) ;
#28 = CARTESIAN_POINT ( 'NONE',  ( 0.0000000000000000000, 0.0000000000000000000, 2.952755999999999936 ) ) ;
#29 = EDGE_CURVE ( 'NONE', #61, #4, #252, .T. ) ;
#30 = ORIENTED_EDGE ( 'NONE', *, *, #167, .T. ) ;
#31 = CARTESIAN_POINT ( 'NONE',  ( 0.1179918899999999882, 1.444983904138465938E-17, 0.0000000000000000000 ) ) ;
#32 = VERTEX_POINT ( 'NONE', #16 ) ;
#33 = DIRECTION ( 'NONE',  ( 1.000000000000000000, 0.0000000000000000000, 0.0000000000000000000 ) ) ;
#34 = ORIENTED_EDGE ( 'NONE', *, *, #267, .T. ) ;
#35 = CARTESIAN_POINT ( 'NONE',  ( 0.0000000000000000000, 0.0000000000000000000, 0.0000000000000000000 ) ) ;
#36 = AXIS2_PLACEMENT_3D ( 'NONE', #20, #108, #278 ) ;
#37 = VERTEX_POINT ( 'NONE', #45 ) ;
#38 = EDGE_CURVE ( 'NONE', #55, #85, #134, .T. ) ;
#39 = CARTESIAN_POINT ( 'NONE',  ( 0.0000000000000000000, 0.0000000000000000000, 2.952755999999999936 ) ) ;
#40 =( GEOMETRIC_REPRESENTATION_CONTEXT ( 3 ) GLOBAL_UNCERTAINTY_ASSIGNED_CONTEXT ( ( #208 ) ) GLOBAL_UNIT_ASSIGNED_CONTEXT ( ( #58, #291, #57 ) ) REPRESENTATION_CONTEXT ( 'NONE', 'WORKASPACE' ) );
#41 = DIRECTION ( 'NONE',  ( -0.1736481776669312194, 2.126576849575783625E-17, 0.9848077530122080203 ) ) ;
#42 = CARTESIAN_POINT ( 'NONE',  ( 0.1179918900000001131, 0.0000000000000000000, 0.9842519999999999047 ) ) ;
#43 = AXIS2_PLACEMENT_3D ( 'NONE', #28, #93, #159 ) ;
#44 = AXIS2_PLACEMENT_3D ( 'NONE', #49, #139, #5 ) ;
#45 = CARTESIAN_POINT ( 'NONE',  ( -0.1179918899999999882, 0.0000000000000000000, 2.889967808276931875E-17 ) ) ;
#46 = LINE ( 'NONE', #1, #223 ) ;
#47 = CARTESIAN_POINT ( 'NONE',  ( -0.1179918899999999882, 0.0000000000000000000, 1.444983904138465938E-17 ) ) ;
#48 = VECTOR ( 'NONE', #86, 39.37007874015748854 ) ;
#49 = CARTESIAN_POINT ( 'NONE',  ( 1.205361061354380629E-16, 0.0000000000000000000, 0.9842519999999999047 ) ) ;
#50 = CARTESIAN_POINT ( 'NONE',  ( 1.205361061354380629E-16, 0.0000000000000000000, 0.9842519999999999047 ) ) ;
#51 = ORIENTED_EDGE ( 'NONE', *, *, #267, .F. ) ;
#52 = DIRECTION ( 'NONE',  ( -1.224646799147353207E-16, -0.0000000000000000000, -1.000000000000000000 ) ) ;
#53 = EDGE_LOOP ( 'NONE', ( #196, #94 ) ) ;
#54 = DIMENSIONAL_EXPONENTS ( 1.000000000000000000, 0.0000000000000000000, 0.0000000000000000000, 0.0000000000000000000, 0.0000000000000000000, 0.0000000000000000000, 0.0000000000000000000 ) ;
#55 = VERTEX_POINT ( 'NONE', #176 ) ;
#56 =( NAMED_UNIT ( * ) PLANE_ANGLE_UNIT ( ) SI_UNIT ( $, .RADIAN. ) );
#57 =( NAMED_UNIT ( * ) SI_UNIT ( $, .STERADIAN. ) SOLID_ANGLE_UNIT ( ) );
#58 =( CONVERSION_BASED_UNIT ( 'INCH', #124 ) LENGTH_UNIT ( ) NAMED_UNIT ( #54 ) );
#59 = ORIENTED_EDGE ( 'NONE', *, *, #187, .T. ) ;
#60 = ADVANCED_FACE ( 'NONE', ( #228 ), #229, .T. ) ;
#61 = VERTEX_POINT ( 'NONE', #14 ) ;
#62 = PRODUCT_DEFINITION ( 'UNKNOWN', '', #206, #92 ) ;
#63 = DIRECTION ( 'NONE',  ( -0.0000000000000000000, -0.0000000000000000000, -1.000000000000000000 ) ) ;
#64 = AXIS2_PLACEMENT_3D ( 'NONE', #26, #98, #262 ) ;
#65 = DIRECTION ( 'NONE',  ( -1.224646799147353207E-16, -0.0000000000000000000, -1.000000000000000000 ) ) ;
#66 = CIRCLE ( 'NONE', #144, 0.1179918899999999882 ) ;
#67 = AXIS2_PLACEMENT_3D ( 'NONE', #35, #151, #33 ) ;
#68 = LINE ( 'NONE', #109, #197 ) ;
#69 = DIRECTION ( 'NONE',  ( 1.000000000000000000, 0.0000000000000000000, 0.0000000000000000000 ) ) ;
#70 = DIRECTION ( 'NONE',  ( 1.000000000000000000, 0.0000000000000000000, 0.0000000000000000000 ) ) ;
#71 = ADVANCED_FACE ( 'NONE', ( #15 ), #110, .T. ) ;
#72 = CIRCLE ( 'NONE', #259, 0.1179918899999999882 ) ;
#73 = LINE ( 'NONE', #142, #6 ) ;
#74 = CIRCLE ( 'NONE', #131, 0.1181100000000000066 ) ;
#75 = EDGE_LOOP ( 'NONE', ( #190, #240 ) ) ;
#76 = LINE ( 'NONE', #182, #186 ) ;
#77 = DIMENSIONAL_EXPONENTS ( 1.000000000000000000, 0.0000000000000000000, 0.0000000000000000000, 0.0000000000000000000, 0.0000000000000000000, 0.0000000000000000000, 0.0000000000000000000 ) ;
#78 = VERTEX_POINT ( 'NONE', #42 ) ;
#79 = EDGE_CURVE ( 'NONE', #32, #4, #205, .T. ) ;
#80 = ORIENTED_EDGE ( 'NONE', *, *, #227, .F. ) ;
#81 = AXIS2_PLACEMENT_3D ( 'NONE', #39, #63, #130 ) ;
#82 = SURFACE_STYLE_FILL_AREA ( #102 ) ;
#83 = EDGE_CURVE ( 'NONE', #78, #32, #68, .T. ) ;
#84 = EDGE_LOOP ( 'NONE', ( #9, #285, #117, #122 ) ) ;
#85 = VERTEX_POINT ( 'NONE', #299 ) ;
#86 = DIRECTION ( 'NONE',  ( 0.7071067811865486830, 8.659560562354947649E-17, -0.7071067811865462405 ) ) ;
#87 = STYLED_ITEM ( 'NONE', ( #224 ), #125 ) ;
#88 = DIRECTION ( 'NONE',  ( -1.224646799147353207E-16, -0.0000000000000000000, -1.000000000000000000 ) ) ;
#89 = AXIS2_PLACEMENT_3D ( 'NONE', #234, #112, #207 ) ;
#90 = CARTESIAN_POINT ( 'NONE',  ( 0.0000000000000000000, 0.0000000000000000000, 2.952755999999999936 ) ) ;
#91 = DIRECTION ( 'NONE',  ( -1.224646799147353207E-16, -0.0000000000000000000, -1.000000000000000000 ) ) ;
#92 = PRODUCT_DEFINITION_CONTEXT ( 'detailed design', #243, 'design' ) ;
#93 = DIRECTION ( 'NONE',  ( 0.0000000000000000000, 0.0000000000000000000, 1.000000000000000000 ) ) ;
#94 = ORIENTED_EDGE ( 'NONE', *, *, #227, .T. ) ;
#95 = VECTOR ( 'NONE', #183, 39.37007874015748854 ) ;
#96 = DIRECTION ( 'NONE',  ( 0.0000000000000000000, 0.0000000000000000000, -1.000000000000000000 ) ) ;
#97 = EDGE_LOOP ( 'NONE', ( #119, #30, #288, #173 ) ) ;
#98 = DIRECTION ( 'NONE',  ( -1.224646799147353207E-16, -0.0000000000000000000, -1.000000000000000000 ) ) ;
#99 = ORIENTED_EDGE ( 'NONE', *, *, #38, .F. ) ;
#100 = FILL_AREA_STYLE_COLOUR ( '', #150 ) ;
#101 = CIRCLE ( 'NONE', #44, 0.1179918899999999882 ) ;
#102 = FILL_AREA_STYLE ('',( #100 ) ) ;
#103 = ORIENTED_EDGE ( 'NONE', *, *, #175, .F. ) ;
#104 =( NAMED_UNIT ( * ) SI_UNIT ( $, .STERADIAN. ) SOLID_ANGLE_UNIT ( ) );
#105 = CIRCLE ( 'NONE', #113, 0.1031099999999991607 ) ;
#106 = LENGTH_MEASURE_WITH_UNIT ( LENGTH_MEASURE( 0.02539999999999999897 ), #294 );
#107 = DIRECTION ( 'NONE',  ( -1.000000000000000000, 0.0000000000000000000, 1.224646799147353454E-16 ) ) ;
#108 = DIRECTION ( 'NONE',  ( -1.224646799147353207E-16, -0.0000000000000000000, -1.000000000000000000 ) ) ;
#109 = CARTESIAN_POINT ( 'NONE',  ( 0.1179918900000001131, 0.0000000000000000000, 0.9842519999999999047 ) ) ;
#110 = CYLINDRICAL_SURFACE ( 'NONE', #279, 0.1179918899999999882 ) ;
#111 = EDGE_CURVE ( 'NONE', #37, #141, #66, .T. ) ;
#112 = DIRECTION ( 'NONE',  ( 0.0000000000000000000, 0.0000000000000000000, 1.000000000000000000 ) ) ;
#113 = AXIS2_PLACEMENT_3D ( 'NONE', #157, #231, #180 ) ;
#114 = DIRECTION ( 'NONE',  ( 1.000000000000000000, 0.0000000000000000000, 0.0000000000000000000 ) ) ;
#115 = DIRECTION ( 'NONE',  ( -1.224646799147353207E-16, -0.0000000000000000000, -1.000000000000000000 ) ) ;
#116 = ADVANCED_FACE ( 'NONE', ( #226 ), #21, .T. ) ;
#117 = ORIENTED_EDGE ( 'NONE', *, *, #83, .T. ) ;
#118 = CARTESIAN_POINT ( 'NONE',  ( 0.0000000000000000000, 0.0000000000000000000, 2.937755999999999368 ) ) ;
#119 = ORIENTED_EDGE ( 'NONE', *, *, #175, .T. ) ;
#120 = CONICAL_SURFACE ( 'NONE', #235, 0.1179918899999999882, 0.1745329251994339192 ) ;
#121 = CARTESIAN_POINT ( 'NONE',  ( 1.206181372760304730E-16, 0.0000000000000000000, 0.9849218350957150703 ) ) ;
#122 = ORIENTED_EDGE ( 'NONE', *, *, #79, .T. ) ;
#123 = PRODUCT_CONTEXT ( 'NONE', #269, 'mechanical' ) ;
#124 = LENGTH_MEASURE_WITH_UNIT ( LENGTH_MEASURE( 0.02539999999999999897 ), #219 );
#125 = MANIFOLD_SOLID_BREP ( 'Cut-Revolve1', #253 ) ;
#126 = AXIS2_PLACEMENT_3D ( 'NONE', #2, #96, #114 ) ;
#127 = EDGE_CURVE ( 'NONE', #141, #37, #72, .T. ) ;
#128 = SURFACE_STYLE_USAGE ( .BOTH. , #195 ) ;
#129 = ORIENTED_EDGE ( 'NONE', *, *, #203, .T. ) ;
#130 = DIRECTION ( 'NONE',  ( -1.000000000000000000, 0.0000000000000000000, 0.0000000000000000000 ) ) ;
#131 = AXIS2_PLACEMENT_3D ( 'NONE', #118, #233, #204 ) ;
#132 = CARTESIAN_POINT ( 'NONE',  ( 0.1031099999999991607, 1.262733314600825571E-17, 2.952755999999999936 ) ) ;
#133 = DIRECTION ( 'NONE',  ( 0.1736481776669314137, 0.0000000000000000000, 0.9848077530122077983 ) ) ;
#134 = LINE ( 'NONE', #132, #48 ) ;
#135 = AXIS2_PLACEMENT_3D ( 'NONE', #90, #192, #280 ) ;
#136 = CARTESIAN_POINT ( 'NONE',  ( 1.769594913022618037E-33, 0.0000000000000000000, 1.444983904138465938E-17 ) ) ;
#137 = FACE_OUTER_BOUND ( 'NONE', #193, .T. ) ;
#138 = DIRECTION ( 'NONE',  ( 1.224646799147353207E-16, 0.0000000000000000000, 1.000000000000000000 ) ) ;
#139 = DIRECTION ( 'NONE',  ( -1.224646799147353207E-16, -0.0000000000000000000, -1.000000000000000000 ) ) ;
#140 = DIRECTION ( 'NONE',  ( -0.0000000000000000000, -0.0000000000000000000, -1.000000000000000000 ) ) ;
#141 = VERTEX_POINT ( 'NONE', #31 ) ;
#142 = CARTESIAN_POINT ( 'NONE',  ( 0.1179918899999999882, 1.444983904138465938E-17, -1.444983904138465938E-17 ) ) ;
#143 = DIMENSIONAL_EXPONENTS ( 1.000000000000000000, 0.0000000000000000000, 0.0000000000000000000, 0.0000000000000000000, 0.0000000000000000000, 0.0000000000000000000, 0.0000000000000000000 ) ;
#144 = AXIS2_PLACEMENT_3D ( 'NONE', #136, #199, #249 ) ;
#145 = CYLINDRICAL_SURFACE ( 'NONE', #11, 0.1181100000000000066 ) ;
#146 = PRODUCT_RELATED_PRODUCT_CATEGORY ( 'part', '', ( #170 ) ) ;
#147 =( CONVERSION_BASED_UNIT ( 'INCH', #148 ) LENGTH_UNIT ( ) NAMED_UNIT ( #77 ) );
#148 = LENGTH_MEASURE_WITH_UNIT ( LENGTH_MEASURE( 0.02539999999999999897 ), #290 );
#149 = AXIS2_PLACEMENT_3D ( 'NONE', #50, #3, #239 ) ;
#150 = COLOUR_RGB ( '',0.7921568627450980005, 0.8196078431372548767, 0.9333333333333333481 ) ;
#151 = DIRECTION ( 'NONE',  ( 0.0000000000000000000, 0.0000000000000000000, 1.000000000000000000 ) ) ;
#152 = ORIENTED_EDGE ( 'NONE', *, *, #127, .F. ) ;
#153 = EDGE_LOOP ( 'NONE', ( #185, #292, #210, #51 ) ) ;
#154 = DIRECTION ( 'NONE',  ( -1.000000000000000000, 0.0000000000000000000, 0.0000000000000000000 ) ) ;
#155 =( GEOMETRIC_REPRESENTATION_CONTEXT ( 3 ) GLOBAL_UNCERTAINTY_ASSIGNED_CONTEXT ( ( #10 ) ) GLOBAL_UNIT_ASSIGNED_CONTEXT ( ( #198, #178, #276 ) ) REPRESENTATION_CONTEXT ( 'NONE', 'WORKASPACE' ) );
#156 = CIRCLE ( 'NONE', #245, 0.1179918899999999882 ) ;
#157 = CARTESIAN_POINT ( 'NONE',  ( 0.0000000000000000000, 0.0000000000000000000, 2.952755999999999936 ) ) ;
#158 = CARTESIAN_POINT ( 'NONE',  ( 0.0000000000000000000, 0.0000000000000000000, 2.952755999999999936 ) ) ;
#159 = DIRECTION ( 'NONE',  ( 1.000000000000000000, 0.0000000000000000000, -0.0000000000000000000 ) ) ;
#160 = CARTESIAN_POINT ( 'NONE',  ( -0.1031099999999991607, 0.0000000000000000000, 2.952755999999999936 ) ) ;
#161 = ADVANCED_FACE ( 'NONE', ( #281 ), #296, .T. ) ;
#162 = FACE_OUTER_BOUND ( 'NONE', #84, .T. ) ;
#163 = DIRECTION ( 'NONE',  ( 0.0000000000000000000, 0.0000000000000000000, -1.000000000000000000 ) ) ;
#164 = ORIENTED_EDGE ( 'NONE', *, *, #29, .T. ) ;
#165 = FACE_OUTER_BOUND ( 'NONE', #53, .T. ) ;
#166 = ORIENTED_EDGE ( 'NONE', *, *, #270, .F. ) ;
#167 = EDGE_CURVE ( 'NONE', #85, #32, #46, .T. ) ;
#168 = CARTESIAN_POINT ( 'NONE',  ( -0.1181099999999998956, 0.0000000000000000000, 0.9849218350957150703 ) ) ;
#169 =( GEOMETRIC_REPRESENTATION_CONTEXT ( 3 ) GLOBAL_UNCERTAINTY_ASSIGNED_CONTEXT ( ( #188 ) ) GLOBAL_UNIT_ASSIGNED_CONTEXT ( ( #147, #56, #104 ) ) REPRESENTATION_CONTEXT ( 'NONE', 'WORKASPACE' ) );
#170 = PRODUCT ( 'Micro_GELM-060-4', 'Micro_GELM-060-4', '', ( #123 ) ) ;
#171 = APPLICATION_PROTOCOL_DEFINITION ( 'draft international standard', 'automotive_design', 1998, #243 ) ;
#172 = AXIS2_PLACEMENT_3D ( 'NONE', #158, #254, #225 ) ;
#173 = ORIENTED_EDGE ( 'NONE', *, *, #203, .F. ) ;
#174 = ORIENTED_EDGE ( 'NONE', *, *, #83, .F. ) ;
#175 = EDGE_CURVE ( 'NONE', #216, #85, #18, .T. ) ;
#176 = CARTESIAN_POINT ( 'NONE',  ( 0.1031099999999991607, 1.354581824536882251E-17, 2.952755999999999936 ) ) ;
#177 = STYLED_ITEM ( 'NONE', ( #242 ), #248 ) ;
#178 =( NAMED_UNIT ( * ) PLANE_ANGLE_UNIT ( ) SI_UNIT ( $, .RADIAN. ) );
#179 = CARTESIAN_POINT ( 'NONE',  ( 1.769594913022618037E-33, 0.0000000000000000000, 1.444983904138465938E-17 ) ) ;
#180 = DIRECTION ( 'NONE',  ( 1.000000000000000000, 0.0000000000000000000, 0.0000000000000000000 ) ) ;
#181 = MECHANICAL_DESIGN_GEOMETRIC_PRESENTATION_REPRESENTATION (  '', ( #87 ), #155 ) ;
#182 = CARTESIAN_POINT ( 'NONE',  ( -0.1181100000000000066, 0.0000000000000000000, 2.952755999999999936 ) ) ;
#183 = DIRECTION ( 'NONE',  ( -0.7071067811865486830, 0.0000000000000000000, -0.7071067811865462405 ) ) ;
#184 = FACE_OUTER_BOUND ( 'NONE', #247, .T. ) ;
#185 = ORIENTED_EDGE ( 'NONE', *, *, #289, .T. ) ;
#186 = VECTOR ( 'NONE', #140, 39.37007874015748143 ) ;
#187 = EDGE_CURVE ( 'NONE', #4, #32, #25, .T. ) ;
#188 = UNCERTAINTY_MEASURE_WITH_UNIT (LENGTH_MEASURE( 1.000000000000000082E-05 ), #147, 'distance_accuracy_value', 'NONE');
#189 = LINE ( 'NONE', #8, #95 ) ;
#190 = ORIENTED_EDGE ( 'NONE', *, *, #111, .T. ) ;
#191 = ADVANCED_FACE ( 'NONE', ( #137 ), #237, .T. ) ;
#192 = DIRECTION ( 'NONE',  ( 0.0000000000000000000, 0.0000000000000000000, 1.000000000000000000 ) ) ;
#193 = EDGE_LOOP ( 'NONE', ( #212, #293, #34, #152 ) ) ;
#194 = AXIS2_PLACEMENT_3D ( 'NONE', #121, #52, #70 ) ;
#195 = SURFACE_SIDE_STYLE ('',( #82 ) ) ;
#196 = ORIENTED_EDGE ( 'NONE', *, *, #23, .T. ) ;
#197 = VECTOR ( 'NONE', #133, 39.37007874015748143 ) ;
#198 =( CONVERSION_BASED_UNIT ( 'INCH', #106 ) LENGTH_UNIT ( ) NAMED_UNIT ( #143 ) );
#199 = DIRECTION ( 'NONE',  ( -1.224646799147353207E-16, -0.0000000000000000000, -1.000000000000000000 ) ) ;
#200 = VECTOR ( 'NONE', #41, 39.37007874015747433 ) ;
#201 = SURFACE_STYLE_FILL_AREA ( #277 ) ;
#202 = CARTESIAN_POINT ( 'NONE',  ( -0.1179918899999998771, 1.444983904138465938E-17, 0.9842519999999999047 ) ) ;
#203 = EDGE_CURVE ( 'NONE', #216, #4, #76, .T. ) ;
#204 = DIRECTION ( 'NONE',  ( 1.000000000000000000, 0.0000000000000000000, 0.0000000000000000000 ) ) ;
#205 = CIRCLE ( 'NONE', #36, 0.1181100000000000066 ) ;
#206 = PRODUCT_DEFINITION_FORMATION_WITH_SPECIFIED_SOURCE ( 'ANY', '', #170, .NOT_KNOWN. ) ;
#207 = DIRECTION ( 'NONE',  ( 1.000000000000000000, 0.0000000000000000000, -0.0000000000000000000 ) ) ;
#208 = UNCERTAINTY_MEASURE_WITH_UNIT (LENGTH_MEASURE( 1.000000000000000082E-05 ), #58, 'distance_accuracy_value', 'NONE');
#209 = DIRECTION ( 'NONE',  ( -1.000000000000000000, 0.0000000000000000000, 0.0000000000000000000 ) ) ;
#210 = ORIENTED_EDGE ( 'NONE', *, *, #111, .F. ) ;
#211 = FACE_OUTER_BOUND ( 'NONE', #75, .T. ) ;
#212 = ORIENTED_EDGE ( 'NONE', *, *, #232, .F. ) ;
#213 = PRESENTATION_LAYER_ASSIGNMENT (  '', '', ( #177 ) ) ;
#214 = CARTESIAN_POINT ( 'NONE',  ( -0.1181100000000000066, 0.0000000000000000000, 2.937755999999999368 ) ) ;
#215 = EDGE_LOOP ( 'NONE', ( #13, #164, #59, #174 ) ) ;
#216 = VERTEX_POINT ( 'NONE', #214 ) ;
#217 = APPLICATION_PROTOCOL_DEFINITION ( 'draft international standard', 'automotive_design', 1998, #269 ) ;
#218 = COLOUR_RGB ( '',0.7921568627450980005, 0.8196078431372548767, 0.9333333333333333481 ) ;
#219 =( LENGTH_UNIT ( ) NAMED_UNIT ( * ) SI_UNIT ( $, .METRE. ) );
#220 = EDGE_CURVE ( 'NONE', #222, #216, #189, .T. ) ;
#221 = SHAPE_DEFINITION_REPRESENTATION ( #266, #248 ) ;
#222 = VERTEX_POINT ( 'NONE', #160 ) ;
#223 = VECTOR ( 'NONE', #284, 39.37007874015748143 ) ;
#224 = PRESENTATION_STYLE_ASSIGNMENT (( #297 ) ) ;
#225 = DIRECTION ( 'NONE',  ( -1.000000000000000000, 0.0000000000000000000, 0.0000000000000000000 ) ) ;
#226 = FACE_OUTER_BOUND ( 'NONE', #97, .T. ) ;
#227 = EDGE_CURVE ( 'NONE', #55, #222, #268, .T. ) ;
#228 = FACE_OUTER_BOUND ( 'NONE', #283, .T. ) ;
#229 = CONICAL_SURFACE ( 'NONE', #172, 0.1031099999999991607, 0.7853981633974500554 ) ;
#230 = MECHANICAL_DESIGN_GEOMETRIC_PRESENTATION_REPRESENTATION (  '', ( #177 ), #40 ) ;
#231 = DIRECTION ( 'NONE',  ( 0.0000000000000000000, 0.0000000000000000000, 1.000000000000000000 ) ) ;
#232 = EDGE_CURVE ( 'NONE', #78, #141, #73, .T. ) ;
#233 = DIRECTION ( 'NONE',  ( 0.0000000000000000000, 0.0000000000000000000, -1.000000000000000000 ) ) ;
#234 = CARTESIAN_POINT ( 'NONE',  ( 0.0000000000000000000, 0.0000000000000000000, 0.0000000000000000000 ) ) ;
#235 = AXIS2_PLACEMENT_3D ( 'NONE', #256, #138, #69 ) ;
#236 = CARTESIAN_POINT ( 'NONE',  ( 1.205361061354380629E-16, 0.0000000000000000000, 0.9842519999999999047 ) ) ;
#237 = CYLINDRICAL_SURFACE ( 'NONE', #64, 0.1179918899999999882 ) ;
#238 = EDGE_LOOP ( 'NONE', ( #27, #261, #129, #272 ) ) ;
#239 = DIRECTION ( 'NONE',  ( 1.000000000000000000, 0.0000000000000000000, 0.0000000000000000000 ) ) ;
#240 = ORIENTED_EDGE ( 'NONE', *, *, #127, .T. ) ;
#241 = CARTESIAN_POINT ( 'NONE',  ( 0.0000000000000000000, 0.0000000000000000000, 2.952755999999999936 ) ) ;
#242 = PRESENTATION_STYLE_ASSIGNMENT (( #128 ) ) ;
#243 = APPLICATION_CONTEXT ( 'automotive_design' ) ;
#244 = PRESENTATION_LAYER_ASSIGNMENT (  '', '', ( #87 ) ) ;
#245 = AXIS2_PLACEMENT_3D ( 'NONE', #236, #115, #209 ) ;
#246 = ADVANCED_FACE ( 'NONE', ( #165 ), #286, .T. ) ;
#247 = EDGE_LOOP ( 'NONE', ( #99, #12, #7, #166 ) ) ;
#248 = ADVANCED_BREP_SHAPE_REPRESENTATION ( 'Micro_GELM-060-4', ( #125, #67 ), #169 ) ;
#249 = DIRECTION ( 'NONE',  ( -1.000000000000000000, 0.0000000000000000000, 1.224646799147353454E-16 ) ) ;
#250 = SURFACE_SIDE_STYLE ('',( #201 ) ) ;
#251 = ADVANCED_FACE ( 'NONE', ( #162 ), #120, .T. ) ;
#252 = LINE ( 'NONE', #202, #200 ) ;
#253 = CLOSED_SHELL ( 'NONE', ( #71, #161, #60, #116, #17, #246, #298, #251, #191, #274 ) ) ;
#254 = DIRECTION ( 'NONE',  ( 0.0000000000000000000, 0.0000000000000000000, -1.000000000000000000 ) ) ;
#255 = VECTOR ( 'NONE', #91, 39.37007874015748143 ) ;
#256 = CARTESIAN_POINT ( 'NONE',  ( 1.205361061354380629E-16, 0.0000000000000000000, 0.9842519999999999047 ) ) ;
#257 = DIRECTION ( 'NONE',  ( -1.224646799147353207E-16, -0.0000000000000000000, -1.000000000000000000 ) ) ;
#258 = LINE ( 'NONE', #47, #255 ) ;
#259 = AXIS2_PLACEMENT_3D ( 'NONE', #179, #65, #24 ) ;
#260 = DIRECTION ( 'NONE',  ( -1.000000000000000000, 0.0000000000000000000, 0.0000000000000000000 ) ) ;
#261 = ORIENTED_EDGE ( 'NONE', *, *, #270, .T. ) ;
#262 = DIRECTION ( 'NONE',  ( -1.000000000000000000, 0.0000000000000000000, 1.224646799147353454E-16 ) ) ;
#263 = ORIENTED_EDGE ( 'NONE', *, *, #38, .T. ) ;
#264 = FACE_OUTER_BOUND ( 'NONE', #238, .T. ) ;
#265 = CONICAL_SURFACE ( 'NONE', #19, 0.1031099999999991607, 0.7853981633974500554 ) ;
#266 = PRODUCT_DEFINITION_SHAPE ( 'NONE', 'NONE',  #62 ) ;
#267 = EDGE_CURVE ( 'NONE', #61, #37, #258, .T. ) ;
#268 = CIRCLE ( 'NONE', #135, 0.1031099999999991607 ) ;
#269 = APPLICATION_CONTEXT ( 'automotive_design' ) ;
#270 = EDGE_CURVE ( 'NONE', #85, #216, #74, .T. ) ;
#271 = ORIENTED_EDGE ( 'NONE', *, *, #220, .F. ) ;
#272 = ORIENTED_EDGE ( 'NONE', *, *, #79, .F. ) ;
#273 = CARTESIAN_POINT ( 'NONE',  ( 0.0000000000000000000, 0.0000000000000000000, 0.0000000000000000000 ) ) ;
#274 = ADVANCED_FACE ( 'NONE', ( #211 ), #22, .F. ) ;
#275 = FILL_AREA_STYLE_COLOUR ( '', #218 ) ;
#276 =( NAMED_UNIT ( * ) SI_UNIT ( $, .STERADIAN. ) SOLID_ANGLE_UNIT ( ) );
#277 = FILL_AREA_STYLE ('',( #275 ) ) ;
#278 = DIRECTION ( 'NONE',  ( 1.000000000000000000, 0.0000000000000000000, 0.0000000000000000000 ) ) ;
#279 = AXIS2_PLACEMENT_3D ( 'NONE', #273, #88, #107 ) ;
#280 = DIRECTION ( 'NONE',  ( 1.000000000000000000, 0.0000000000000000000, 0.0000000000000000000 ) ) ;
#281 = FACE_OUTER_BOUND ( 'NONE', #215, .T. ) ;
#282 = CARTESIAN_POINT ( 'NONE',  ( 0.0000000000000000000, 0.0000000000000000000, 2.952755999999999936 ) ) ;
#283 = EDGE_LOOP ( 'NONE', ( #80, #263, #103, #271 ) ) ;
#284 = DIRECTION ( 'NONE',  ( -0.0000000000000000000, -0.0000000000000000000, -1.000000000000000000 ) ) ;
#285 = ORIENTED_EDGE ( 'NONE', *, *, #287, .F. ) ;
#286 = PLANE ( 'NONE',  #43 ) ;
#287 = EDGE_CURVE ( 'NONE', #78, #61, #101, .T. ) ;
#288 = ORIENTED_EDGE ( 'NONE', *, *, #187, .F. ) ;
#289 = EDGE_CURVE ( 'NONE', #61, #78, #156, .T. ) ;
#290 =( LENGTH_UNIT ( ) NAMED_UNIT ( * ) SI_UNIT ( $, .METRE. ) );
#291 =( NAMED_UNIT ( * ) PLANE_ANGLE_UNIT ( ) SI_UNIT ( $, .RADIAN. ) );
#292 = ORIENTED_EDGE ( 'NONE', *, *, #232, .T. ) ;
#293 = ORIENTED_EDGE ( 'NONE', *, *, #287, .T. ) ;
#294 =( LENGTH_UNIT ( ) NAMED_UNIT ( * ) SI_UNIT ( $, .METRE. ) );
#295 = DIRECTION ( 'NONE',  ( -0.0000000000000000000, -0.0000000000000000000, -1.000000000000000000 ) ) ;
#296 = CONICAL_SURFACE ( 'NONE', #149, 0.1179918899999999882, 0.1745329251994339192 ) ;
#297 = SURFACE_STYLE_USAGE ( .BOTH. , #250 ) ;
#298 = ADVANCED_FACE ( 'NONE', ( #184 ), #265, .T. ) ;
#299 = CARTESIAN_POINT ( 'NONE',  ( 0.1181100000000000066, 1.446430334472939084E-17, 2.937755999999999368 ) ) ;
ENDSEC;
END-ISO-10303-21;
