ISO-10303-21;
HEADER;
FILE_DESCRIPTION (( 'STEP AP214' ),
    '1' );
FILE_NAME ('Micro_BEM-046-04X.STEP',
    '2021-09-03T12:58:05',
    ( '' ),
    ( '' ),
    'SwSTEP 2.0',
    'SolidWorks 2020',
    '' );
FILE_SCHEMA (( 'AUTOMOTIVE_DESIGN' ));
ENDSEC;

DATA;
#1 = CARTESIAN_POINT ( 'NONE',  ( 2.862807836494802985E-18, 0.0000000000000000000, 0.02337660000000000432 ) ) ;
#2 = EDGE_LOOP ( 'NONE', ( #57, #251, #137, #84 ) ) ;
#3 = MANIFOLD_SOLID_BREP ( 'Fillet1', #58 ) ;
#4 =( NAMED_UNIT ( * ) SI_UNIT ( $, .STERADIAN. ) SOLID_ANGLE_UNIT ( ) );
#5 = AXIS2_PLACEMENT_3D ( 'NONE', #201, #177, #128 ) ;
#6 = CIRCLE ( 'NONE', #134, 0.02337660000000000432 ) ;
#7 = DIRECTION ( 'NONE',  ( 1.000000000000000000, 0.0000000000000000000, 0.0000000000000000000 ) ) ;
#8 = EDGE_CURVE ( 'NONE', #181, #212, #98, .T. ) ;
#9 = PRODUCT_DEFINITION ( 'UNKNOWN', '', #79, #141 ) ;
#10 = UNCERTAINTY_MEASURE_WITH_UNIT (LENGTH_MEASURE( 1.000000000000000082E-05 ), #13, 'distance_accuracy_value', 'NONE');
#11 = CARTESIAN_POINT ( 'NONE',  ( 0.0000000000000000000, 0.0000000000000000000, 1.500000000000000222 ) ) ;
#12 = SURFACE_SIDE_STYLE ('',( #151 ) ) ;
#13 =( CONVERSION_BASED_UNIT ( 'INCH', #259 ) LENGTH_UNIT ( ) NAMED_UNIT ( #28 ) );
#14 = DIRECTION ( 'NONE',  ( 1.000000000000000000, 0.0000000000000000000, 0.0000000000000000000 ) ) ;
#15 = EDGE_LOOP ( 'NONE', ( #286, #172, #38, #64 ) ) ;
#16 = AXIS2_PLACEMENT_3D ( 'NONE', #323, #303, #273 ) ;
#17 = ORIENTED_EDGE ( 'NONE', *, *, #85, .T. ) ;
#18 = CARTESIAN_POINT ( 'NONE',  ( 0.0000000000000000000, 0.0000000000000000000, 1.485000000000000764 ) ) ;
#19 = EDGE_CURVE ( 'NONE', #217, #261, #144, .T. ) ;
#20 = DIRECTION ( 'NONE',  ( 0.0000000000000000000, 0.0000000000000000000, -1.000000000000000000 ) ) ;
#21 = ADVANCED_FACE ( 'NONE', ( #304 ), #171, .T. ) ;
#22 = CIRCLE ( 'NONE', #305, 0.04750000000000064587 ) ;
#23 = CARTESIAN_POINT ( 'NONE',  ( 2.862807836494802985E-18, 0.0000000000000000000, 0.02337660000000000432 ) ) ;
#24 = ORIENTED_EDGE ( 'NONE', *, *, #300, .F. ) ;
#25 = DIRECTION ( 'NONE',  ( -0.1736481776669311083, 2.126576849575782084E-17, 0.9848077530122080203 ) ) ;
#26 = ORIENTED_EDGE ( 'NONE', *, *, #311, .T. ) ;
#27 = CARTESIAN_POINT ( 'NONE',  ( 1.334865011070615584E-17, 0.0000000000000000000, 0.1089999999999999997 ) ) ;
#28 = DIMENSIONAL_EXPONENTS ( 1.000000000000000000, 0.0000000000000000000, 0.0000000000000000000, 0.0000000000000000000, 0.0000000000000000000, 0.0000000000000000000, 0.0000000000000000000 ) ;
#29 = EDGE_CURVE ( 'NONE', #248, #68, #194, .T. ) ;
#30 = PLANE ( 'NONE',  #185 ) ;
#31 = DIRECTION ( 'NONE',  ( 1.000000000000000000, 0.0000000000000000000, 0.0000000000000000000 ) ) ;
#32 = CARTESIAN_POINT ( 'NONE',  ( 2.862807836494802985E-18, 0.0000000000000000000, 0.02337660000000000432 ) ) ;
#33 = SURFACE_SIDE_STYLE ('',( #82 ) ) ;
#34 = DIRECTION ( 'NONE',  ( -0.0000000000000000000, -0.0000000000000000000, -1.000000000000000000 ) ) ;
#35 = AXIS2_PLACEMENT_3D ( 'NONE', #135, #149, #147 ) ;
#36 = VERTEX_POINT ( 'NONE', #254 ) ;
#37 = ORIENTED_EDGE ( 'NONE', *, *, #122, .F. ) ;
#38 = ORIENTED_EDGE ( 'NONE', *, *, #202, .T. ) ;
#39 = LINE ( 'NONE', #287, #115 ) ;
#40 = LINE ( 'NONE', #140, #148 ) ;
#41 = EDGE_CURVE ( 'NONE', #212, #288, #280, .T. ) ;
#42 = DIRECTION ( 'NONE',  ( 1.000000000000000000, 0.0000000000000000000, 0.0000000000000000000 ) ) ;
#43 = AXIS2_PLACEMENT_3D ( 'NONE', #52, #100, #7 ) ;
#44 = CIRCLE ( 'NONE', #319, 0.02337660000000000432 ) ;
#45 = ORIENTED_EDGE ( 'NONE', *, *, #8, .T. ) ;
#46 = DIRECTION ( 'NONE',  ( -1.000000000000000000, 0.0000000000000000000, 0.0000000000000000000 ) ) ;
#47 =( LENGTH_UNIT ( ) NAMED_UNIT ( * ) SI_UNIT ( $, .METRE. ) );
#48 = CARTESIAN_POINT ( 'NONE',  ( -0.02337659999999998697, 5.258425165582881421E-18, 0.1089999999999999997 ) ) ;
#49 = CARTESIAN_POINT ( 'NONE',  ( -0.06250000000000002776, 0.0000000000000000000, 1.485000000000000764 ) ) ;
#50 = VECTOR ( 'NONE', #195, 39.37007874015748143 ) ;
#51 = DIRECTION ( 'NONE',  ( 0.0000000000000000000, 0.0000000000000000000, 1.000000000000000000 ) ) ;
#52 = CARTESIAN_POINT ( 'NONE',  ( 4.052109212114275620E-17, 0.0000000000000000000, 0.3308798271416305559 ) ) ;
#53 = SHAPE_DEFINITION_REPRESENTATION ( #257, #240 ) ;
#54 = VECTOR ( 'NONE', #152, 39.37007874015748854 ) ;
#55 = DIRECTION ( 'NONE',  ( 1.000000000000000000, 0.0000000000000000000, 0.0000000000000000000 ) ) ;
#56 = DIRECTION ( 'NONE',  ( 1.000000000000000000, 0.0000000000000000000, 0.0000000000000000000 ) ) ;
#57 = ORIENTED_EDGE ( 'NONE', *, *, #262, .F. ) ;
#58 = CLOSED_SHELL ( 'NONE', ( #104, #277, #298, #238, #117, #199, #62, #214, #21, #236, #289 ) ) ;
#59 = CARTESIAN_POINT ( 'NONE',  ( 0.0000000000000000000, 0.0000000000000000000, 1.500000000000000222 ) ) ;
#60 = CIRCLE ( 'NONE', #244, 0.06250000000000002776 ) ;
#61 = FILL_AREA_STYLE ('',( #107 ) ) ;
#62 = ADVANCED_FACE ( 'NONE', ( #255 ), #30, .T. ) ;
#63 = EDGE_LOOP ( 'NONE', ( #24, #120, #123, #97 ) ) ;
#64 = ORIENTED_EDGE ( 'NONE', *, *, #145, .F. ) ;
#65 = AXIS2_PLACEMENT_3D ( 'NONE', #92, #192, #55 ) ;
#66 = CARTESIAN_POINT ( 'NONE',  ( 0.0000000000000000000, 0.0000000000000000000, 1.500000000000000222 ) ) ;
#67 = CARTESIAN_POINT ( 'NONE',  ( 0.0000000000000000000, 0.0000000000000000000, 1.485000000000000764 ) ) ;
#68 = VERTEX_POINT ( 'NONE', #234 ) ;
#69 = EDGE_LOOP ( 'NONE', ( #320, #133, #231 ) ) ;
#70 = LINE ( 'NONE', #119, #89 ) ;
#71 = CARTESIAN_POINT ( 'NONE',  ( 0.0000000000000000000, 0.0000000000000000000, 1.500000000000000222 ) ) ;
#72 = AXIS2_PLACEMENT_3D ( 'NONE', #1, #276, #252 ) ;
#73 = FACE_OUTER_BOUND ( 'NONE', #294, .T. ) ;
#74 = DIRECTION ( 'NONE',  ( 0.0000000000000000000, 0.0000000000000000000, 1.000000000000000000 ) ) ;
#75 = VECTOR ( 'NONE', #258, 39.37007874015748143 ) ;
#76 = EDGE_CURVE ( 'NONE', #288, #68, #156, .T. ) ;
#77 = DIRECTION ( 'NONE',  ( 1.224646799147353700E-16, 0.0000000000000000000, 1.000000000000000000 ) ) ;
#78 = DIRECTION ( 'NONE',  ( 0.0000000000000000000, 0.0000000000000000000, 1.000000000000000000 ) ) ;
#79 = PRODUCT_DEFINITION_FORMATION_WITH_SPECIFIED_SOURCE ( 'ANY', '', #265, .NOT_KNOWN. ) ;
#80 = FILL_AREA_STYLE_COLOUR ( '', #112 ) ;
#81 = CARTESIAN_POINT ( 'NONE',  ( 2.862807836494802985E-18, 0.0000000000000000000, 0.02337660000000000432 ) ) ;
#82 = SURFACE_STYLE_FILL_AREA ( #61 ) ;
#83 = DIRECTION ( 'NONE',  ( 1.224646799147353700E-16, 0.0000000000000000000, 1.000000000000000000 ) ) ;
#84 = ORIENTED_EDGE ( 'NONE', *, *, #29, .T. ) ;
#85 = EDGE_CURVE ( 'NONE', #181, #193, #40, .T. ) ;
#86 = ORIENTED_EDGE ( 'NONE', *, *, #85, .F. ) ;
#87 = ORIENTED_EDGE ( 'NONE', *, *, #168, .F. ) ;
#88 = DIRECTION ( 'NONE',  ( 1.000000000000000000, 0.0000000000000000000, 0.0000000000000000000 ) ) ;
#89 = VECTOR ( 'NONE', #25, 39.37007874015747433 ) ;
#90 = DIRECTION ( 'NONE',  ( 0.0000000000000000000, 0.0000000000000000000, -1.000000000000000000 ) ) ;
#91 = ORIENTED_EDGE ( 'NONE', *, *, #76, .F. ) ;
#92 = CARTESIAN_POINT ( 'NONE',  ( 4.052109212114275620E-17, 0.0000000000000000000, 0.3308798271416305559 ) ) ;
#93 =( CONVERSION_BASED_UNIT ( 'INCH', #222 ) LENGTH_UNIT ( ) NAMED_UNIT ( #307 ) );
#94 = ORIENTED_EDGE ( 'NONE', *, *, #136, .T. ) ;
#95 = CARTESIAN_POINT ( 'NONE',  ( 0.06250000000000006939, 7.654042494670963708E-18, 0.3308798271416305559 ) ) ;
#96 = EDGE_CURVE ( 'NONE', #193, #248, #39, .T. ) ;
#97 = ORIENTED_EDGE ( 'NONE', *, *, #253, .F. ) ;
#98 = CIRCLE ( 'NONE', #291, 0.04750000000000064587 ) ;
#99 = CIRCLE ( 'NONE', #129, 0.02337660000000000432 ) ;
#100 = DIRECTION ( 'NONE',  ( -1.224646799147353700E-16, -0.0000000000000000000, -1.000000000000000000 ) ) ;
#101 = AXIS2_PLACEMENT_3D ( 'NONE', #11, #318, #106 ) ;
#102 = CYLINDRICAL_SURFACE ( 'NONE', #296, 0.06250000000000002776 ) ;
#103 =( NAMED_UNIT ( * ) PLANE_ANGLE_UNIT ( ) SI_UNIT ( $, .RADIAN. ) );
#104 = ADVANCED_FACE ( 'NONE', ( #207 ), #167, .T. ) ;
#105 = EDGE_LOOP ( 'NONE', ( #164, #169, #314, #162 ) ) ;
#106 = DIRECTION ( 'NONE',  ( -1.000000000000000000, 0.0000000000000000000, 0.0000000000000000000 ) ) ;
#107 = FILL_AREA_STYLE_COLOUR ( '', #230 ) ;
#108 = EDGE_CURVE ( 'NONE', #261, #36, #6, .T. ) ;
#109 = ORIENTED_EDGE ( 'NONE', *, *, #178, .F. ) ;
#110 = MECHANICAL_DESIGN_GEOMETRIC_PRESENTATION_REPRESENTATION (  '', ( #278 ), #243 ) ;
#111 = ORIENTED_EDGE ( 'NONE', *, *, #136, .F. ) ;
#112 = COLOUR_RGB ( '',0.7921568627450980005, 0.8196078431372548767, 0.9333333333333333481 ) ;
#113 = DIRECTION ( 'NONE',  ( 0.0000000000000000000, -1.000000000000000000, 0.0000000000000000000 ) ) ;
#114 = DIRECTION ( 'NONE',  ( -1.000000000000000000, 0.0000000000000000000, 0.0000000000000000000 ) ) ;
#115 = VECTOR ( 'NONE', #183, 39.37007874015748143 ) ;
#116 = DIRECTION ( 'NONE',  ( -1.000000000000000000, 0.0000000000000000000, 1.825976613408455680E-16 ) ) ;
#117 = ADVANCED_FACE ( 'NONE', ( #299 ), #290, .T. ) ;
#118 = DIRECTION ( 'NONE',  ( -1.224646799147353700E-16, -0.0000000000000000000, -1.000000000000000000 ) ) ;
#119 = CARTESIAN_POINT ( 'NONE',  ( -0.02337659999999998697, 2.862807836494801445E-18, 0.1089999999999999997 ) ) ;
#120 = ORIENTED_EDGE ( 'NONE', *, *, #262, .T. ) ;
#121 = DIRECTION ( 'NONE',  ( 0.0000000000000000000, 0.0000000000000000000, -1.000000000000000000 ) ) ;
#122 = EDGE_CURVE ( 'NONE', #212, #181, #22, .T. ) ;
#123 = ORIENTED_EDGE ( 'NONE', *, *, #224, .T. ) ;
#124 = DIRECTION ( 'NONE',  ( 1.000000000000000000, 0.0000000000000000000, 0.0000000000000000000 ) ) ;
#125 = PRESENTATION_LAYER_ASSIGNMENT (  '', '', ( #198 ) ) ;
#126 = APPLICATION_CONTEXT ( 'automotive_design' ) ;
#127 = CARTESIAN_POINT ( 'NONE',  ( 0.0000000000000000000, 0.0000000000000000000, 0.0000000000000000000 ) ) ;
#128 = DIRECTION ( 'NONE',  ( -1.000000000000000000, 1.224646799147352961E-16, 0.0000000000000000000 ) ) ;
#129 = AXIS2_PLACEMENT_3D ( 'NONE', #32, #113, #266 ) ;
#130 =( NAMED_UNIT ( * ) SI_UNIT ( $, .STERADIAN. ) SOLID_ANGLE_UNIT ( ) );
#131 = FACE_OUTER_BOUND ( 'NONE', #105, .T. ) ;
#132 = PRESENTATION_STYLE_ASSIGNMENT (( #284 ) ) ;
#133 = ORIENTED_EDGE ( 'NONE', *, *, #168, .T. ) ;
#134 = AXIS2_PLACEMENT_3D ( 'NONE', #81, #83, #233 ) ;
#135 = CARTESIAN_POINT ( 'NONE',  ( 0.0000000000000000000, 0.0000000000000000000, 0.0000000000000000000 ) ) ;
#136 = EDGE_CURVE ( 'NONE', #288, #193, #60, .T. ) ;
#137 = ORIENTED_EDGE ( 'NONE', *, *, #253, .T. ) ;
#138 = ORIENTED_EDGE ( 'NONE', *, *, #19, .T. ) ;
#139 = APPLICATION_CONTEXT ( 'automotive_design' ) ;
#140 = CARTESIAN_POINT ( 'NONE',  ( 0.04750000000000064587, 5.817072295950006528E-18, 1.500000000000000222 ) ) ;
#141 = PRODUCT_DEFINITION_CONTEXT ( 'detailed design', #139, 'design' ) ;
#142 = FACE_OUTER_BOUND ( 'NONE', #245, .T. ) ;
#143 = DIRECTION ( 'NONE',  ( 0.0000000000000000000, 1.000000000000000000, 0.0000000000000000000 ) ) ;
#144 = CIRCLE ( 'NONE', #5, 0.02337660000000000432 ) ;
#145 = EDGE_CURVE ( 'NONE', #275, #261, #182, .T. ) ;
#146 = DIRECTION ( 'NONE',  ( -1.000000000000000000, 0.0000000000000000000, 1.224646799147353454E-16 ) ) ;
#147 = DIRECTION ( 'NONE',  ( -1.000000000000000000, 0.0000000000000000000, 1.224646799147353454E-16 ) ) ;
#148 = VECTOR ( 'NONE', #313, 39.37007874015748854 ) ;
#149 = DIRECTION ( 'NONE',  ( -1.224646799147353700E-16, -0.0000000000000000000, -1.000000000000000000 ) ) ;
#150 = CARTESIAN_POINT ( 'NONE',  ( -0.04750000000000064587, 0.0000000000000000000, 1.500000000000000222 ) ) ;
#151 = SURFACE_STYLE_FILL_AREA ( #180 ) ;
#152 = DIRECTION ( 'NONE',  ( -0.7071067811865462405, 0.0000000000000000000, -0.7071067811865486830 ) ) ;
#153 = LENGTH_MEASURE_WITH_UNIT ( LENGTH_MEASURE( 0.02539999999999999897 ), #229 );
#154 = AXIS2_PLACEMENT_3D ( 'NONE', #176, #77, #281 ) ;
#155 = AXIS2_PLACEMENT_3D ( 'NONE', #27, #174, #170 ) ;
#156 = LINE ( 'NONE', #215, #160 ) ;
#157 =( LENGTH_UNIT ( ) NAMED_UNIT ( * ) SI_UNIT ( $, .METRE. ) );
#158 = FACE_OUTER_BOUND ( 'NONE', #317, .T. ) ;
#159 = ORIENTED_EDGE ( 'NONE', *, *, #8, .F. ) ;
#160 = VECTOR ( 'NONE', #166, 39.37007874015748143 ) ;
#161 = CARTESIAN_POINT ( 'NONE',  ( -0.02337660000000000432, 0.0000000000000000000, 2.862807836494802985E-18 ) ) ;
#162 = ORIENTED_EDGE ( 'NONE', *, *, #29, .F. ) ;
#163 = CIRCLE ( 'NONE', #16, 0.02337659999999999738 ) ;
#164 = ORIENTED_EDGE ( 'NONE', *, *, #96, .F. ) ;
#165 = ORIENTED_EDGE ( 'NONE', *, *, #122, .T. ) ;
#166 = DIRECTION ( 'NONE',  ( -0.0000000000000000000, -0.0000000000000000000, -1.000000000000000000 ) ) ;
#167 = SPHERICAL_SURFACE ( 'NONE', #200, 0.02337660000000000432 ) ;
#168 = EDGE_CURVE ( 'NONE', #217, #36, #99, .T. ) ;
#169 = ORIENTED_EDGE ( 'NONE', *, *, #178, .T. ) ;
#170 = DIRECTION ( 'NONE',  ( -1.000000000000000000, 0.0000000000000000000, 0.0000000000000000000 ) ) ;
#171 = CONICAL_SURFACE ( 'NONE', #154, 0.02337659999999999738, 0.1745329251994338082 ) ;
#172 = ORIENTED_EDGE ( 'NONE', *, *, #190, .T. ) ;
#173 = SPHERICAL_SURFACE ( 'NONE', #72, 0.02337660000000000432 ) ;
#174 = DIRECTION ( 'NONE',  ( -1.224646799147353700E-16, -0.0000000000000000000, -1.000000000000000000 ) ) ;
#175 = FACE_OUTER_BOUND ( 'NONE', #15, .T. ) ;
#176 = CARTESIAN_POINT ( 'NONE',  ( 1.334865011070615584E-17, 0.0000000000000000000, 0.1089999999999999997 ) ) ;
#177 = DIRECTION ( 'NONE',  ( 1.224646799147353207E-16, 1.000000000000000000, -0.0000000000000000000 ) ) ;
#178 = EDGE_CURVE ( 'NONE', #193, #288, #226, .T. ) ;
#179 = APPLICATION_PROTOCOL_DEFINITION ( 'draft international standard', 'automotive_design', 1998, #126 ) ;
#180 = FILL_AREA_STYLE ('',( #80 ) ) ;
#181 = VERTEX_POINT ( 'NONE', #191 ) ;
#182 = LINE ( 'NONE', #161, #189 ) ;
#183 = DIRECTION ( 'NONE',  ( -0.0000000000000000000, -0.0000000000000000000, -1.000000000000000000 ) ) ;
#184 = ORIENTED_EDGE ( 'NONE', *, *, #202, .F. ) ;
#185 = AXIS2_PLACEMENT_3D ( 'NONE', #227, #74, #204 ) ;
#186 = SURFACE_STYLE_USAGE ( .BOTH. , #33 ) ;
#187 = ORIENTED_EDGE ( 'NONE', *, *, #145, .T. ) ;
#188 = DIRECTION ( 'NONE',  ( 0.0000000000000000000, 0.0000000000000000000, -1.000000000000000000 ) ) ;
#189 = VECTOR ( 'NONE', #209, 39.37007874015748143 ) ;
#190 = EDGE_CURVE ( 'NONE', #210, #36, #213, .T. ) ;
#191 = CARTESIAN_POINT ( 'NONE',  ( 0.04750000000000064587, 6.735557395310483192E-18, 1.500000000000000222 ) ) ;
#192 = DIRECTION ( 'NONE',  ( -1.224646799147353700E-16, -0.0000000000000000000, -1.000000000000000000 ) ) ;
#193 = VERTEX_POINT ( 'NONE', #228 ) ;
#194 = CIRCLE ( 'NONE', #43, 0.06250000000000002776 ) ;
#195 = DIRECTION ( 'NONE',  ( 0.1736481776669313026, 0.0000000000000000000, 0.9848077530122077983 ) ) ;
#196 = EDGE_LOOP ( 'NONE', ( #94, #237, #324, #91 ) ) ;
#197 = CYLINDRICAL_SURFACE ( 'NONE', #272, 0.02337660000000000432 ) ;
#198 = STYLED_ITEM ( 'NONE', ( #132 ), #240 ) ;
#199 = ADVANCED_FACE ( 'NONE', ( #131 ), #102, .T. ) ;
#200 = AXIS2_PLACEMENT_3D ( 'NONE', #269, #143, #14 ) ;
#201 = CARTESIAN_POINT ( 'NONE',  ( 2.862807836494802985E-18, 0.0000000000000000000, 0.02337660000000000432 ) ) ;
#202 = EDGE_CURVE ( 'NONE', #36, #261, #44, .T. ) ;
#203 =( NAMED_UNIT ( * ) SI_UNIT ( $, .STERADIAN. ) SOLID_ANGLE_UNIT ( ) );
#204 = DIRECTION ( 'NONE',  ( 1.000000000000000000, 0.0000000000000000000, -0.0000000000000000000 ) ) ;
#205 = AXIS2_PLACEMENT_3D ( 'NONE', #127, #78, #31 ) ;
#206 = CIRCLE ( 'NONE', #65, 0.06250000000000002776 ) ;
#207 = FACE_OUTER_BOUND ( 'NONE', #223, .T. ) ;
#208 = ORIENTED_EDGE ( 'NONE', *, *, #41, .F. ) ;
#209 = DIRECTION ( 'NONE',  ( -1.224646799147353700E-16, -0.0000000000000000000, -1.000000000000000000 ) ) ;
#210 = VERTEX_POINT ( 'NONE', #267 ) ;
#211 = CONICAL_SURFACE ( 'NONE', #274, 0.02337659999999999738, 0.1745329251994338082 ) ;
#212 = VERTEX_POINT ( 'NONE', #218 ) ;
#213 = LINE ( 'NONE', #297, #75 ) ;
#214 = ADVANCED_FACE ( 'NONE', ( #142 ), #316, .T. ) ;
#215 = CARTESIAN_POINT ( 'NONE',  ( -0.06250000000000002776, 0.0000000000000000000, 1.500000000000000222 ) ) ;
#216 = CIRCLE ( 'NONE', #155, 0.02337659999999999738 ) ;
#217 = VERTEX_POINT ( 'NONE', #321 ) ;
#218 = CARTESIAN_POINT ( 'NONE',  ( -0.04750000000000064587, 0.0000000000000000000, 1.500000000000000222 ) ) ;
#219 = CARTESIAN_POINT ( 'NONE',  ( 1.334865011070615584E-17, 0.0000000000000000000, 0.1089999999999999997 ) ) ;
#220 = DIMENSIONAL_EXPONENTS ( 1.000000000000000000, 0.0000000000000000000, 0.0000000000000000000, 0.0000000000000000000, 0.0000000000000000000, 0.0000000000000000000, 0.0000000000000000000 ) ;
#221 = CARTESIAN_POINT ( 'NONE',  ( 0.02337660000000001126, 0.0000000000000000000, 0.1089999999999999997 ) ) ;
#222 = LENGTH_MEASURE_WITH_UNIT ( LENGTH_MEASURE( 0.02539999999999999897 ), #47 );
#223 = EDGE_LOOP ( 'NONE', ( #87, #138, #184 ) ) ;
#224 = EDGE_CURVE ( 'NONE', #68, #248, #206, .T. ) ;
#225 = CARTESIAN_POINT ( 'NONE',  ( 0.0000000000000000000, 0.0000000000000000000, 1.500000000000000222 ) ) ;
#226 = CIRCLE ( 'NONE', #293, 0.06250000000000002776 ) ;
#227 = CARTESIAN_POINT ( 'NONE',  ( 0.0000000000000000000, 0.0000000000000000000, 1.500000000000000222 ) ) ;
#228 = CARTESIAN_POINT ( 'NONE',  ( 0.06250000000000002776, 7.654042494670959086E-18, 1.485000000000000764 ) ) ;
#229 =( LENGTH_UNIT ( ) NAMED_UNIT ( * ) SI_UNIT ( $, .METRE. ) );
#230 = COLOUR_RGB ( '',0.7921568627450980005, 0.8196078431372548767, 0.9333333333333333481 ) ;
#231 = ORIENTED_EDGE ( 'NONE', *, *, #108, .F. ) ;
#232 = AXIS2_PLACEMENT_3D ( 'NONE', #71, #121, #46 ) ;
#233 = DIRECTION ( 'NONE',  ( -1.000000000000000000, 0.0000000000000000000, 1.825976613408455680E-16 ) ) ;
#234 = CARTESIAN_POINT ( 'NONE',  ( -0.06249999999999997918, 0.0000000000000000000, 0.3308798271416305559 ) ) ;
#235 = EDGE_LOOP ( 'NONE', ( #165, #45 ) ) ;
#236 = ADVANCED_FACE ( 'NONE', ( #158 ), #260, .T. ) ;
#237 = ORIENTED_EDGE ( 'NONE', *, *, #96, .T. ) ;
#238 = ADVANCED_FACE ( 'NONE', ( #73 ), #250, .T. ) ;
#239 = DIRECTION ( 'NONE',  ( 0.0000000000000000000, 0.0000000000000000000, 1.000000000000000000 ) ) ;
#240 = ADVANCED_BREP_SHAPE_REPRESENTATION ( 'Micro_BEM-046-04X', ( #3, #205 ), #322 ) ;
#241 = CARTESIAN_POINT ( 'NONE',  ( 0.0000000000000000000, 0.0000000000000000000, 1.500000000000000222 ) ) ;
#242 = DIRECTION ( 'NONE',  ( -1.000000000000000000, 0.0000000000000000000, 0.0000000000000000000 ) ) ;
#243 =( GEOMETRIC_REPRESENTATION_CONTEXT ( 3 ) GLOBAL_UNCERTAINTY_ASSIGNED_CONTEXT ( ( #10 ) ) GLOBAL_UNIT_ASSIGNED_CONTEXT ( ( #13, #315, #4 ) ) REPRESENTATION_CONTEXT ( 'NONE', 'WORKASPACE' ) );
#244 = AXIS2_PLACEMENT_3D ( 'NONE', #18, #90, #56 ) ;
#245 = EDGE_LOOP ( 'NONE', ( #86, #37, #292, #109 ) ) ;
#246 =( NAMED_UNIT ( * ) PLANE_ANGLE_UNIT ( ) SI_UNIT ( $, .RADIAN. ) );
#247 = DIRECTION ( 'NONE',  ( 1.224646799147353700E-16, 0.0000000000000000000, 1.000000000000000000 ) ) ;
#248 = VERTEX_POINT ( 'NONE', #95 ) ;
#249 = LINE ( 'NONE', #221, #50 ) ;
#250 = CONICAL_SURFACE ( 'NONE', #232, 0.04750000000000064587, 0.7853981633974466137 ) ;
#251 = ORIENTED_EDGE ( 'NONE', *, *, #311, .F. ) ;
#252 = DIRECTION ( 'NONE',  ( 1.000000000000000000, 0.0000000000000000000, 0.0000000000000000000 ) ) ;
#253 = EDGE_CURVE ( 'NONE', #210, #248, #249, .T. ) ;
#254 = CARTESIAN_POINT ( 'NONE',  ( 0.02337660000000000779, 2.862807836494801830E-18, 0.02337659999999999738 ) ) ;
#255 = FACE_OUTER_BOUND ( 'NONE', #235, .T. ) ;
#256 = PRESENTATION_LAYER_ASSIGNMENT (  '', '', ( #278 ) ) ;
#257 = PRODUCT_DEFINITION_SHAPE ( 'NONE', 'NONE',  #9 ) ;
#258 = DIRECTION ( 'NONE',  ( -1.224646799147353700E-16, -0.0000000000000000000, -1.000000000000000000 ) ) ;
#259 = LENGTH_MEASURE_WITH_UNIT ( LENGTH_MEASURE( 0.02539999999999999897 ), #157 );
#260 = CYLINDRICAL_SURFACE ( 'NONE', #35, 0.02337660000000000432 ) ;
#261 = VERTEX_POINT ( 'NONE', #301 ) ;
#262 = EDGE_CURVE ( 'NONE', #275, #68, #70, .T. ) ;
#263 = PRESENTATION_STYLE_ASSIGNMENT (( #186 ) ) ;
#264 = ORIENTED_EDGE ( 'NONE', *, *, #108, .T. ) ;
#265 = PRODUCT ( 'Micro_BEM-046-04X', 'Micro_BEM-046-04X', '', ( #310 ) ) ;
#266 = DIRECTION ( 'NONE',  ( 0.0000000000000000000, 0.0000000000000000000, -1.000000000000000000 ) ) ;
#267 = CARTESIAN_POINT ( 'NONE',  ( 0.02337660000000001126, 0.0000000000000000000, 0.1089999999999999997 ) ) ;
#268 =( GEOMETRIC_REPRESENTATION_CONTEXT ( 3 ) GLOBAL_UNCERTAINTY_ASSIGNED_CONTEXT ( ( #312 ) ) GLOBAL_UNIT_ASSIGNED_CONTEXT ( ( #308, #103, #130 ) ) REPRESENTATION_CONTEXT ( 'NONE', 'WORKASPACE' ) );
#269 = CARTESIAN_POINT ( 'NONE',  ( 2.862807836494802985E-18, 0.0000000000000000000, 0.02337660000000000432 ) ) ;
#270 = FACE_OUTER_BOUND ( 'NONE', #63, .T. ) ;
#271 = ORIENTED_EDGE ( 'NONE', *, *, #190, .F. ) ;
#272 = AXIS2_PLACEMENT_3D ( 'NONE', #302, #118, #146 ) ;
#273 = DIRECTION ( 'NONE',  ( -1.000000000000000000, 0.0000000000000000000, 0.0000000000000000000 ) ) ;
#274 = AXIS2_PLACEMENT_3D ( 'NONE', #219, #247, #124 ) ;
#275 = VERTEX_POINT ( 'NONE', #48 ) ;
#276 = DIRECTION ( 'NONE',  ( 0.0000000000000000000, 1.000000000000000000, 0.0000000000000000000 ) ) ;
#277 = ADVANCED_FACE ( 'NONE', ( #175 ), #197, .T. ) ;
#278 = STYLED_ITEM ( 'NONE', ( #263 ), #3 ) ;
#279 = AXIS2_PLACEMENT_3D ( 'NONE', #241, #20, #114 ) ;
#280 = LINE ( 'NONE', #150, #54 ) ;
#281 = DIRECTION ( 'NONE',  ( 1.000000000000000000, 0.0000000000000000000, 0.0000000000000000000 ) ) ;
#282 = MECHANICAL_DESIGN_GEOMETRIC_PRESENTATION_REPRESENTATION (  '', ( #198 ), #268 ) ;
#283 = APPLICATION_PROTOCOL_DEFINITION ( 'draft international standard', 'automotive_design', 1998, #139 ) ;
#284 = SURFACE_STYLE_USAGE ( .BOTH. , #12 ) ;
#285 = PRODUCT_RELATED_PRODUCT_CATEGORY ( 'part', '', ( #265 ) ) ;
#286 = ORIENTED_EDGE ( 'NONE', *, *, #300, .T. ) ;
#287 = CARTESIAN_POINT ( 'NONE',  ( 0.06250000000000002776, 7.654042494670959086E-18, 1.500000000000000222 ) ) ;
#288 = VERTEX_POINT ( 'NONE', #49 ) ;
#289 = ADVANCED_FACE ( 'NONE', ( #325 ), #173, .T. ) ;
#290 = CYLINDRICAL_SURFACE ( 'NONE', #101, 0.06250000000000002776 ) ;
#291 = AXIS2_PLACEMENT_3D ( 'NONE', #225, #51, #306 ) ;
#292 = ORIENTED_EDGE ( 'NONE', *, *, #41, .T. ) ;
#293 = AXIS2_PLACEMENT_3D ( 'NONE', #67, #188, #42 ) ;
#294 = EDGE_LOOP ( 'NONE', ( #159, #17, #111, #208 ) ) ;
#295 = UNCERTAINTY_MEASURE_WITH_UNIT (LENGTH_MEASURE( 1.000000000000000082E-05 ), #93, 'distance_accuracy_value', 'NONE');
#296 = AXIS2_PLACEMENT_3D ( 'NONE', #66, #34, #242 ) ;
#297 = CARTESIAN_POINT ( 'NONE',  ( 0.02337660000000000432, 2.862807836494801830E-18, -2.862807836494802985E-18 ) ) ;
#298 = ADVANCED_FACE ( 'NONE', ( #270 ), #211, .T. ) ;
#299 = FACE_OUTER_BOUND ( 'NONE', #196, .T. ) ;
#300 = EDGE_CURVE ( 'NONE', #275, #210, #216, .T. ) ;
#301 = CARTESIAN_POINT ( 'NONE',  ( -0.02337659999999999738, 0.0000000000000000000, 0.02337660000000000779 ) ) ;
#302 = CARTESIAN_POINT ( 'NONE',  ( 0.0000000000000000000, 0.0000000000000000000, 0.0000000000000000000 ) ) ;
#303 = DIRECTION ( 'NONE',  ( -1.224646799147353700E-16, -0.0000000000000000000, -1.000000000000000000 ) ) ;
#304 = FACE_OUTER_BOUND ( 'NONE', #2, .T. ) ;
#305 = AXIS2_PLACEMENT_3D ( 'NONE', #59, #239, #88 ) ;
#306 = DIRECTION ( 'NONE',  ( 1.000000000000000000, 0.0000000000000000000, 0.0000000000000000000 ) ) ;
#307 = DIMENSIONAL_EXPONENTS ( 1.000000000000000000, 0.0000000000000000000, 0.0000000000000000000, 0.0000000000000000000, 0.0000000000000000000, 0.0000000000000000000, 0.0000000000000000000 ) ;
#308 =( CONVERSION_BASED_UNIT ( 'INCH', #153 ) LENGTH_UNIT ( ) NAMED_UNIT ( #220 ) );
#309 = DIRECTION ( 'NONE',  ( 1.224646799147353700E-16, 0.0000000000000000000, 1.000000000000000000 ) ) ;
#310 = PRODUCT_CONTEXT ( 'NONE', #126, 'mechanical' ) ;
#311 = EDGE_CURVE ( 'NONE', #210, #275, #163, .T. ) ;
#312 = UNCERTAINTY_MEASURE_WITH_UNIT (LENGTH_MEASURE( 1.000000000000000082E-05 ), #308, 'distance_accuracy_value', 'NONE');
#313 = DIRECTION ( 'NONE',  ( 0.7071067811865462405, 8.659560562354916834E-17, -0.7071067811865486830 ) ) ;
#314 = ORIENTED_EDGE ( 'NONE', *, *, #76, .T. ) ;
#315 =( NAMED_UNIT ( * ) PLANE_ANGLE_UNIT ( ) SI_UNIT ( $, .RADIAN. ) );
#316 = CONICAL_SURFACE ( 'NONE', #279, 0.04750000000000064587, 0.7853981633974466137 ) ;
#317 = EDGE_LOOP ( 'NONE', ( #271, #26, #187, #264 ) ) ;
#318 = DIRECTION ( 'NONE',  ( -0.0000000000000000000, -0.0000000000000000000, -1.000000000000000000 ) ) ;
#319 = AXIS2_PLACEMENT_3D ( 'NONE', #23, #309, #116 ) ;
#320 = ORIENTED_EDGE ( 'NONE', *, *, #19, .F. ) ;
#321 = CARTESIAN_POINT ( 'NONE',  ( 4.294211754742204093E-18, 0.0000000000000000000, 0.0000000000000000000 ) ) ;
#322 =( GEOMETRIC_REPRESENTATION_CONTEXT ( 3 ) GLOBAL_UNCERTAINTY_ASSIGNED_CONTEXT ( ( #295 ) ) GLOBAL_UNIT_ASSIGNED_CONTEXT ( ( #93, #246, #203 ) ) REPRESENTATION_CONTEXT ( 'NONE', 'WORKASPACE' ) );
#323 = CARTESIAN_POINT ( 'NONE',  ( 1.334865011070615584E-17, 0.0000000000000000000, 0.1089999999999999997 ) ) ;
#324 = ORIENTED_EDGE ( 'NONE', *, *, #224, .F. ) ;
#325 = FACE_OUTER_BOUND ( 'NONE', #69, .T. ) ;
ENDSEC;
END-ISO-10303-21;
