ISO-10303-21;
HEADER;
FILE_DESCRIPTION (( 'STEP AP214' ),
    '1' );
FILE_NAME ('Micro_GEC-625-3-090.STEP',
    '2021-09-03T17:27:30',
    ( '' ),
    ( '' ),
    'SwSTEP 2.0',
    'SolidWorks 2020',
    '' );
FILE_SCHEMA (( 'AUTOMOTIVE_DESIGN' ));
ENDSEC;

DATA;
#1 = ORIENTED_EDGE ( 'NONE', *, *, #167, .T. ) ;
#2 = AXIS2_PLACEMENT_3D ( 'NONE', #152, #348, #214 ) ;
#3 = FACE_OUTER_BOUND ( 'NONE', #336, .T. ) ;
#4 = ORIENTED_EDGE ( 'NONE', *, *, #124, .F. ) ;
#5 = CARTESIAN_POINT ( 'NONE',  ( 1.532978910536522803E-16, 0.0000000000000000000, 1.251772275568631132 ) ) ;
#6 = APPLICATION_CONTEXT ( 'automotive_design' ) ;
#7 = ORIENTED_EDGE ( 'NONE', *, *, #324, .F. ) ;
#8 = VECTOR ( 'NONE', #263, 39.37007874015748143 ) ;
#9 = EDGE_CURVE ( 'NONE', #50, #75, #284, .T. ) ;
#10 = PRESENTATION_STYLE_ASSIGNMENT (( #279 ) ) ;
#11 = CONICAL_SURFACE ( 'NONE', #326, 0.2975000000000003197, 0.7853981633974300713 ) ;
#12 = PRODUCT_DEFINITION_CONTEXT ( 'detailed design', #166, 'design' ) ;
#13 = ORIENTED_EDGE ( 'NONE', *, *, #9, .T. ) ;
#14 = DIRECTION ( 'NONE',  ( 0.0000000000000000000, 0.0000000000000000000, 1.000000000000000000 ) ) ;
#15 = EDGE_LOOP ( 'NONE', ( #175, #261, #133, #227 ) ) ;
#16 = DIRECTION ( 'NONE',  ( 0.0000000000000000000, 0.0000000000000000000, 1.000000000000000000 ) ) ;
#17 = ORIENTED_EDGE ( 'NONE', *, *, #200, .F. ) ;
#18 = LENGTH_MEASURE_WITH_UNIT ( LENGTH_MEASURE( 0.02539999999999999897 ), #229 );
#19 = DIRECTION ( 'NONE',  ( -0.7071067811865346942, 0.0000000000000000000, -0.7071067811865603403 ) ) ;
#20 = AXIS2_PLACEMENT_3D ( 'NONE', #235, #16, #233 ) ;
#21 = EDGE_CURVE ( 'NONE', #75, #112, #149, .T. ) ;
#22 = FACE_OUTER_BOUND ( 'NONE', #63, .T. ) ;
#23 = DIRECTION ( 'NONE',  ( -0.0000000000000000000, -0.0000000000000000000, -1.000000000000000000 ) ) ;
#24 = CARTESIAN_POINT ( 'NONE',  ( 0.0000000000000000000, 0.0000000000000000000, 3.500000000000000000 ) ) ;
#25 = DIRECTION ( 'NONE',  ( -1.224646799147353207E-16, -0.0000000000000000000, -1.000000000000000000 ) ) ;
#26 =( LENGTH_UNIT ( ) NAMED_UNIT ( * ) SI_UNIT ( $, .METRE. ) );
#27 = CARTESIAN_POINT ( 'NONE',  ( -0.3121874999999998956, 0.0000000000000000000, 0.09000000000000001055 ) ) ;
#28 = CIRCLE ( 'NONE', #110, 0.08999999999999999667 ) ;
#29 = DIRECTION ( 'NONE',  ( -0.0000000000000000000, -0.0000000000000000000, -1.000000000000000000 ) ) ;
#30 = ORIENTED_EDGE ( 'NONE', *, *, #21, .T. ) ;
#31 = LINE ( 'NONE', #106, #92 ) ;
#32 = CARTESIAN_POINT ( 'NONE',  ( 0.0000000000000000000, 0.0000000000000000000, 3.484999999999999432 ) ) ;
#33 = VERTEX_POINT ( 'NONE', #195 ) ;
#34 = AXIS2_PLACEMENT_3D ( 'NONE', #24, #14, #74 ) ;
#35 = CYLINDRICAL_SURFACE ( 'NONE', #105, 0.3121874999999998956 ) ;
#36 = AXIS2_PLACEMENT_3D ( 'NONE', #190, #29, #272 ) ;
#37 = EDGE_CURVE ( 'NONE', #93, #100, #266, .T. ) ;
#38 = FACE_OUTER_BOUND ( 'NONE', #140, .T. ) ;
#39 = STYLED_ITEM ( 'NONE', ( #10 ), #165 ) ;
#40 = FILL_AREA_STYLE_COLOUR ( '', #319 ) ;
#41 = PRODUCT_DEFINITION ( 'UNKNOWN', '', #45, #12 ) ;
#42 = DIRECTION ( 'NONE',  ( 0.0000000000000000000, 0.0000000000000000000, 1.000000000000000000 ) ) ;
#43 = PRESENTATION_STYLE_ASSIGNMENT (( #69 ) ) ;
#44 = AXIS2_PLACEMENT_3D ( 'NONE', #57, #102, #210 ) ;
#45 = PRODUCT_DEFINITION_FORMATION_WITH_SPECIFIED_SOURCE ( 'ANY', '', #252, .NOT_KNOWN. ) ;
#46 = EDGE_LOOP ( 'NONE', ( #120, #65, #30, #178 ) ) ;
#47 =( CONVERSION_BASED_UNIT ( 'INCH', #18 ) LENGTH_UNIT ( ) NAMED_UNIT ( #179 ) );
#48 = ORIENTED_EDGE ( 'NONE', *, *, #136, .F. ) ;
#49 = LINE ( 'NONE', #176, #8 ) ;
#50 = VERTEX_POINT ( 'NONE', #275 ) ;
#51 = FACE_OUTER_BOUND ( 'NONE', #230, .T. ) ;
#52 = EDGE_LOOP ( 'NONE', ( #201, #118 ) ) ;
#53 = CARTESIAN_POINT ( 'NONE',  ( 0.0000000000000000000, 0.0000000000000000000, 3.500000000000000000 ) ) ;
#54 = CARTESIAN_POINT ( 'NONE',  ( 1.102182119232618065E-17, 0.0000000000000000000, 0.09000000000000001055 ) ) ;
#55 =( CONVERSION_BASED_UNIT ( 'INCH', #79 ) LENGTH_UNIT ( ) NAMED_UNIT ( #311 ) );
#56 = DIRECTION ( 'NONE',  ( 1.000000000000000000, 0.0000000000000000000, 0.0000000000000000000 ) ) ;
#57 = CARTESIAN_POINT ( 'NONE',  ( 1.102182119232618065E-17, 0.0000000000000000000, 0.09000000000000001055 ) ) ;
#58 = STYLED_ITEM ( 'NONE', ( #43 ), #260 ) ;
#59 = CARTESIAN_POINT ( 'NONE',  ( 0.3125000000000000000, 3.827021247335478926E-17, 3.484999999999999432 ) ) ;
#60 = DIRECTION ( 'NONE',  ( -1.000000000000000000, 0.0000000000000000000, 1.224646799147353207E-16 ) ) ;
#61 = FACE_OUTER_BOUND ( 'NONE', #160, .T. ) ;
#62 = CIRCLE ( 'NONE', #44, 0.3121874999999998956 ) ;
#63 = EDGE_LOOP ( 'NONE', ( #87, #334, #7, #281 ) ) ;
#64 = ADVANCED_FACE ( 'NONE', ( #38 ), #122, .T. ) ;
#65 = ORIENTED_EDGE ( 'NONE', *, *, #158, .T. ) ;
#66 = EDGE_CURVE ( 'NONE', #301, #112, #288, .T. ) ;
#67 = FACE_OUTER_BOUND ( 'NONE', #46, .T. ) ;
#68 = CARTESIAN_POINT ( 'NONE',  ( 1.530808498934191571E-16, 0.0000000000000000000, 1.250000000000000000 ) ) ;
#69 = SURFACE_STYLE_USAGE ( .BOTH. , #280 ) ;
#70 = AXIS2_PLACEMENT_3D ( 'NONE', #265, #104, #56 ) ;
#71 = ORIENTED_EDGE ( 'NONE', *, *, #132, .T. ) ;
#72 = EDGE_CURVE ( 'NONE', #142, #93, #310, .T. ) ;
#73 = CARTESIAN_POINT ( 'NONE',  ( 0.2221874999999998990, 0.0000000000000000000, 0.08999999999999999667 ) ) ;
#74 = DIRECTION ( 'NONE',  ( 1.000000000000000000, 0.0000000000000000000, -0.0000000000000000000 ) ) ;
#75 = VERTEX_POINT ( 'NONE', #185 ) ;
#76 = DIRECTION ( 'NONE',  ( 0.0000000000000000000, 0.0000000000000000000, -1.000000000000000000 ) ) ;
#77 = DIRECTION ( 'NONE',  ( -0.0000000000000000000, -0.0000000000000000000, -1.000000000000000000 ) ) ;
#78 = PRESENTATION_LAYER_ASSIGNMENT (  '', '', ( #58 ) ) ;
#79 = LENGTH_MEASURE_WITH_UNIT ( LENGTH_MEASURE( 0.02539999999999999897 ), #26 );
#80 = DIRECTION ( 'NONE',  ( 1.000000000000000000, 0.0000000000000000000, 0.0000000000000000000 ) ) ;
#81 =( NAMED_UNIT ( * ) PLANE_ANGLE_UNIT ( ) SI_UNIT ( $, .RADIAN. ) );
#82 = DIRECTION ( 'NONE',  ( 0.0000000000000000000, 0.0000000000000000000, 1.000000000000000000 ) ) ;
#83 = VECTOR ( 'NONE', #19, 39.37007874015748143 ) ;
#84 =( GEOMETRIC_REPRESENTATION_CONTEXT ( 3 ) GLOBAL_UNCERTAINTY_ASSIGNED_CONTEXT ( ( #331 ) ) GLOBAL_UNIT_ASSIGNED_CONTEXT ( ( #47, #184, #268 ) ) REPRESENTATION_CONTEXT ( 'NONE', 'WORKASPACE' ) );
#85 = EDGE_CURVE ( 'NONE', #50, #33, #148, .T. ) ;
#86 = FACE_OUTER_BOUND ( 'NONE', #219, .T. ) ;
#87 = ORIENTED_EDGE ( 'NONE', *, *, #298, .F. ) ;
#88 =( NAMED_UNIT ( * ) PLANE_ANGLE_UNIT ( ) SI_UNIT ( $, .RADIAN. ) );
#89 = EDGE_CURVE ( 'NONE', #257, #234, #137, .T. ) ;
#90 = AXIS2_PLACEMENT_3D ( 'NONE', #218, #322, #271 ) ;
#91 = VERTEX_POINT ( 'NONE', #242 ) ;
#92 = VECTOR ( 'NONE', #328, 39.37007874015748143 ) ;
#93 = VERTEX_POINT ( 'NONE', #321 ) ;
#94 = AXIS2_PLACEMENT_3D ( 'NONE', #147, #117, #226 ) ;
#95 = ORIENTED_EDGE ( 'NONE', *, *, #256, .F. ) ;
#96 = DIRECTION ( 'NONE',  ( 0.0000000000000000000, 0.0000000000000000000, -1.000000000000000000 ) ) ;
#97 = ORIENTED_EDGE ( 'NONE', *, *, #136, .T. ) ;
#98 = TOROIDAL_SURFACE ( 'NONE', #20, 0.2221874999999998990, 0.08999999999999999667 ) ;
#99 = ORIENTED_EDGE ( 'NONE', *, *, #215, .T. ) ;
#100 = VERTEX_POINT ( 'NONE', #27 ) ;
#101 = CARTESIAN_POINT ( 'NONE',  ( 0.3121875000000000622, 0.0000000000000000000, 1.250000000000000000 ) ) ;
#102 = DIRECTION ( 'NONE',  ( 0.0000000000000000000, 0.0000000000000000000, 1.000000000000000000 ) ) ;
#103 = LINE ( 'NONE', #316, #188 ) ;
#104 = DIRECTION ( 'NONE',  ( 0.0000000000000000000, 0.0000000000000000000, 1.000000000000000000 ) ) ;
#105 = AXIS2_PLACEMENT_3D ( 'NONE', #159, #269, #60 ) ;
#106 = CARTESIAN_POINT ( 'NONE',  ( -0.3121874999999997846, 3.823194226088142147E-17, 1.250000000000000000 ) ) ;
#107 = DIRECTION ( 'NONE',  ( 1.000000000000000000, 0.0000000000000000000, 0.0000000000000000000 ) ) ;
#108 = PRODUCT_RELATED_PRODUCT_CATEGORY ( 'part', '', ( #252 ) ) ;
#109 = PLANE ( 'NONE',  #276 ) ;
#110 = AXIS2_PLACEMENT_3D ( 'NONE', #73, #255, #259 ) ;
#111 = DIRECTION ( 'NONE',  ( -1.224646799147353207E-16, -0.0000000000000000000, -1.000000000000000000 ) ) ;
#112 = VERTEX_POINT ( 'NONE', #323 ) ;
#113 = ORIENTED_EDGE ( 'NONE', *, *, #296, .F. ) ;
#114 =( CONVERSION_BASED_UNIT ( 'INCH', #274 ) LENGTH_UNIT ( ) NAMED_UNIT ( #228 ) );
#115 = CARTESIAN_POINT ( 'NONE',  ( 0.0000000000000000000, 0.0000000000000000000, 0.0000000000000000000 ) ) ;
#116 = ORIENTED_EDGE ( 'NONE', *, *, #215, .F. ) ;
#117 = DIRECTION ( 'NONE',  ( -0.0000000000000000000, -0.0000000000000000000, -1.000000000000000000 ) ) ;
#118 = ORIENTED_EDGE ( 'NONE', *, *, #298, .T. ) ;
#119 = CARTESIAN_POINT ( 'NONE',  ( 0.3125000000000000000, 3.827021247335478926E-17, 3.500000000000000000 ) ) ;
#120 = ORIENTED_EDGE ( 'NONE', *, *, #154, .F. ) ;
#121 = FACE_OUTER_BOUND ( 'NONE', #309, .T. ) ;
#122 = CONICAL_SURFACE ( 'NONE', #135, 0.3121874999999998956, 0.1745329251994340303 ) ;
#123 = ORIENTED_EDGE ( 'NONE', *, *, #221, .T. ) ;
#124 = EDGE_CURVE ( 'NONE', #100, #91, #211, .T. ) ;
#125 = DIRECTION ( 'NONE',  ( -0.0000000000000000000, -0.0000000000000000000, -1.000000000000000000 ) ) ;
#126 = DIRECTION ( 'NONE',  ( 1.224646799147353207E-16, 1.000000000000000000, -0.0000000000000000000 ) ) ;
#127 = CARTESIAN_POINT ( 'NONE',  ( 0.0000000000000000000, 0.0000000000000000000, 3.500000000000000000 ) ) ;
#128 = FACE_OUTER_BOUND ( 'NONE', #254, .T. ) ;
#129 = VECTOR ( 'NONE', #23, 39.37007874015748143 ) ;
#130 = AXIS2_PLACEMENT_3D ( 'NONE', #207, #76, #143 ) ;
#131 = DIRECTION ( 'NONE',  ( 1.224646799147353207E-16, 0.0000000000000000000, 1.000000000000000000 ) ) ;
#132 = EDGE_CURVE ( 'NONE', #234, #100, #183, .T. ) ;
#133 = ORIENTED_EDGE ( 'NONE', *, *, #296, .T. ) ;
#134 = DIRECTION ( 'NONE',  ( 0.0000000000000000000, 0.0000000000000000000, 1.000000000000000000 ) ) ;
#135 = AXIS2_PLACEMENT_3D ( 'NONE', #68, #131, #317 ) ;
#136 = EDGE_CURVE ( 'NONE', #91, #100, #62, .T. ) ;
#137 = CIRCLE ( 'NONE', #2, 0.3121874999999998956 ) ;
#138 = SURFACE_STYLE_FILL_AREA ( #169 ) ;
#139 = ADVANCED_FACE ( 'NONE', ( #128 ), #291, .T. ) ;
#140 = EDGE_LOOP ( 'NONE', ( #286, #258, #123, #203 ) ) ;
#141 = AXIS2_PLACEMENT_3D ( 'NONE', #350, #156, #213 ) ;
#142 = VERTEX_POINT ( 'NONE', #212 ) ;
#143 = DIRECTION ( 'NONE',  ( 1.000000000000000000, 0.0000000000000000000, 0.0000000000000000000 ) ) ;
#144 = ORIENTED_EDGE ( 'NONE', *, *, #124, .T. ) ;
#145 = DIRECTION ( 'NONE',  ( 0.1736481776669315247, 0.0000000000000000000, 0.9848077530122077983 ) ) ;
#146 = CARTESIAN_POINT ( 'NONE',  ( -0.2221874999999998990, 2.721012106855524235E-17, 0.08999999999999999667 ) ) ;
#147 = CARTESIAN_POINT ( 'NONE',  ( 0.0000000000000000000, 0.0000000000000000000, 3.500000000000000000 ) ) ;
#148 = CIRCLE ( 'NONE', #70, 0.2975000000000003197 ) ;
#149 = LINE ( 'NONE', #164, #129 ) ;
#150 = DIRECTION ( 'NONE',  ( -1.000000000000000000, 0.0000000000000000000, 0.0000000000000000000 ) ) ;
#151 = DIRECTION ( 'NONE',  ( -1.224646799147353207E-16, -0.0000000000000000000, -1.000000000000000000 ) ) ;
#152 = CARTESIAN_POINT ( 'NONE',  ( 1.530808498934191571E-16, 0.0000000000000000000, 1.250000000000000000 ) ) ;
#153 =( NAMED_UNIT ( * ) SI_UNIT ( $, .STERADIAN. ) SOLID_ANGLE_UNIT ( ) );
#154 = EDGE_CURVE ( 'NONE', #306, #301, #173, .T. ) ;
#155 = AXIS2_PLACEMENT_3D ( 'NONE', #53, #96, #150 ) ;
#156 = DIRECTION ( 'NONE',  ( -1.224646799147353207E-16, -0.0000000000000000000, -1.000000000000000000 ) ) ;
#157 = FACE_OUTER_BOUND ( 'NONE', #15, .T. ) ;
#158 = EDGE_CURVE ( 'NONE', #306, #75, #204, .T. ) ;
#159 = CARTESIAN_POINT ( 'NONE',  ( 0.0000000000000000000, 0.0000000000000000000, 0.0000000000000000000 ) ) ;
#160 = EDGE_LOOP ( 'NONE', ( #95, #244, #13, #253 ) ) ;
#161 = SURFACE_SIDE_STYLE ('',( #138 ) ) ;
#162 = EDGE_LOOP ( 'NONE', ( #208, #246 ) ) ;
#163 = DIRECTION ( 'NONE',  ( 1.000000000000000000, 0.0000000000000000000, 0.0000000000000000000 ) ) ;
#164 = CARTESIAN_POINT ( 'NONE',  ( -0.3125000000000000000, 0.0000000000000000000, 3.500000000000000000 ) ) ;
#165 = ADVANCED_BREP_SHAPE_REPRESENTATION ( 'Micro_GEC-625-3-090', ( #260, #194 ), #333 ) ;
#166 = APPLICATION_CONTEXT ( 'automotive_design' ) ;
#167 = EDGE_CURVE ( 'NONE', #257, #91, #103, .T. ) ;
#168 = CIRCLE ( 'NONE', #141, 0.3121874999999998956 ) ;
#169 = FILL_AREA_STYLE ('',( #40 ) ) ;
#170 = FACE_OUTER_BOUND ( 'NONE', #52, .T. ) ;
#171 = ORIENTED_EDGE ( 'NONE', *, *, #324, .T. ) ;
#172 = VECTOR ( 'NONE', #125, 39.37007874015748143 ) ;
#173 = LINE ( 'NONE', #119, #172 ) ;
#174 = ORIENTED_EDGE ( 'NONE', *, *, #72, .F. ) ;
#175 = ORIENTED_EDGE ( 'NONE', *, *, #287, .F. ) ;
#176 = CARTESIAN_POINT ( 'NONE',  ( 0.2975000000000003197, 3.643324227463378817E-17, 3.500000000000000000 ) ) ;
#177 = ADVANCED_FACE ( 'NONE', ( #121 ), #98, .T. ) ;
#178 = ORIENTED_EDGE ( 'NONE', *, *, #66, .F. ) ;
#179 = DIMENSIONAL_EXPONENTS ( 1.000000000000000000, 0.0000000000000000000, 0.0000000000000000000, 0.0000000000000000000, 0.0000000000000000000, 0.0000000000000000000, 0.0000000000000000000 ) ;
#180 = DIRECTION ( 'NONE',  ( 1.000000000000000000, 0.0000000000000000000, 0.0000000000000000000 ) ) ;
#181 = TOROIDAL_SURFACE ( 'NONE', #300, 0.2221874999999998990, 0.08999999999999999667 ) ;
#182 =( GEOMETRIC_REPRESENTATION_CONTEXT ( 3 ) GLOBAL_UNCERTAINTY_ASSIGNED_CONTEXT ( ( #192 ) ) GLOBAL_UNIT_ASSIGNED_CONTEXT ( ( #114, #88, #220 ) ) REPRESENTATION_CONTEXT ( 'NONE', 'WORKASPACE' ) );
#183 = LINE ( 'NONE', #294, #338 ) ;
#184 =( NAMED_UNIT ( * ) PLANE_ANGLE_UNIT ( ) SI_UNIT ( $, .RADIAN. ) );
#185 = CARTESIAN_POINT ( 'NONE',  ( -0.3125000000000000000, 0.0000000000000000000, 3.484999999999999432 ) ) ;
#186 = DIRECTION ( 'NONE',  ( -1.224646799147353207E-16, -0.0000000000000000000, -1.000000000000000000 ) ) ;
#187 = CYLINDRICAL_SURFACE ( 'NONE', #36, 0.3125000000000000000 ) ;
#188 = VECTOR ( 'NONE', #305, 39.37007874015748143 ) ;
#189 = DIRECTION ( 'NONE',  ( 0.0000000000000000000, 0.0000000000000000000, 1.000000000000000000 ) ) ;
#190 = CARTESIAN_POINT ( 'NONE',  ( 0.0000000000000000000, 0.0000000000000000000, 3.500000000000000000 ) ) ;
#191 = CIRCLE ( 'NONE', #282, 0.3125000000000000000 ) ;
#192 = UNCERTAINTY_MEASURE_WITH_UNIT (LENGTH_MEASURE( 1.000000000000000082E-05 ), #114, 'distance_accuracy_value', 'NONE');
#193 = CIRCLE ( 'NONE', #345, 0.2975000000000003197 ) ;
#194 = AXIS2_PLACEMENT_3D ( 'NONE', #115, #42, #163 ) ;
#195 = CARTESIAN_POINT ( 'NONE',  ( 0.2975000000000003197, 3.735172737399428256E-17, 3.500000000000000000 ) ) ;
#196 = ADVANCED_FACE ( 'NONE', ( #67 ), #341, .T. ) ;
#197 = PRODUCT_CONTEXT ( 'NONE', #6, 'mechanical' ) ;
#198 = AXIS2_PLACEMENT_3D ( 'NONE', #146, #126, #303 ) ;
#199 =( LENGTH_UNIT ( ) NAMED_UNIT ( * ) SI_UNIT ( $, .METRE. ) );
#200 = EDGE_CURVE ( 'NONE', #93, #142, #332, .T. ) ;
#201 = ORIENTED_EDGE ( 'NONE', *, *, #85, .T. ) ;
#202 = PLANE ( 'NONE',  #34 ) ;
#203 = ORIENTED_EDGE ( 'NONE', *, *, #66, .T. ) ;
#204 = CIRCLE ( 'NONE', #130, 0.3125000000000000000 ) ;
#205 = DIRECTION ( 'NONE',  ( -0.0000000000000000000, -0.0000000000000000000, -1.000000000000000000 ) ) ;
#206 = ORIENTED_EDGE ( 'NONE', *, *, #37, .T. ) ;
#207 = CARTESIAN_POINT ( 'NONE',  ( 0.0000000000000000000, 0.0000000000000000000, 3.484999999999999432 ) ) ;
#208 = ORIENTED_EDGE ( 'NONE', *, *, #72, .T. ) ;
#209 = DIRECTION ( 'NONE',  ( 0.0000000000000000000, 0.0000000000000000000, 1.000000000000000000 ) ) ;
#210 = DIRECTION ( 'NONE',  ( 1.000000000000000000, 0.0000000000000000000, 0.0000000000000000000 ) ) ;
#211 = CIRCLE ( 'NONE', #250, 0.3121874999999998956 ) ;
#212 = CARTESIAN_POINT ( 'NONE',  ( 0.2221874999999998990, 0.0000000000000000000, 0.0000000000000000000 ) ) ;
#213 = DIRECTION ( 'NONE',  ( -1.000000000000000000, 0.0000000000000000000, 0.0000000000000000000 ) ) ;
#214 = DIRECTION ( 'NONE',  ( -1.000000000000000000, 0.0000000000000000000, 0.0000000000000000000 ) ) ;
#215 = EDGE_CURVE ( 'NONE', #142, #91, #28, .T. ) ;
#216 = CARTESIAN_POINT ( 'NONE',  ( 0.0000000000000000000, 0.0000000000000000000, 0.0000000000000000000 ) ) ;
#217 = CIRCLE ( 'NONE', #346, 0.3125000000000000000 ) ;
#218 = CARTESIAN_POINT ( 'NONE',  ( 1.530808498934191571E-16, 0.0000000000000000000, 1.250000000000000000 ) ) ;
#219 = EDGE_LOOP ( 'NONE', ( #171, #236, #113, #283 ) ) ;
#220 =( NAMED_UNIT ( * ) SI_UNIT ( $, .STERADIAN. ) SOLID_ANGLE_UNIT ( ) );
#221 = EDGE_CURVE ( 'NONE', #257, #301, #290, .T. ) ;
#222 = UNCERTAINTY_MEASURE_WITH_UNIT (LENGTH_MEASURE( 1.000000000000000082E-05 ), #55, 'distance_accuracy_value', 'NONE');
#223 = APPLICATION_PROTOCOL_DEFINITION ( 'draft international standard', 'automotive_design', 1998, #166 ) ;
#224 = COLOUR_RGB ( '',0.7921568627450980005, 0.8196078431372548767, 0.9333333333333333481 ) ;
#225 = ORIENTED_EDGE ( 'NONE', *, *, #132, .F. ) ;
#226 = DIRECTION ( 'NONE',  ( -1.000000000000000000, 0.0000000000000000000, 0.0000000000000000000 ) ) ;
#227 = ORIENTED_EDGE ( 'NONE', *, *, #221, .F. ) ;
#228 = DIMENSIONAL_EXPONENTS ( 1.000000000000000000, 0.0000000000000000000, 0.0000000000000000000, 0.0000000000000000000, 0.0000000000000000000, 0.0000000000000000000, 0.0000000000000000000 ) ;
#229 =( LENGTH_UNIT ( ) NAMED_UNIT ( * ) SI_UNIT ( $, .METRE. ) );
#230 = EDGE_LOOP ( 'NONE', ( #17, #206, #48, #116 ) ) ;
#231 = CLOSED_SHELL ( 'NONE', ( #232, #139, #307, #238, #349, #196, #249, #262, #64, #277, #270, #177 ) ) ;
#232 = ADVANCED_FACE ( 'NONE', ( #51 ), #181, .T. ) ;
#233 = DIRECTION ( 'NONE',  ( 1.000000000000000000, 0.0000000000000000000, 0.0000000000000000000 ) ) ;
#234 = VERTEX_POINT ( 'NONE', #314 ) ;
#235 = CARTESIAN_POINT ( 'NONE',  ( 1.102182119232617911E-17, 0.0000000000000000000, 0.08999999999999999667 ) ) ;
#236 = ORIENTED_EDGE ( 'NONE', *, *, #154, .T. ) ;
#237 = CARTESIAN_POINT ( 'NONE',  ( 1.102182119232617911E-17, 0.0000000000000000000, 0.08999999999999999667 ) ) ;
#238 = ADVANCED_FACE ( 'NONE', ( #22 ), #304, .T. ) ;
#239 = CARTESIAN_POINT ( 'NONE',  ( 0.0000000000000000000, 0.0000000000000000000, 0.0000000000000000000 ) ) ;
#240 = CONICAL_SURFACE ( 'NONE', #90, 0.3121874999999998956, 0.1745329251994340303 ) ;
#241 = DIRECTION ( 'NONE',  ( 1.000000000000000000, 0.0000000000000000000, 0.0000000000000000000 ) ) ;
#242 = CARTESIAN_POINT ( 'NONE',  ( 0.3121874999999998956, 3.823194226088142147E-17, 0.09000000000000001055 ) ) ;
#243 = DIRECTION ( 'NONE',  ( 0.0000000000000000000, 0.0000000000000000000, -1.000000000000000000 ) ) ;
#244 = ORIENTED_EDGE ( 'NONE', *, *, #85, .F. ) ;
#245 = AXIS2_PLACEMENT_3D ( 'NONE', #312, #205, #180 ) ;
#246 = ORIENTED_EDGE ( 'NONE', *, *, #200, .T. ) ;
#247 = CARTESIAN_POINT ( 'NONE',  ( 0.0000000000000000000, 0.0000000000000000000, 3.500000000000000000 ) ) ;
#248 = APPLICATION_PROTOCOL_DEFINITION ( 'draft international standard', 'automotive_design', 1998, #6 ) ;
#249 = ADVANCED_FACE ( 'NONE', ( #170 ), #202, .T. ) ;
#250 = AXIS2_PLACEMENT_3D ( 'NONE', #54, #82, #342 ) ;
#251 = PRESENTATION_LAYER_ASSIGNMENT (  '', '', ( #39 ) ) ;
#252 = PRODUCT ( 'Micro_GEC-625-3-090', 'Micro_GEC-625-3-090', '', ( #197 ) ) ;
#253 = ORIENTED_EDGE ( 'NONE', *, *, #158, .F. ) ;
#254 = EDGE_LOOP ( 'NONE', ( #337, #1, #97, #225 ) ) ;
#255 = DIRECTION ( 'NONE',  ( 0.0000000000000000000, -1.000000000000000000, 0.0000000000000000000 ) ) ;
#256 = EDGE_CURVE ( 'NONE', #33, #306, #49, .T. ) ;
#257 = VERTEX_POINT ( 'NONE', #339 ) ;
#258 = ORIENTED_EDGE ( 'NONE', *, *, #89, .F. ) ;
#259 = DIRECTION ( 'NONE',  ( 0.0000000000000000000, 0.0000000000000000000, -1.000000000000000000 ) ) ;
#260 = MANIFOLD_SOLID_BREP ( 'Fillet1', #231 ) ;
#261 = ORIENTED_EDGE ( 'NONE', *, *, #329, .T. ) ;
#262 = ADVANCED_FACE ( 'NONE', ( #61 ), #11, .T. ) ;
#263 = DIRECTION ( 'NONE',  ( 0.7071067811865346942, 8.659560562354773853E-17, -0.7071067811865603403 ) ) ;
#264 = CARTESIAN_POINT ( 'NONE',  ( 1.532978910536522803E-16, 0.0000000000000000000, 1.251772275568631132 ) ) ;
#265 = CARTESIAN_POINT ( 'NONE',  ( 0.0000000000000000000, 0.0000000000000000000, 3.500000000000000000 ) ) ;
#266 = CIRCLE ( 'NONE', #198, 0.08999999999999999667 ) ;
#267 = VECTOR ( 'NONE', #145, 39.37007874015748143 ) ;
#268 =( NAMED_UNIT ( * ) SI_UNIT ( $, .STERADIAN. ) SOLID_ANGLE_UNIT ( ) );
#269 = DIRECTION ( 'NONE',  ( -1.224646799147353207E-16, -0.0000000000000000000, -1.000000000000000000 ) ) ;
#270 = ADVANCED_FACE ( 'NONE', ( #327 ), #109, .F. ) ;
#271 = DIRECTION ( 'NONE',  ( 1.000000000000000000, 0.0000000000000000000, 0.0000000000000000000 ) ) ;
#272 = DIRECTION ( 'NONE',  ( -1.000000000000000000, 0.0000000000000000000, 0.0000000000000000000 ) ) ;
#273 = MECHANICAL_DESIGN_GEOMETRIC_PRESENTATION_REPRESENTATION (  '', ( #58 ), #84 ) ;
#274 = LENGTH_MEASURE_WITH_UNIT ( LENGTH_MEASURE( 0.02539999999999999897 ), #199 );
#275 = CARTESIAN_POINT ( 'NONE',  ( -0.2975000000000003197, 0.0000000000000000000, 3.500000000000000000 ) ) ;
#276 = AXIS2_PLACEMENT_3D ( 'NONE', #216, #189, #297 ) ;
#277 = ADVANCED_FACE ( 'NONE', ( #3 ), #35, .T. ) ;
#278 = PRODUCT_DEFINITION_SHAPE ( 'NONE', 'NONE',  #41 ) ;
#279 = SURFACE_STYLE_USAGE ( .BOTH. , #161 ) ;
#280 = SURFACE_SIDE_STYLE ('',( #308 ) ) ;
#281 = ORIENTED_EDGE ( 'NONE', *, *, #9, .F. ) ;
#282 = AXIS2_PLACEMENT_3D ( 'NONE', #32, #243, #320 ) ;
#283 = ORIENTED_EDGE ( 'NONE', *, *, #21, .F. ) ;
#284 = LINE ( 'NONE', #340, #83 ) ;
#285 = FILL_AREA_STYLE ('',( #343 ) ) ;
#286 = ORIENTED_EDGE ( 'NONE', *, *, #329, .F. ) ;
#287 = EDGE_CURVE ( 'NONE', #234, #257, #168, .T. ) ;
#288 = CIRCLE ( 'NONE', #330, 0.3125000000000000000 ) ;
#289 = MECHANICAL_DESIGN_GEOMETRIC_PRESENTATION_REPRESENTATION (  '', ( #39 ), #182 ) ;
#290 = LINE ( 'NONE', #101, #267 ) ;
#291 = CYLINDRICAL_SURFACE ( 'NONE', #318, 0.3121874999999998956 ) ;
#292 = DIRECTION ( 'NONE',  ( 1.000000000000000000, 0.0000000000000000000, 0.0000000000000000000 ) ) ;
#293 = CARTESIAN_POINT ( 'NONE',  ( 1.102182119232617911E-17, 0.0000000000000000000, 0.0000000000000000000 ) ) ;
#294 = CARTESIAN_POINT ( 'NONE',  ( -0.3121874999999998956, 0.0000000000000000000, 3.823194226088142147E-17 ) ) ;
#295 = AXIS2_PLACEMENT_3D ( 'NONE', #293, #77, #80 ) ;
#296 = EDGE_CURVE ( 'NONE', #112, #301, #217, .T. ) ;
#297 = DIRECTION ( 'NONE',  ( 1.000000000000000000, 0.0000000000000000000, -0.0000000000000000000 ) ) ;
#298 = EDGE_CURVE ( 'NONE', #33, #50, #193, .T. ) ;
#299 = ORIENTED_EDGE ( 'NONE', *, *, #89, .T. ) ;
#300 = AXIS2_PLACEMENT_3D ( 'NONE', #237, #209, #335 ) ;
#301 = VERTEX_POINT ( 'NONE', #347 ) ;
#302 = SHAPE_DEFINITION_REPRESENTATION ( #278, #165 ) ;
#303 = DIRECTION ( 'NONE',  ( -1.000000000000000000, 1.224646799147353454E-16, 0.0000000000000000000 ) ) ;
#304 = CONICAL_SURFACE ( 'NONE', #155, 0.2975000000000003197, 0.7853981633974300713 ) ;
#305 = DIRECTION ( 'NONE',  ( -1.224646799147353207E-16, -0.0000000000000000000, -1.000000000000000000 ) ) ;
#306 = VERTEX_POINT ( 'NONE', #59 ) ;
#307 = ADVANCED_FACE ( 'NONE', ( #157 ), #240, .T. ) ;
#308 = SURFACE_STYLE_FILL_AREA ( #285 ) ;
#309 = EDGE_LOOP ( 'NONE', ( #315, #174, #99, #4 ) ) ;
#310 = CIRCLE ( 'NONE', #295, 0.2221874999999998990 ) ;
#311 = DIMENSIONAL_EXPONENTS ( 1.000000000000000000, 0.0000000000000000000, 0.0000000000000000000, 0.0000000000000000000, 0.0000000000000000000, 0.0000000000000000000, 0.0000000000000000000 ) ;
#312 = CARTESIAN_POINT ( 'NONE',  ( 1.102182119232617911E-17, 0.0000000000000000000, 0.0000000000000000000 ) ) ;
#313 = ORIENTED_EDGE ( 'NONE', *, *, #167, .F. ) ;
#314 = CARTESIAN_POINT ( 'NONE',  ( -0.3121874999999997846, 3.825107736711810845E-17, 1.250000000000000000 ) ) ;
#315 = ORIENTED_EDGE ( 'NONE', *, *, #37, .F. ) ;
#316 = CARTESIAN_POINT ( 'NONE',  ( 0.3121874999999998956, 3.823194226088142147E-17, -3.823194226088142147E-17 ) ) ;
#317 = DIRECTION ( 'NONE',  ( 1.000000000000000000, 0.0000000000000000000, 0.0000000000000000000 ) ) ;
#318 = AXIS2_PLACEMENT_3D ( 'NONE', #239, #151, #344 ) ;
#319 = COLOUR_RGB ( '',0.7921568627450980005, 0.8196078431372548767, 0.9333333333333333481 ) ;
#320 = DIRECTION ( 'NONE',  ( 1.000000000000000000, 0.0000000000000000000, 0.0000000000000000000 ) ) ;
#321 = CARTESIAN_POINT ( 'NONE',  ( -0.2221874999999998990, 3.272103166471833807E-17, 0.0000000000000000000 ) ) ;
#322 = DIRECTION ( 'NONE',  ( 1.224646799147353207E-16, 0.0000000000000000000, 1.000000000000000000 ) ) ;
#323 = CARTESIAN_POINT ( 'NONE',  ( -0.3124999999999998890, 0.0000000000000000000, 1.251772275568631132 ) ) ;
#324 = EDGE_CURVE ( 'NONE', #75, #306, #191, .T. ) ;
#325 = DIRECTION ( 'NONE',  ( 0.0000000000000000000, 0.0000000000000000000, -1.000000000000000000 ) ) ;
#326 = AXIS2_PLACEMENT_3D ( 'NONE', #127, #325, #351 ) ;
#327 = FACE_OUTER_BOUND ( 'NONE', #162, .T. ) ;
#328 = DIRECTION ( 'NONE',  ( -0.1736481776669313026, 2.126576849575784549E-17, 0.9848077530122077983 ) ) ;
#329 = EDGE_CURVE ( 'NONE', #234, #112, #31, .T. ) ;
#330 = AXIS2_PLACEMENT_3D ( 'NONE', #264, #186, #107 ) ;
#331 = UNCERTAINTY_MEASURE_WITH_UNIT (LENGTH_MEASURE( 1.000000000000000082E-05 ), #47, 'distance_accuracy_value', 'NONE');
#332 = CIRCLE ( 'NONE', #245, 0.2221874999999998990 ) ;
#333 =( GEOMETRIC_REPRESENTATION_CONTEXT ( 3 ) GLOBAL_UNCERTAINTY_ASSIGNED_CONTEXT ( ( #222 ) ) GLOBAL_UNIT_ASSIGNED_CONTEXT ( ( #55, #81, #153 ) ) REPRESENTATION_CONTEXT ( 'NONE', 'WORKASPACE' ) );
#334 = ORIENTED_EDGE ( 'NONE', *, *, #256, .T. ) ;
#335 = DIRECTION ( 'NONE',  ( 1.000000000000000000, 0.0000000000000000000, 0.0000000000000000000 ) ) ;
#336 = EDGE_LOOP ( 'NONE', ( #313, #299, #71, #144 ) ) ;
#337 = ORIENTED_EDGE ( 'NONE', *, *, #287, .T. ) ;
#338 = VECTOR ( 'NONE', #25, 39.37007874015748143 ) ;
#339 = CARTESIAN_POINT ( 'NONE',  ( 0.3121875000000000622, 0.0000000000000000000, 1.250000000000000000 ) ) ;
#340 = CARTESIAN_POINT ( 'NONE',  ( -0.2975000000000003197, 0.0000000000000000000, 3.500000000000000000 ) ) ;
#341 = CYLINDRICAL_SURFACE ( 'NONE', #94, 0.3125000000000000000 ) ;
#342 = DIRECTION ( 'NONE',  ( 1.000000000000000000, 0.0000000000000000000, 0.0000000000000000000 ) ) ;
#343 = FILL_AREA_STYLE_COLOUR ( '', #224 ) ;
#344 = DIRECTION ( 'NONE',  ( -1.000000000000000000, 0.0000000000000000000, 1.224646799147353207E-16 ) ) ;
#345 = AXIS2_PLACEMENT_3D ( 'NONE', #247, #134, #241 ) ;
#346 = AXIS2_PLACEMENT_3D ( 'NONE', #5, #111, #292 ) ;
#347 = CARTESIAN_POINT ( 'NONE',  ( 0.3125000000000001665, 3.827021247335480159E-17, 1.251772275568631132 ) ) ;
#348 = DIRECTION ( 'NONE',  ( -1.224646799147353207E-16, -0.0000000000000000000, -1.000000000000000000 ) ) ;
#349 = ADVANCED_FACE ( 'NONE', ( #86 ), #187, .T. ) ;
#350 = CARTESIAN_POINT ( 'NONE',  ( 1.530808498934191571E-16, 0.0000000000000000000, 1.250000000000000000 ) ) ;
#351 = DIRECTION ( 'NONE',  ( -1.000000000000000000, 0.0000000000000000000, 0.0000000000000000000 ) ) ;
ENDSEC;
END-ISO-10303-21;
