ISO-10303-21;
HEADER;
FILE_DESCRIPTION (( 'STEP AP214' ),
    '1' );
FILE_NAME ('26407.STEP',
    '2023-06-22T17:47:01',
    ( '' ),
    ( '' ),
    'SwSTEP 2.0',
    'SolidWorks 2023',
    '' );
FILE_SCHEMA (( 'AUTOMOTIVE_DESIGN' ));
ENDSEC;

DATA;
#1 = EDGE_LOOP ( 'NONE', ( #265, #41, #197, #214 ) ) ;
#2 = DIRECTION ( 'NONE',  ( 4.453261087808557677E-17, 1.000000000000000000, -0.000000000000000000 ) ) ;
#3 = DIRECTION ( 'NONE',  ( 4.453261087808557677E-17, 1.000000000000000000, -0.000000000000000000 ) ) ;
#4 = AXIS2_PLACEMENT_3D ( 'NONE', #29, #288, #100 ) ;
#5 = PRODUCT_DEFINITION ( 'UNKNOWN', '', #251, #142 ) ;
#6 = PRESENTATION_STYLE_ASSIGNMENT (( #55 ) ) ;
#7 = LINE ( 'NONE', #272, #308 ) ;
#8 = LENGTH_MEASURE_WITH_UNIT ( LENGTH_MEASURE( 0.02539999999999999897 ), #199 );
#9 = CLOSED_SHELL ( 'NONE', ( #152, #60, #158, #177 ) ) ;
#10 = DIRECTION ( 'NONE',  ( -0.000000000000000000, -1.000000000000000000, -0.000000000000000000 ) ) ;
#11 = CARTESIAN_POINT ( 'NONE',  ( 1.224646799147353207E-16, 4.000000000000000000, 0.000000000000000000 ) ) ;
#12 = LENGTH_MEASURE_WITH_UNIT ( LENGTH_MEASURE( 0.02539999999999999897 ), #102 );
#13 = LENGTH_MEASURE_WITH_UNIT ( LENGTH_MEASURE( 0.02539999999999999897 ), #107 );
#14 = CLOSED_SHELL ( 'NONE', ( #185, #227, #301, #133 ) ) ;
#15 =( NAMED_UNIT ( * ) SI_UNIT ( $, .STERADIAN. ) SOLID_ANGLE_UNIT ( ) );
#16 = CIRCLE ( 'NONE', #105, 0.4999999999999998335 ) ;
#17 = SURFACE_SIDE_STYLE ('',( #155 ) ) ;
#18 = COLOUR_RGB ( '',1.000000000000000000, 0.000000000000000000, 0.000000000000000000 ) ;
#19 = SURFACE_SIDE_STYLE ('',( #79 ) ) ;
#20 = DIMENSIONAL_EXPONENTS ( 1.000000000000000000, 0.000000000000000000, 0.000000000000000000, 0.000000000000000000, 0.000000000000000000, 0.000000000000000000, 0.000000000000000000 ) ;
#21 =( NAMED_UNIT ( * ) PLANE_ANGLE_UNIT ( ) SI_UNIT ( $, .RADIAN. ) );
#22 = DIRECTION ( 'NONE',  ( -0.000000000000000000, -1.000000000000000000, -0.000000000000000000 ) ) ;
#23 = ORIENTED_EDGE ( 'NONE', *, *, #283, .F. ) ;
#24 = STYLED_ITEM ( 'NONE', ( #291 ), #300 ) ;
#25 = VERTEX_POINT ( 'NONE', #282 ) ;
#26 =( CONVERSION_BASED_UNIT ( 'INCH', #44 ) LENGTH_UNIT ( ) NAMED_UNIT ( #302 ) );
#27 = EDGE_LOOP ( 'NONE', ( #289, #50 ) ) ;
#28 = CARTESIAN_POINT ( 'NONE',  ( -0.5000000000000000000, 1.250000000000000000, 0.000000000000000000 ) ) ;
#29 = CARTESIAN_POINT ( 'NONE',  ( 0.000000000000000000, 0.000000000000000000, 0.000000000000000000 ) ) ;
#30 = STYLED_ITEM ( 'NONE', ( #230 ), #227 ) ;
#31 = VERTEX_POINT ( 'NONE', #237 ) ;
#32 = LINE ( 'NONE', #75, #81 ) ;
#33 = DIRECTION ( 'NONE',  ( 0.000000000000000000, -0.000000000000000000, 1.000000000000000000 ) ) ;
#34 = FACE_OUTER_BOUND ( 'NONE', #85, .T. ) ;
#35 = LENGTH_MEASURE_WITH_UNIT ( LENGTH_MEASURE( 0.02539999999999999897 ), #290 );
#36 =( GEOMETRIC_REPRESENTATION_CONTEXT ( 3 ) GLOBAL_UNCERTAINTY_ASSIGNED_CONTEXT ( ( #235 ) ) GLOBAL_UNIT_ASSIGNED_CONTEXT ( ( #42, #21, #280 ) ) REPRESENTATION_CONTEXT ( 'NONE', 'WORKASPACE' ) );
#37 = DIRECTION ( 'NONE',  ( 4.453261087808557677E-17, 1.000000000000000000, -0.000000000000000000 ) ) ;
#38 = DIRECTION ( 'NONE',  ( 1.000000000000000000, 0.000000000000000000, 0.000000000000000000 ) ) ;
#39 = DIRECTION ( 'NONE',  ( -0.000000000000000000, -1.000000000000000000, -0.000000000000000000 ) ) ;
#40 = AXIS2_PLACEMENT_3D ( 'NONE', #217, #94, #205 ) ;
#41 = ORIENTED_EDGE ( 'NONE', *, *, #273, .T. ) ;
#42 =( CONVERSION_BASED_UNIT ( 'INCH', #303 ) LENGTH_UNIT ( ) NAMED_UNIT ( #191 ) );
#43 = VERTEX_POINT ( 'NONE', #28 ) ;
#44 = LENGTH_MEASURE_WITH_UNIT ( LENGTH_MEASURE( 0.02539999999999999897 ), #168 );
#45 = PRESENTATION_LAYER_ASSIGNMENT (  '', '', ( #24 ) ) ;
#46 =( NAMED_UNIT ( * ) PLANE_ANGLE_UNIT ( ) SI_UNIT ( $, .RADIAN. ) );
#47 = DIRECTION ( 'NONE',  ( 4.453261087808557677E-17, 1.000000000000000000, -0.000000000000000000 ) ) ;
#48 = ORIENTED_EDGE ( 'NONE', *, *, #275, .T. ) ;
#49 = CARTESIAN_POINT ( 'NONE',  ( 0.000000000000000000, 0.000000000000000000, 0.000000000000000000 ) ) ;
#50 = ORIENTED_EDGE ( 'NONE', *, *, #224, .F. ) ;
#51 = SURFACE_STYLE_USAGE ( .BOTH. , #124 ) ;
#52 = MECHANICAL_DESIGN_GEOMETRIC_PRESENTATION_REPRESENTATION (  '', ( #114 ), #61 ) ;
#53 = CIRCLE ( 'NONE', #4, 0.5000000000000000000 ) ;
#54 = PRODUCT_RELATED_PRODUCT_CATEGORY ( 'part', '', ( #200 ) ) ;
#55 = SURFACE_STYLE_USAGE ( .BOTH. , #215 ) ;
#56 = CYLINDRICAL_SURFACE ( 'NONE', #183, 0.4999999999999999445 ) ;
#57 = PRODUCT_DEFINITION_SHAPE ( 'NONE', 'NONE',  #5 ) ;
#58 = FILL_AREA_STYLE_COLOUR ( '', #222 ) ;
#59 = DIRECTION ( 'NONE',  ( -0.000000000000000000, -1.000000000000000000, -0.000000000000000000 ) ) ;
#60 = ADVANCED_FACE ( 'NONE', ( #67 ), #169, .F. ) ;
#61 =( GEOMETRIC_REPRESENTATION_CONTEXT ( 3 ) GLOBAL_UNCERTAINTY_ASSIGNED_CONTEXT ( ( #253 ) ) GLOBAL_UNIT_ASSIGNED_CONTEXT ( ( #163, #196, #112 ) ) REPRESENTATION_CONTEXT ( 'NONE', 'WORKASPACE' ) );
#62 = LENGTH_MEASURE_WITH_UNIT ( LENGTH_MEASURE( 0.02539999999999999897 ), #299 );
#63 = CARTESIAN_POINT ( 'NONE',  ( 0.000000000000000000, 0.000000000000000000, 0.000000000000000000 ) ) ;
#64 = AXIS2_PLACEMENT_3D ( 'NONE', #252, #68, #65 ) ;
#65 = DIRECTION ( 'NONE',  ( -1.000000000000000000, 0.000000000000000000, 0.000000000000000000 ) ) ;
#66 = CARTESIAN_POINT ( 'NONE',  ( 0.000000000000000000, 1.250000000000000000, 0.000000000000000000 ) ) ;
#67 = FACE_OUTER_BOUND ( 'NONE', #229, .T. ) ;
#68 = DIRECTION ( 'NONE',  ( 4.453261087808557677E-17, 1.000000000000000000, -0.000000000000000000 ) ) ;
#69 = ORIENTED_EDGE ( 'NONE', *, *, #147, .F. ) ;
#70 = ORIENTED_EDGE ( 'NONE', *, *, #220, .F. ) ;
#71 = DIRECTION ( 'NONE',  ( 0.000000000000000000, 1.000000000000000000, 0.000000000000000000 ) ) ;
#72 = EDGE_LOOP ( 'NONE', ( #120, #166, #90, #195 ) ) ;
#73 = DIRECTION ( 'NONE',  ( -0.000000000000000000, -1.000000000000000000, -0.000000000000000000 ) ) ;
#74 = PRESENTATION_LAYER_ASSIGNMENT (  '', '', ( #241 ) ) ;
#75 = CARTESIAN_POINT ( 'NONE',  ( 0.000000000000000000, 0.000000000000000000, -0.5000000000000000000 ) ) ;
#76 = SURFACE_STYLE_USAGE ( .BOTH. , #101 ) ;
#77 = MECHANICAL_DESIGN_GEOMETRIC_PRESENTATION_REPRESENTATION (  '', ( #241 ), #193 ) ;
#78 = FILL_AREA_STYLE ('',( #132 ) ) ;
#79 = SURFACE_STYLE_FILL_AREA ( #78 ) ;
#80 = AXIS2_PLACEMENT_3D ( 'NONE', #129, #96, #151 ) ;
#81 = VECTOR ( 'NONE', #73, 39.37007874015748143 ) ;
#82 = CARTESIAN_POINT ( 'NONE',  ( 0.000000000000000000, 1.250000000000000000, -0.5000000000000000000 ) ) ;
#83 = DIRECTION ( 'NONE',  ( -0.000000000000000000, -1.000000000000000000, -0.000000000000000000 ) ) ;
#84 = EDGE_CURVE ( 'NONE', #43, #31, #156, .T. ) ;
#85 = EDGE_LOOP ( 'NONE', ( #143, #287 ) ) ;
#86 = PRESENTATION_LAYER_ASSIGNMENT (  '', '', ( #176 ) ) ;
#87 = SURFACE_STYLE_USAGE ( .BOTH. , #305 ) ;
#88 = ORIENTED_EDGE ( 'NONE', *, *, #121, .T. ) ;
#89 = DIRECTION ( 'NONE',  ( 0.000000000000000000, 0.000000000000000000, -1.000000000000000000 ) ) ;
#90 = ORIENTED_EDGE ( 'NONE', *, *, #244, .F. ) ;
#91 = MANIFOLD_SOLID_BREP ( 'Revolve - Tool Body (Straight Shanked)', #9 ) ;
#92 = CARTESIAN_POINT ( 'NONE',  ( 0.000000000000000000, 1.250000000000000000, 0.000000000000000000 ) ) ;
#93 = DIRECTION ( 'NONE',  ( -1.000000000000000000, 4.453261087808557677E-17, 0.000000000000000000 ) ) ;
#94 = DIRECTION ( 'NONE',  ( -4.453261087808557677E-17, -1.000000000000000000, 0.000000000000000000 ) ) ;
#95 = CARTESIAN_POINT ( 'NONE',  ( -0.4999999999999997780, 4.000000000000000000, 0.000000000000000000 ) ) ;
#96 = DIRECTION ( 'NONE',  ( 4.453261087808557677E-17, 1.000000000000000000, -0.000000000000000000 ) ) ;
#97 = CYLINDRICAL_SURFACE ( 'NONE', #126, 0.5000000000000000000 ) ;
#98 = CYLINDRICAL_SURFACE ( 'NONE', #306, 0.5000000000000000000 ) ;
#99 = APPLICATION_CONTEXT ( 'automotive_design' ) ;
#100 = DIRECTION ( 'NONE',  ( 0.000000000000000000, 0.000000000000000000, -1.000000000000000000 ) ) ;
#101 = SURFACE_SIDE_STYLE ('',( #294 ) ) ;
#102 =( LENGTH_UNIT ( ) NAMED_UNIT ( * ) SI_UNIT ( $, .METRE. ) );
#103 = PLANE ( 'NONE',  #40 ) ;
#104 = PRESENTATION_LAYER_ASSIGNMENT (  '', '', ( #30 ) ) ;
#105 = AXIS2_PLACEMENT_3D ( 'NONE', #153, #270, #128 ) ;
#106 = SHAPE_DEFINITION_REPRESENTATION ( #57, #110 ) ;
#107 =( LENGTH_UNIT ( ) NAMED_UNIT ( * ) SI_UNIT ( $, .METRE. ) );
#108 = CIRCLE ( 'NONE', #64, 0.4999999999999998335 ) ;
#109 =( GEOMETRIC_REPRESENTATION_CONTEXT ( 3 ) GLOBAL_UNCERTAINTY_ASSIGNED_CONTEXT ( ( #223 ) ) GLOBAL_UNIT_ASSIGNED_CONTEXT ( ( #201, #243, #122 ) ) REPRESENTATION_CONTEXT ( 'NONE', 'WORKASPACE' ) );
#110 = ADVANCED_BREP_SHAPE_REPRESENTATION ( '26407', ( #300, #91, #135 ), #184 ) ;
#111 = FACE_OUTER_BOUND ( 'NONE', #27, .T. ) ;
#112 =( NAMED_UNIT ( * ) SI_UNIT ( $, .STERADIAN. ) SOLID_ANGLE_UNIT ( ) );
#113 = EDGE_LOOP ( 'NONE', ( #309, #48 ) ) ;
#114 = STYLED_ITEM ( 'NONE', ( #161 ), #133 ) ;
#115 = SURFACE_STYLE_FILL_AREA ( #284 ) ;
#116 =( NAMED_UNIT ( * ) SI_UNIT ( $, .STERADIAN. ) SOLID_ANGLE_UNIT ( ) );
#117 = CARTESIAN_POINT ( 'NONE',  ( 4.957883579047464389E-34, 1.250000000000000000, 0.000000000000000000 ) ) ;
#118 = SURFACE_STYLE_FILL_AREA ( #293 ) ;
#119 = COLOUR_RGB ( '',0.7921568627450980005, 0.8196078431372548767, 0.9333333333333333481 ) ;
#120 = ORIENTED_EDGE ( 'NONE', *, *, #167, .T. ) ;
#121 = EDGE_CURVE ( 'NONE', #304, #43, #198, .T. ) ;
#122 =( NAMED_UNIT ( * ) SI_UNIT ( $, .STERADIAN. ) SOLID_ANGLE_UNIT ( ) );
#123 = DIRECTION ( 'NONE',  ( -1.000000000000000000, 0.000000000000000000, 0.000000000000000000 ) ) ;
#124 = SURFACE_SIDE_STYLE ('',( #173 ) ) ;
#125 = MECHANICAL_DESIGN_GEOMETRIC_PRESENTATION_REPRESENTATION (  '', ( #254 ), #36 ) ;
#126 = AXIS2_PLACEMENT_3D ( 'NONE', #187, #39, #226 ) ;
#127 = CARTESIAN_POINT ( 'NONE',  ( -1.516480271171051896E-32, 1.250000000000000000, 0.000000000000000000 ) ) ;
#128 = DIRECTION ( 'NONE',  ( -1.000000000000000000, 0.000000000000000000, 0.000000000000000000 ) ) ;
#129 = CARTESIAN_POINT ( 'NONE',  ( 1.224646799147353207E-16, 4.000000000000000000, 0.000000000000000000 ) ) ;
#130 = APPLICATION_PROTOCOL_DEFINITION ( 'draft international standard', 'automotive_design', 1998, #231 ) ;
#131 = MECHANICAL_DESIGN_GEOMETRIC_PRESENTATION_REPRESENTATION (  '', ( #30 ), #194 ) ;
#132 = FILL_AREA_STYLE_COLOUR ( '', #202 ) ;
#133 = ADVANCED_FACE ( 'NONE', ( #209 ), #210, .T. ) ;
#134 = PRESENTATION_LAYER_ASSIGNMENT (  '', '', ( #114 ) ) ;
#135 = AXIS2_PLACEMENT_3D ( 'NONE', #247, #182, #38 ) ;
#136 = PLANE ( 'NONE',  #159 ) ;
#137 = DIRECTION ( 'NONE',  ( -1.000000000000000000, 0.000000000000000000, 0.000000000000000000 ) ) ;
#138 = ORIENTED_EDGE ( 'NONE', *, *, #121, .F. ) ;
#139 = COLOUR_RGB ( '',1.000000000000000000, 0.000000000000000000, 0.000000000000000000 ) ;
#140 = DIMENSIONAL_EXPONENTS ( 1.000000000000000000, 0.000000000000000000, 0.000000000000000000, 0.000000000000000000, 0.000000000000000000, 0.000000000000000000, 0.000000000000000000 ) ;
#141 = ORIENTED_EDGE ( 'NONE', *, *, #273, .F. ) ;
#142 = PRODUCT_DEFINITION_CONTEXT ( 'detailed design', #99, 'design' ) ;
#143 = ORIENTED_EDGE ( 'NONE', *, *, #297, .T. ) ;
#144 = CARTESIAN_POINT ( 'NONE',  ( 0.5000000000000001110, 4.000000000000000000, 6.123233995736764803E-17 ) ) ;
#145 = DIRECTION ( 'NONE',  ( -0.000000000000000000, -1.000000000000000000, -0.000000000000000000 ) ) ;
#146 = EDGE_LOOP ( 'NONE', ( #141, #88, #240, #70 ) ) ;
#147 = EDGE_CURVE ( 'NONE', #43, #304, #233, .T. ) ;
#148 = FILL_AREA_STYLE_COLOUR ( '', #281 ) ;
#149 = MECHANICAL_DESIGN_GEOMETRIC_PRESENTATION_REPRESENTATION (  '', ( #24 ), #109 ) ;
#150 = FILL_AREA_STYLE ('',( #148 ) ) ;
#151 = DIRECTION ( 'NONE',  ( -1.000000000000000000, 0.000000000000000000, 0.000000000000000000 ) ) ;
#152 = ADVANCED_FACE ( 'NONE', ( #216 ), #56, .T. ) ;
#153 = CARTESIAN_POINT ( 'NONE',  ( 1.224646799147353207E-16, 4.000000000000000000, 0.000000000000000000 ) ) ;
#154 = CIRCLE ( 'NONE', #286, 0.5000000000000000000 ) ;
#155 = SURFACE_STYLE_FILL_AREA ( #181 ) ;
#156 = LINE ( 'NONE', #95, #274 ) ;
#157 =( NAMED_UNIT ( * ) PLANE_ANGLE_UNIT ( ) SI_UNIT ( $, .RADIAN. ) );
#158 = ADVANCED_FACE ( 'NONE', ( #178 ), #174, .T. ) ;
#159 = AXIS2_PLACEMENT_3D ( 'NONE', #92, #71, #33 ) ;
#160 =( NAMED_UNIT ( * ) PLANE_ANGLE_UNIT ( ) SI_UNIT ( $, .RADIAN. ) );
#161 = PRESENTATION_STYLE_ASSIGNMENT (( #189 ) ) ;
#162 = PRODUCT_CONTEXT ( 'NONE', #231, 'mechanical' ) ;
#163 =( CONVERSION_BASED_UNIT ( 'INCH', #62 ) LENGTH_UNIT ( ) NAMED_UNIT ( #140 ) );
#164 =( CONVERSION_BASED_UNIT ( 'INCH', #13 ) LENGTH_UNIT ( ) NAMED_UNIT ( #262 ) );
#165 = DIRECTION ( 'NONE',  ( 0.000000000000000000, 0.000000000000000000, -1.000000000000000000 ) ) ;
#166 = ORIENTED_EDGE ( 'NONE', *, *, #283, .T. ) ;
#167 = EDGE_CURVE ( 'NONE', #192, #236, #221, .T. ) ;
#168 =( LENGTH_UNIT ( ) NAMED_UNIT ( * ) SI_UNIT ( $, .METRE. ) );
#169 = PLANE ( 'NONE',  #267 ) ;
#170 = VERTEX_POINT ( 'NONE', #239 ) ;
#171 = FILL_AREA_STYLE_COLOUR ( '', #18 ) ;
#172 = ORIENTED_EDGE ( 'NONE', *, *, #275, .F. ) ;
#173 = SURFACE_STYLE_FILL_AREA ( #150 ) ;
#174 = CYLINDRICAL_SURFACE ( 'NONE', #80, 0.4999999999999999445 ) ;
#175 = FACE_OUTER_BOUND ( 'NONE', #285, .T. ) ;
#176 = STYLED_ITEM ( 'NONE', ( #6 ), #301 ) ;
#177 = ADVANCED_FACE ( 'NONE', ( #34 ), #103, .F. ) ;
#178 = FACE_OUTER_BOUND ( 'NONE', #146, .T. ) ;
#179 = LINE ( 'NONE', #144, #212 ) ;
#180 = PRESENTATION_STYLE_ASSIGNMENT (( #76 ) ) ;
#181 = FILL_AREA_STYLE ('',( #204 ) ) ;
#182 = DIRECTION ( 'NONE',  ( 0.000000000000000000, 0.000000000000000000, 1.000000000000000000 ) ) ;
#183 = AXIS2_PLACEMENT_3D ( 'NONE', #11, #37, #123 ) ;
#184 =( GEOMETRIC_REPRESENTATION_CONTEXT ( 3 ) GLOBAL_UNCERTAINTY_ASSIGNED_CONTEXT ( ( #263 ) ) GLOBAL_UNIT_ASSIGNED_CONTEXT ( ( #246, #157, #208 ) ) REPRESENTATION_CONTEXT ( 'NONE', 'WORKASPACE' ) );
#185 = ADVANCED_FACE ( 'NONE', ( #219 ), #98, .T. ) ;
#186 =( NAMED_UNIT ( * ) SI_UNIT ( $, .STERADIAN. ) SOLID_ANGLE_UNIT ( ) );
#187 = CARTESIAN_POINT ( 'NONE',  ( 0.000000000000000000, 0.000000000000000000, 0.000000000000000000 ) ) ;
#188 = UNCERTAINTY_MEASURE_WITH_UNIT (LENGTH_MEASURE( 1.000000000000000082E-05 ), #218, 'distance_accuracy_value', 'NONE');
#189 = SURFACE_STYLE_USAGE ( .BOTH. , #19 ) ;
#190 = DIRECTION ( 'NONE',  ( 0.000000000000000000, 0.000000000000000000, -1.000000000000000000 ) ) ;
#191 = DIMENSIONAL_EXPONENTS ( 1.000000000000000000, 0.000000000000000000, 0.000000000000000000, 0.000000000000000000, 0.000000000000000000, 0.000000000000000000, 0.000000000000000000 ) ;
#192 = VERTEX_POINT ( 'NONE', #82 ) ;
#193 =( GEOMETRIC_REPRESENTATION_CONTEXT ( 3 ) GLOBAL_UNCERTAINTY_ASSIGNED_CONTEXT ( ( #276 ) ) GLOBAL_UNIT_ASSIGNED_CONTEXT ( ( #164, #248, #186 ) ) REPRESENTATION_CONTEXT ( 'NONE', 'WORKASPACE' ) );
#194 =( GEOMETRIC_REPRESENTATION_CONTEXT ( 3 ) GLOBAL_UNCERTAINTY_ASSIGNED_CONTEXT ( ( #238 ) ) GLOBAL_UNIT_ASSIGNED_CONTEXT ( ( #26, #46, #116 ) ) REPRESENTATION_CONTEXT ( 'NONE', 'WORKASPACE' ) );
#195 = ORIENTED_EDGE ( 'NONE', *, *, #249, .F. ) ;
#196 =( NAMED_UNIT ( * ) PLANE_ANGLE_UNIT ( ) SI_UNIT ( $, .RADIAN. ) );
#197 = ORIENTED_EDGE ( 'NONE', *, *, #297, .F. ) ;
#198 = CIRCLE ( 'NONE', #250, 0.5000000000000000000 ) ;
#199 =( LENGTH_UNIT ( ) NAMED_UNIT ( * ) SI_UNIT ( $, .METRE. ) );
#200 = PRODUCT ( '26407', '26407', '', ( #162 ) ) ;
#201 =( CONVERSION_BASED_UNIT ( 'INCH', #8 ) LENGTH_UNIT ( ) NAMED_UNIT ( #232 ) );
#202 = COLOUR_RGB ( '',1.000000000000000000, 0.000000000000000000, 0.000000000000000000 ) ;
#203 = FILL_AREA_STYLE_COLOUR ( '', #139 ) ;
#204 = FILL_AREA_STYLE_COLOUR ( '', #119 ) ;
#205 = DIRECTION ( 'NONE',  ( 1.000000000000000000, -4.453261087808557677E-17, 0.000000000000000000 ) ) ;
#206 = AXIS2_PLACEMENT_3D ( 'NONE', #257, #47, #137 ) ;
#207 = DIRECTION ( 'NONE',  ( 4.453261087808557677E-17, 1.000000000000000000, -0.000000000000000000 ) ) ;
#208 =( NAMED_UNIT ( * ) SI_UNIT ( $, .STERADIAN. ) SOLID_ANGLE_UNIT ( ) );
#209 = FACE_OUTER_BOUND ( 'NONE', #113, .T. ) ;
#210 = PLANE ( 'NONE',  #296 ) ;
#211 = CIRCLE ( 'NONE', #242, 0.5000000000000000000 ) ;
#212 = VECTOR ( 'NONE', #2, 39.37007874015748143 ) ;
#213 =( LENGTH_UNIT ( ) NAMED_UNIT ( * ) SI_UNIT ( $, .METRE. ) );
#214 = ORIENTED_EDGE ( 'NONE', *, *, #84, .F. ) ;
#215 = SURFACE_SIDE_STYLE ('',( #118 ) ) ;
#216 = FACE_OUTER_BOUND ( 'NONE', #1, .T. ) ;
#217 = CARTESIAN_POINT ( 'NONE',  ( 0.5000000000000000000, 4.000000000000000000, 0.000000000000000000 ) ) ;
#218 =( CONVERSION_BASED_UNIT ( 'INCH', #35 ) LENGTH_UNIT ( ) NAMED_UNIT ( #20 ) );
#219 = FACE_OUTER_BOUND ( 'NONE', #72, .T. ) ;
#220 = EDGE_CURVE ( 'NONE', #170, #31, #108, .T. ) ;
#221 = CIRCLE ( 'NONE', #278, 0.5000000000000000000 ) ;
#222 = COLOUR_RGB ( '',1.000000000000000000, 0.000000000000000000, 0.000000000000000000 ) ;
#223 = UNCERTAINTY_MEASURE_WITH_UNIT (LENGTH_MEASURE( 1.000000000000000082E-05 ), #201, 'distance_accuracy_value', 'NONE');
#224 = EDGE_CURVE ( 'NONE', #236, #192, #154, .T. ) ;
#225 = PRESENTATION_STYLE_ASSIGNMENT (( #255 ) ) ;
#226 = DIRECTION ( 'NONE',  ( 0.000000000000000000, 0.000000000000000000, -1.000000000000000000 ) ) ;
#227 = ADVANCED_FACE ( 'NONE', ( #111 ), #136, .T. ) ;
#228 = DIMENSIONAL_EXPONENTS ( 1.000000000000000000, 0.000000000000000000, 0.000000000000000000, 0.000000000000000000, 0.000000000000000000, 0.000000000000000000, 0.000000000000000000 ) ;
#229 = EDGE_LOOP ( 'NONE', ( #69, #138 ) ) ;
#230 = PRESENTATION_STYLE_ASSIGNMENT (( #87 ) ) ;
#231 = APPLICATION_CONTEXT ( 'automotive_design' ) ;
#232 = DIMENSIONAL_EXPONENTS ( 1.000000000000000000, 0.000000000000000000, 0.000000000000000000, 0.000000000000000000, 0.000000000000000000, 0.000000000000000000, 0.000000000000000000 ) ;
#233 = CIRCLE ( 'NONE', #206, 0.5000000000000000000 ) ;
#234 = ORIENTED_EDGE ( 'NONE', *, *, #224, .T. ) ;
#235 = UNCERTAINTY_MEASURE_WITH_UNIT (LENGTH_MEASURE( 1.000000000000000082E-05 ), #42, 'distance_accuracy_value', 'NONE');
#236 = VERTEX_POINT ( 'NONE', #295 ) ;
#237 = CARTESIAN_POINT ( 'NONE',  ( -0.4999999999999997224, 4.000000000000000000, 0.000000000000000000 ) ) ;
#238 = UNCERTAINTY_MEASURE_WITH_UNIT (LENGTH_MEASURE( 1.000000000000000082E-05 ), #26, 'distance_accuracy_value', 'NONE');
#239 = CARTESIAN_POINT ( 'NONE',  ( 0.5000000000000000000, 4.000000000000000000, 6.123233995736764803E-17 ) ) ;
#240 = ORIENTED_EDGE ( 'NONE', *, *, #84, .T. ) ;
#241 = STYLED_ITEM ( 'NONE', ( #225 ), #91 ) ;
#242 = AXIS2_PLACEMENT_3D ( 'NONE', #49, #10, #268 ) ;
#243 =( NAMED_UNIT ( * ) PLANE_ANGLE_UNIT ( ) SI_UNIT ( $, .RADIAN. ) );
#244 = EDGE_CURVE ( 'NONE', #260, #25, #53, .T. ) ;
#245 = DIRECTION ( 'NONE',  ( 0.000000000000000000, 0.000000000000000000, -1.000000000000000000 ) ) ;
#246 =( CONVERSION_BASED_UNIT ( 'INCH', #12 ) LENGTH_UNIT ( ) NAMED_UNIT ( #228 ) );
#247 = CARTESIAN_POINT ( 'NONE',  ( 0.000000000000000000, 0.000000000000000000, 0.000000000000000000 ) ) ;
#248 =( NAMED_UNIT ( * ) PLANE_ANGLE_UNIT ( ) SI_UNIT ( $, .RADIAN. ) );
#249 = EDGE_CURVE ( 'NONE', #192, #260, #32, .T. ) ;
#250 = AXIS2_PLACEMENT_3D ( 'NONE', #127, #207, #298 ) ;
#251 = PRODUCT_DEFINITION_FORMATION_WITH_SPECIFIED_SOURCE ( 'ANY', '', #200, .NOT_KNOWN. ) ;
#252 = CARTESIAN_POINT ( 'NONE',  ( 1.224646799147353207E-16, 4.000000000000000000, 0.000000000000000000 ) ) ;
#253 = UNCERTAINTY_MEASURE_WITH_UNIT (LENGTH_MEASURE( 1.000000000000000082E-05 ), #163, 'distance_accuracy_value', 'NONE');
#254 = STYLED_ITEM ( 'NONE', ( #180 ), #185 ) ;
#255 = SURFACE_STYLE_USAGE ( .BOTH. , #17 ) ;
#256 =( GEOMETRIC_REPRESENTATION_CONTEXT ( 3 ) GLOBAL_UNCERTAINTY_ASSIGNED_CONTEXT ( ( #188 ) ) GLOBAL_UNIT_ASSIGNED_CONTEXT ( ( #218, #160, #15 ) ) REPRESENTATION_CONTEXT ( 'NONE', 'WORKASPACE' ) );
#257 = CARTESIAN_POINT ( 'NONE',  ( -1.516480271171051896E-32, 1.250000000000000000, 0.000000000000000000 ) ) ;
#258 = ORIENTED_EDGE ( 'NONE', *, *, #249, .T. ) ;
#259 = PRESENTATION_LAYER_ASSIGNMENT (  '', '', ( #254 ) ) ;
#260 = VERTEX_POINT ( 'NONE', #266 ) ;
#261 = MECHANICAL_DESIGN_GEOMETRIC_PRESENTATION_REPRESENTATION (  '', ( #176 ), #256 ) ;
#262 = DIMENSIONAL_EXPONENTS ( 1.000000000000000000, 0.000000000000000000, 0.000000000000000000, 0.000000000000000000, 0.000000000000000000, 0.000000000000000000, 0.000000000000000000 ) ;
#263 = UNCERTAINTY_MEASURE_WITH_UNIT (LENGTH_MEASURE( 1.000000000000000082E-05 ), #246, 'distance_accuracy_value', 'NONE');
#264 = CARTESIAN_POINT ( 'NONE',  ( 0.000000000000000000, 0.000000000000000000, 0.000000000000000000 ) ) ;
#265 = ORIENTED_EDGE ( 'NONE', *, *, #147, .T. ) ;
#266 = CARTESIAN_POINT ( 'NONE',  ( 0.000000000000000000, 0.000000000000000000, -0.5000000000000000000 ) ) ;
#267 = AXIS2_PLACEMENT_3D ( 'NONE', #117, #3, #93 ) ;
#268 = DIRECTION ( 'NONE',  ( 0.000000000000000000, 0.000000000000000000, -1.000000000000000000 ) ) ;
#269 = DIRECTION ( 'NONE',  ( 4.453261087808557677E-17, 1.000000000000000000, -0.000000000000000000 ) ) ;
#270 = DIRECTION ( 'NONE',  ( 4.453261087808557677E-17, 1.000000000000000000, -0.000000000000000000 ) ) ;
#271 = FILL_AREA_STYLE ('',( #203 ) ) ;
#272 = CARTESIAN_POINT ( 'NONE',  ( 6.123233995736766036E-17, 0.000000000000000000, 0.5000000000000000000 ) ) ;
#273 = EDGE_CURVE ( 'NONE', #304, #170, #179, .T. ) ;
#274 = VECTOR ( 'NONE', #269, 39.37007874015748143 ) ;
#275 = EDGE_CURVE ( 'NONE', #25, #260, #211, .T. ) ;
#276 = UNCERTAINTY_MEASURE_WITH_UNIT (LENGTH_MEASURE( 1.000000000000000082E-05 ), #164, 'distance_accuracy_value', 'NONE');
#277 = CARTESIAN_POINT ( 'NONE',  ( 0.5000000000000000000, 1.250000000000000000, 6.123233995736764803E-17 ) ) ;
#278 = AXIS2_PLACEMENT_3D ( 'NONE', #292, #145, #245 ) ;
#279 = APPLICATION_PROTOCOL_DEFINITION ( 'draft international standard', 'automotive_design', 1998, #99 ) ;
#280 =( NAMED_UNIT ( * ) SI_UNIT ( $, .STERADIAN. ) SOLID_ANGLE_UNIT ( ) );
#281 = COLOUR_RGB ( '',0.7921568627450980005, 0.8196078431372548767, 0.9333333333333333481 ) ;
#282 = CARTESIAN_POINT ( 'NONE',  ( 6.123233995736766036E-17, 0.000000000000000000, 0.5000000000000000000 ) ) ;
#283 = EDGE_CURVE ( 'NONE', #236, #25, #7, .T. ) ;
#284 = FILL_AREA_STYLE ('',( #171 ) ) ;
#285 = EDGE_LOOP ( 'NONE', ( #23, #234, #258, #172 ) ) ;
#286 = AXIS2_PLACEMENT_3D ( 'NONE', #66, #22, #89 ) ;
#287 = ORIENTED_EDGE ( 'NONE', *, *, #220, .T. ) ;
#288 = DIRECTION ( 'NONE',  ( -0.000000000000000000, -1.000000000000000000, -0.000000000000000000 ) ) ;
#289 = ORIENTED_EDGE ( 'NONE', *, *, #167, .F. ) ;
#290 =( LENGTH_UNIT ( ) NAMED_UNIT ( * ) SI_UNIT ( $, .METRE. ) );
#291 = PRESENTATION_STYLE_ASSIGNMENT (( #51 ) ) ;
#292 = CARTESIAN_POINT ( 'NONE',  ( 0.000000000000000000, 1.250000000000000000, 0.000000000000000000 ) ) ;
#293 = FILL_AREA_STYLE ('',( #58 ) ) ;
#294 = SURFACE_STYLE_FILL_AREA ( #271 ) ;
#295 = CARTESIAN_POINT ( 'NONE',  ( 6.123233995736766036E-17, 1.250000000000000000, 0.5000000000000000000 ) ) ;
#296 = AXIS2_PLACEMENT_3D ( 'NONE', #264, #307, #165 ) ;
#297 = EDGE_CURVE ( 'NONE', #31, #170, #16, .T. ) ;
#298 = DIRECTION ( 'NONE',  ( -1.000000000000000000, 0.000000000000000000, 0.000000000000000000 ) ) ;
#299 =( LENGTH_UNIT ( ) NAMED_UNIT ( * ) SI_UNIT ( $, .METRE. ) );
#300 = MANIFOLD_SOLID_BREP ( 'Revolve - Cutting Edge', #14 ) ;
#301 = ADVANCED_FACE ( 'NONE', ( #175 ), #97, .T. ) ;
#302 = DIMENSIONAL_EXPONENTS ( 1.000000000000000000, 0.000000000000000000, 0.000000000000000000, 0.000000000000000000, 0.000000000000000000, 0.000000000000000000, 0.000000000000000000 ) ;
#303 = LENGTH_MEASURE_WITH_UNIT ( LENGTH_MEASURE( 0.02539999999999999897 ), #213 );
#304 = VERTEX_POINT ( 'NONE', #277 ) ;
#305 = SURFACE_SIDE_STYLE ('',( #115 ) ) ;
#306 = AXIS2_PLACEMENT_3D ( 'NONE', #63, #83, #190 ) ;
#307 = DIRECTION ( 'NONE',  ( 0.000000000000000000, -1.000000000000000000, -0.000000000000000000 ) ) ;
#308 = VECTOR ( 'NONE', #59, 39.37007874015748143 ) ;
#309 = ORIENTED_EDGE ( 'NONE', *, *, #244, .T. ) ;
ENDSEC;
END-ISO-10303-21;
