ISO-10303-21;
HEADER;
FILE_DESCRIPTION (( 'STEP AP214' ),
    '1' );
FILE_NAME ('12017.STEP',
    '2023-06-30T21:50:42',
    ( '' ),
    ( '' ),
    'SwSTEP 2.0',
    'SolidWorks 2023',
    '' );
FILE_SCHEMA (( 'AUTOMOTIVE_DESIGN' ));
ENDSEC;

DATA;
#1 = CLOSED_SHELL ( 'NONE', ( #224, #191, #149, #133, #8 ) ) ;
#2 =( GEOMETRIC_REPRESENTATION_CONTEXT ( 3 ) GLOBAL_UNCERTAINTY_ASSIGNED_CONTEXT ( ( #295 ) ) GLOBAL_UNIT_ASSIGNED_CONTEXT ( ( #127, #94, #326 ) ) REPRESENTATION_CONTEXT ( 'NONE', 'WORKASPACE' ) );
#3 = ORIENTED_EDGE ( 'NONE', *, *, #311, .T. ) ;
#4 =( NAMED_UNIT ( * ) PLANE_ANGLE_UNIT ( ) SI_UNIT ( $, .RADIAN. ) );
#5 = DIRECTION ( 'NONE',  ( 2.978405439163479370E-17, -1.000000000000000000, -0.000000000000000000 ) ) ;
#6 = CARTESIAN_POINT ( 'NONE',  ( 0.000000000000000000, 0.000000000000000000, 0.000000000000000000 ) ) ;
#7 = LINE ( 'NONE', #197, #347 ) ;
#8 = ADVANCED_FACE ( 'NONE', ( #97 ), #309, .T. ) ;
#9 = CARTESIAN_POINT ( 'NONE',  ( 0.000000000000000000, 1.500000000000000222, 0.000000000000000000 ) ) ;
#10 = CARTESIAN_POINT ( 'NONE',  ( 0.06249999999999999306, 0.06250000000000001388, 0.000000000000000000 ) ) ;
#11 =( NAMED_UNIT ( * ) PLANE_ANGLE_UNIT ( ) SI_UNIT ( $, .RADIAN. ) );
#12 = DIRECTION ( 'NONE',  ( 1.000000000000000000, 0.000000000000000000, 0.000000000000000000 ) ) ;
#13 =( NAMED_UNIT ( * ) SI_UNIT ( $, .STERADIAN. ) SOLID_ANGLE_UNIT ( ) );
#14 = DIRECTION ( 'NONE',  ( -0.000000000000000000, 1.000000000000000000, -0.000000000000000000 ) ) ;
#15 = CARTESIAN_POINT ( 'NONE',  ( -1.861503399477174606E-18, 0.06250000000000001388, 0.000000000000000000 ) ) ;
#16 = AXIS2_PLACEMENT_3D ( 'NONE', #196, #152, #194 ) ;
#17 = LENGTH_MEASURE_WITH_UNIT ( LENGTH_MEASURE( 0.02539999999999999897 ), #265 );
#18 = VERTEX_POINT ( 'NONE', #159 ) ;
#19 = CYLINDRICAL_SURFACE ( 'NONE', #324, 0.06249999999999997918 ) ;
#20 = DIRECTION ( 'NONE',  ( 0.000000000000000000, -0.000000000000000000, -1.000000000000000000 ) ) ;
#21 = AXIS2_PLACEMENT_3D ( 'NONE', #6, #137, #294 ) ;
#22 = DIRECTION ( 'NONE',  ( 2.978405439163479370E-17, -1.000000000000000000, -0.000000000000000000 ) ) ;
#23 = CARTESIAN_POINT ( 'NONE',  ( -7.654042494670957545E-18, 0.06250000000000000000, 0.000000000000000000 ) ) ;
#24 = DIMENSIONAL_EXPONENTS ( 1.000000000000000000, 0.000000000000000000, 0.000000000000000000, 0.000000000000000000, 0.000000000000000000, 0.000000000000000000, 0.000000000000000000 ) ;
#25 = AXIS2_PLACEMENT_3D ( 'NONE', #243, #345, #209 ) ;
#26 = SURFACE_STYLE_USAGE ( .BOTH. , #353 ) ;
#27 =( CONVERSION_BASED_UNIT ( 'INCH', #136 ) LENGTH_UNIT ( ) NAMED_UNIT ( #24 ) );
#28 = DIRECTION ( 'NONE',  ( 1.000000000000000000, 0.000000000000000000, 0.000000000000000000 ) ) ;
#29 = PRESENTATION_STYLE_ASSIGNMENT (( #216 ) ) ;
#30 =( NAMED_UNIT ( * ) SI_UNIT ( $, .STERADIAN. ) SOLID_ANGLE_UNIT ( ) );
#31 = AXIS2_PLACEMENT_3D ( 'NONE', #231, #14, #237 ) ;
#32 = AXIS2_PLACEMENT_3D ( 'NONE', #35, #262, #234 ) ;
#33 =( CONVERSION_BASED_UNIT ( 'INCH', #226 ) LENGTH_UNIT ( ) NAMED_UNIT ( #105 ) );
#34 = CARTESIAN_POINT ( 'NONE',  ( 7.654042494670956004E-18, 1.500000000000000222, -0.06249999999999997918 ) ) ;
#35 = CARTESIAN_POINT ( 'NONE',  ( -7.446013597908698425E-18, 0.2500000000000000000, 0.000000000000000000 ) ) ;
#36 = CARTESIAN_POINT ( 'NONE',  ( 0.000000000000000000, 0.2500000000000000555, 0.000000000000000000 ) ) ;
#37 = CARTESIAN_POINT ( 'NONE',  ( 0.000000000000000000, 1.500000000000000222, 0.06249999999999997918 ) ) ;
#38 = AXIS2_PLACEMENT_3D ( 'NONE', #60, #316, #83 ) ;
#39 = CARTESIAN_POINT ( 'NONE',  ( 0.000000000000000000, 1.500000000000000222, 0.000000000000000000 ) ) ;
#40 = DIRECTION ( 'NONE',  ( -0.000000000000000000, 1.000000000000000000, 0.000000000000000000 ) ) ;
#41 =( NAMED_UNIT ( * ) SI_UNIT ( $, .STERADIAN. ) SOLID_ANGLE_UNIT ( ) );
#42 = DIRECTION ( 'NONE',  ( -0.000000000000000000, 1.000000000000000000, -0.000000000000000000 ) ) ;
#43 = AXIS2_PLACEMENT_3D ( 'NONE', #23, #76, #28 ) ;
#44 = VERTEX_POINT ( 'NONE', #10 ) ;
#45 = FILL_AREA_STYLE_COLOUR ( '', #269 ) ;
#46 = STYLED_ITEM ( 'NONE', ( #198 ), #149 ) ;
#47 = ORIENTED_EDGE ( 'NONE', *, *, #272, .F. ) ;
#48 = CARTESIAN_POINT ( 'NONE',  ( -0.06249999999999997918, -1.861503399477174221E-18, 7.654042494670956004E-18 ) ) ;
#49 = EDGE_CURVE ( 'NONE', #270, #18, #199, .T. ) ;
#50 = FILL_AREA_STYLE ('',( #217 ) ) ;
#51 = EDGE_LOOP ( 'NONE', ( #65, #320, #183, #131 ) ) ;
#52 = SURFACE_STYLE_FILL_AREA ( #306 ) ;
#53 = ORIENTED_EDGE ( 'NONE', *, *, #300, .F. ) ;
#54 = EDGE_CURVE ( 'NONE', #270, #350, #252, .T. ) ;
#55 = CARTESIAN_POINT ( 'NONE',  ( 0.000000000000000000, 0.2499999999999999167, 0.000000000000000000 ) ) ;
#56 = DIRECTION ( 'NONE',  ( 1.000000000000000000, 0.000000000000000000, 0.000000000000000000 ) ) ;
#57 = DIRECTION ( 'NONE',  ( 2.978405439163479370E-17, -1.000000000000000000, -0.000000000000000000 ) ) ;
#58 = ADVANCED_FACE ( 'NONE', ( #121 ), #339, .T. ) ;
#59 = CIRCLE ( 'NONE', #16, 0.06249999999999997918 ) ;
#60 = CARTESIAN_POINT ( 'NONE',  ( -7.446013597908698425E-18, 0.2500000000000000000, 0.000000000000000000 ) ) ;
#61 = MECHANICAL_DESIGN_GEOMETRIC_PRESENTATION_REPRESENTATION (  '', ( #155 ), #2 ) ;
#62 = PRODUCT_DEFINITION_CONTEXT ( 'detailed design', #201, 'design' ) ;
#63 = DIRECTION ( 'NONE',  ( 0.000000000000000000, 0.000000000000000000, 1.000000000000000000 ) ) ;
#64 = AXIS2_PLACEMENT_3D ( 'NONE', #36, #81, #63 ) ;
#65 = ORIENTED_EDGE ( 'NONE', *, *, #49, .F. ) ;
#66 = FACE_OUTER_BOUND ( 'NONE', #189, .T. ) ;
#67 = AXIS2_PLACEMENT_3D ( 'NONE', #346, #301, #241 ) ;
#68 = CARTESIAN_POINT ( 'NONE',  ( -0.06249999999999997918, 0.2500000000000000000, 7.654042494670956004E-18 ) ) ;
#69 = EDGE_CURVE ( 'NONE', #275, #18, #59, .T. ) ;
#70 = EDGE_LOOP ( 'NONE', ( #77, #221, #305 ) ) ;
#71 =( NAMED_UNIT ( * ) SI_UNIT ( $, .STERADIAN. ) SOLID_ANGLE_UNIT ( ) );
#72 = EDGE_LOOP ( 'NONE', ( #47, #53 ) ) ;
#73 =( LENGTH_UNIT ( ) NAMED_UNIT ( * ) SI_UNIT ( $, .METRE. ) );
#74 = ORIENTED_EDGE ( 'NONE', *, *, #49, .T. ) ;
#75 = ORIENTED_EDGE ( 'NONE', *, *, #171, .F. ) ;
#76 = DIRECTION ( 'NONE',  ( 0.000000000000000000, -0.000000000000000000, 1.000000000000000000 ) ) ;
#77 = ORIENTED_EDGE ( 'NONE', *, *, #335, .T. ) ;
#78 = EDGE_LOOP ( 'NONE', ( #110, #96, #352, #310 ) ) ;
#79 =( CONVERSION_BASED_UNIT ( 'INCH', #279 ) LENGTH_UNIT ( ) NAMED_UNIT ( #162 ) );
#80 = CIRCLE ( 'NONE', #325, 0.06249999999999999306 ) ;
#81 = DIRECTION ( 'NONE',  ( -0.000000000000000000, 1.000000000000000000, -0.000000000000000000 ) ) ;
#82 = CLOSED_SHELL ( 'NONE', ( #58, #246, #289, #118 ) ) ;
#83 = DIRECTION ( 'NONE',  ( 1.000000000000000000, 0.000000000000000000, 0.000000000000000000 ) ) ;
#84 =( LENGTH_UNIT ( ) NAMED_UNIT ( * ) SI_UNIT ( $, .METRE. ) );
#85 = DIRECTION ( 'NONE',  ( 0.000000000000000000, 0.000000000000000000, 1.000000000000000000 ) ) ;
#86 =( NAMED_UNIT ( * ) PLANE_ANGLE_UNIT ( ) SI_UNIT ( $, .RADIAN. ) );
#87 = PLANE ( 'NONE',  #206 ) ;
#88 =( NAMED_UNIT ( * ) PLANE_ANGLE_UNIT ( ) SI_UNIT ( $, .RADIAN. ) );
#89 = STYLED_ITEM ( 'NONE', ( #284 ), #224 ) ;
#90 = DIRECTION ( 'NONE',  ( 1.000000000000000000, 0.000000000000000000, 0.000000000000000000 ) ) ;
#91 = UNCERTAINTY_MEASURE_WITH_UNIT (LENGTH_MEASURE( 1.000000000000000082E-05 ), #124, 'distance_accuracy_value', 'NONE');
#92 = LENGTH_MEASURE_WITH_UNIT ( LENGTH_MEASURE( 0.02539999999999999897 ), #73 );
#93 = PRODUCT_RELATED_PRODUCT_CATEGORY ( 'part', '', ( #297 ) ) ;
#94 =( NAMED_UNIT ( * ) PLANE_ANGLE_UNIT ( ) SI_UNIT ( $, .RADIAN. ) );
#95 =( GEOMETRIC_REPRESENTATION_CONTEXT ( 3 ) GLOBAL_UNCERTAINTY_ASSIGNED_CONTEXT ( ( #264 ) ) GLOBAL_UNIT_ASSIGNED_CONTEXT ( ( #79, #4, #281 ) ) REPRESENTATION_CONTEXT ( 'NONE', 'WORKASPACE' ) );
#96 = ORIENTED_EDGE ( 'NONE', *, *, #300, .T. ) ;
#97 = FACE_OUTER_BOUND ( 'NONE', #242, .T. ) ;
#98 = DIMENSIONAL_EXPONENTS ( 1.000000000000000000, 0.000000000000000000, 0.000000000000000000, 0.000000000000000000, 0.000000000000000000, 0.000000000000000000, 0.000000000000000000 ) ;
#99 = EDGE_CURVE ( 'NONE', #350, #270, #193, .T. ) ;
#100 = VERTEX_POINT ( 'NONE', #203 ) ;
#101 = PRESENTATION_STYLE_ASSIGNMENT (( #26 ) ) ;
#102 = VECTOR ( 'NONE', #42, 39.37007874015748143 ) ;
#103 = MECHANICAL_DESIGN_GEOMETRIC_PRESENTATION_REPRESENTATION (  '', ( #46 ), #200 ) ;
#104 = SURFACE_SIDE_STYLE ('',( #323 ) ) ;
#105 = DIMENSIONAL_EXPONENTS ( 1.000000000000000000, 0.000000000000000000, 0.000000000000000000, 0.000000000000000000, 0.000000000000000000, 0.000000000000000000, 0.000000000000000000 ) ;
#106 = ORIENTED_EDGE ( 'NONE', *, *, #69, .T. ) ;
#107 = FILL_AREA_STYLE_COLOUR ( '', #245 ) ;
#108 = SURFACE_STYLE_USAGE ( .BOTH. , #157 ) ;
#109 = MANIFOLD_SOLID_BREP ( 'Revolve - Cutting Edge', #1 ) ;
#110 = ORIENTED_EDGE ( 'NONE', *, *, #176, .F. ) ;
#111 = SURFACE_STYLE_USAGE ( .BOTH. , #334 ) ;
#112 = STYLED_ITEM ( 'NONE', ( #175 ), #109 ) ;
#113 = DIRECTION ( 'NONE',  ( 0.000000000000000000, -0.000000000000000000, 1.000000000000000000 ) ) ;
#114 = FACE_OUTER_BOUND ( 'NONE', #72, .T. ) ;
#115 = PRESENTATION_LAYER_ASSIGNMENT (  '', '', ( #155 ) ) ;
#116 =( NAMED_UNIT ( * ) SI_UNIT ( $, .STERADIAN. ) SOLID_ANGLE_UNIT ( ) );
#117 = DIRECTION ( 'NONE',  ( -0.000000000000000000, 1.000000000000000000, -0.000000000000000000 ) ) ;
#118 = ADVANCED_FACE ( 'NONE', ( #125 ), #145, .F. ) ;
#119 = MECHANICAL_DESIGN_GEOMETRIC_PRESENTATION_REPRESENTATION (  '', ( #112 ), #238 ) ;
#120 =( GEOMETRIC_REPRESENTATION_CONTEXT ( 3 ) GLOBAL_UNCERTAINTY_ASSIGNED_CONTEXT ( ( #202 ) ) GLOBAL_UNIT_ASSIGNED_CONTEXT ( ( #33, #11, #13 ) ) REPRESENTATION_CONTEXT ( 'NONE', 'WORKASPACE' ) );
#121 = FACE_OUTER_BOUND ( 'NONE', #348, .T. ) ;
#122 = UNCERTAINTY_MEASURE_WITH_UNIT (LENGTH_MEASURE( 1.000000000000000082E-05 ), #296, 'distance_accuracy_value', 'NONE');
#123 = DIRECTION ( 'NONE',  ( -1.000000000000000000, -2.978405439163479370E-17, 0.000000000000000000 ) ) ;
#124 =( CONVERSION_BASED_UNIT ( 'INCH', #17 ) LENGTH_UNIT ( ) NAMED_UNIT ( #160 ) );
#125 = FACE_OUTER_BOUND ( 'NONE', #163, .T. ) ;
#126 = ORIENTED_EDGE ( 'NONE', *, *, #99, .T. ) ;
#127 =( CONVERSION_BASED_UNIT ( 'INCH', #92 ) LENGTH_UNIT ( ) NAMED_UNIT ( #130 ) );
#128 = DIRECTION ( 'NONE',  ( 0.000000000000000000, -1.000000000000000000, 0.000000000000000000 ) ) ;
#129 = CARTESIAN_POINT ( 'NONE',  ( 0.06249999999999996531, 0.2500000000000000000, 0.000000000000000000 ) ) ;
#130 = DIMENSIONAL_EXPONENTS ( 1.000000000000000000, 0.000000000000000000, 0.000000000000000000, 0.000000000000000000, 0.000000000000000000, 0.000000000000000000, 0.000000000000000000 ) ;
#131 = ORIENTED_EDGE ( 'NONE', *, *, #311, .F. ) ;
#132 = SPHERICAL_SURFACE ( 'NONE', #43, 0.06250000000000000000 ) ;
#133 = ADVANCED_FACE ( 'NONE', ( #210 ), #225, .T. ) ;
#134 = PRESENTATION_LAYER_ASSIGNMENT (  '', '', ( #46 ) ) ;
#135 = ORIENTED_EDGE ( 'NONE', *, *, #258, .F. ) ;
#136 = LENGTH_MEASURE_WITH_UNIT ( LENGTH_MEASURE( 0.02539999999999999897 ), #211 );
#137 = DIRECTION ( 'NONE',  ( 2.978405439163479370E-17, -1.000000000000000000, -0.000000000000000000 ) ) ;
#138 = PRESENTATION_LAYER_ASSIGNMENT (  '', '', ( #292 ) ) ;
#139 = SURFACE_SIDE_STYLE ('',( #285 ) ) ;
#140 = AXIS2_PLACEMENT_3D ( 'NONE', #170, #340, #56 ) ;
#141 = CARTESIAN_POINT ( 'NONE',  ( 0.000000000000000000, 1.500000000000000222, 0.000000000000000000 ) ) ;
#142 = PRODUCT_DEFINITION ( 'UNKNOWN', '', #215, #62 ) ;
#143 = LENGTH_MEASURE_WITH_UNIT ( LENGTH_MEASURE( 0.02539999999999999897 ), #328 );
#144 = CARTESIAN_POINT ( 'NONE',  ( 0.000000000000000000, 0.2500000000000000555, 0.06249999999999997918 ) ) ;
#145 = PLANE ( 'NONE',  #256 ) ;
#146 = DIRECTION ( 'NONE',  ( 0.000000000000000000, 0.000000000000000000, 1.000000000000000000 ) ) ;
#147 = PRESENTATION_LAYER_ASSIGNMENT (  '', '', ( #299 ) ) ;
#148 = CYLINDRICAL_SURFACE ( 'NONE', #330, 0.06249999999999997918 ) ;
#149 = ADVANCED_FACE ( 'NONE', ( #114 ), #87, .T. ) ;
#150 = APPLICATION_PROTOCOL_DEFINITION ( 'draft international standard', 'automotive_design', 1998, #266 ) ;
#151 = UNCERTAINTY_MEASURE_WITH_UNIT (LENGTH_MEASURE( 1.000000000000000082E-05 ), #190, 'distance_accuracy_value', 'NONE');
#152 = DIRECTION ( 'NONE',  ( -0.000000000000000000, 1.000000000000000000, -0.000000000000000000 ) ) ;
#153 = AXIS2_PLACEMENT_3D ( 'NONE', #9, #236, #173 ) ;
#154 = ORIENTED_EDGE ( 'NONE', *, *, #335, .F. ) ;
#155 = STYLED_ITEM ( 'NONE', ( #248 ), #191 ) ;
#156 = CARTESIAN_POINT ( 'NONE',  ( 0.000000000000000000, 0.000000000000000000, 0.000000000000000000 ) ) ;
#157 = SURFACE_SIDE_STYLE ('',( #255 ) ) ;
#158 =( NAMED_UNIT ( * ) PLANE_ANGLE_UNIT ( ) SI_UNIT ( $, .RADIAN. ) );
#159 = CARTESIAN_POINT ( 'NONE',  ( 7.654042494670956004E-18, 1.500000000000000222, -0.06249999999999997918 ) ) ;
#160 = DIMENSIONAL_EXPONENTS ( 1.000000000000000000, 0.000000000000000000, 0.000000000000000000, 0.000000000000000000, 0.000000000000000000, 0.000000000000000000, 0.000000000000000000 ) ;
#161 = VERTEX_POINT ( 'NONE', #68 ) ;
#162 = DIMENSIONAL_EXPONENTS ( 1.000000000000000000, 0.000000000000000000, 0.000000000000000000, 0.000000000000000000, 0.000000000000000000, 0.000000000000000000, 0.000000000000000000 ) ;
#163 = EDGE_LOOP ( 'NONE', ( #106, #3 ) ) ;
#164 = LINE ( 'NONE', #251, #177 ) ;
#165 = FILL_AREA_STYLE_COLOUR ( '', #277 ) ;
#166 = COLOUR_RGB ( '',1.000000000000000000, 0.000000000000000000, 0.000000000000000000 ) ;
#167 = PRESENTATION_LAYER_ASSIGNMENT (  '', '', ( #89 ) ) ;
#168 = CARTESIAN_POINT ( 'NONE',  ( -1.861503399477174606E-18, 0.06250000000000001388, 0.000000000000000000 ) ) ;
#169 = ADVANCED_BREP_SHAPE_REPRESENTATION ( '12017', ( #109, #239, #140 ), #120 ) ;
#170 = CARTESIAN_POINT ( 'NONE',  ( 0.000000000000000000, 0.000000000000000000, 0.000000000000000000 ) ) ;
#171 = EDGE_CURVE ( 'NONE', #100, #273, #287, .T. ) ;
#172 =( GEOMETRIC_REPRESENTATION_CONTEXT ( 3 ) GLOBAL_UNCERTAINTY_ASSIGNED_CONTEXT ( ( #240 ) ) GLOBAL_UNIT_ASSIGNED_CONTEXT ( ( #188, #283, #30 ) ) REPRESENTATION_CONTEXT ( 'NONE', 'WORKASPACE' ) );
#173 = DIRECTION ( 'NONE',  ( 0.000000000000000000, 0.000000000000000000, 1.000000000000000000 ) ) ;
#174 = FILL_AREA_STYLE ('',( #268 ) ) ;
#175 = PRESENTATION_STYLE_ASSIGNMENT (( #259 ) ) ;
#176 = EDGE_CURVE ( 'NONE', #161, #100, #271, .T. ) ;
#177 = VECTOR ( 'NONE', #5, 39.37007874015748143 ) ;
#178 = ORIENTED_EDGE ( 'NONE', *, *, #204, .F. ) ;
#179 = FILL_AREA_STYLE ('',( #45 ) ) ;
#180 = DIRECTION ( 'NONE',  ( -2.978405439163479370E-17, 1.000000000000000000, 0.000000000000000000 ) ) ;
#181 = EDGE_CURVE ( 'NONE', #44, #273, #313, .T. ) ;
#182 = PRESENTATION_LAYER_ASSIGNMENT (  '', '', ( #343 ) ) ;
#183 = ORIENTED_EDGE ( 'NONE', *, *, #258, .T. ) ;
#184 = PLANE ( 'NONE',  #307 ) ;
#185 = VERTEX_POINT ( 'NONE', #129 ) ;
#186 = LENGTH_MEASURE_WITH_UNIT ( LENGTH_MEASURE( 0.02539999999999999897 ), #222 );
#187 = CIRCLE ( 'NONE', #38, 0.06249999999999997224 ) ;
#188 =( CONVERSION_BASED_UNIT ( 'INCH', #143 ) LENGTH_UNIT ( ) NAMED_UNIT ( #223 ) );
#189 = EDGE_LOOP ( 'NONE', ( #244, #331, #154, #178 ) ) ;
#190 =( CONVERSION_BASED_UNIT ( 'INCH', #186 ) LENGTH_UNIT ( ) NAMED_UNIT ( #247 ) );
#191 = ADVANCED_FACE ( 'NONE', ( #66 ), #19, .T. ) ;
#192 = SHAPE_DEFINITION_REPRESENTATION ( #318, #169 ) ;
#193 = CIRCLE ( 'NONE', #64, 0.06249999999999997918 ) ;
#194 = DIRECTION ( 'NONE',  ( 0.000000000000000000, 0.000000000000000000, 1.000000000000000000 ) ) ;
#195 = CARTESIAN_POINT ( 'NONE',  ( -1.965517847858304551E-18, 0.000000000000000000, 0.000000000000000000 ) ) ;
#196 = CARTESIAN_POINT ( 'NONE',  ( 0.000000000000000000, 1.500000000000000222, 0.000000000000000000 ) ) ;
#197 = CARTESIAN_POINT ( 'NONE',  ( 0.000000000000000000, 1.500000000000000222, 0.06249999999999997918 ) ) ;
#198 = PRESENTATION_STYLE_ASSIGNMENT (( #257 ) ) ;
#199 = LINE ( 'NONE', #34, #102 ) ;
#200 =( GEOMETRIC_REPRESENTATION_CONTEXT ( 3 ) GLOBAL_UNCERTAINTY_ASSIGNED_CONTEXT ( ( #91 ) ) GLOBAL_UNIT_ASSIGNED_CONTEXT ( ( #124, #298, #71 ) ) REPRESENTATION_CONTEXT ( 'NONE', 'WORKASPACE' ) );
#201 = APPLICATION_CONTEXT ( 'automotive_design' ) ;
#202 = UNCERTAINTY_MEASURE_WITH_UNIT (LENGTH_MEASURE( 1.000000000000000082E-05 ), #33, 'distance_accuracy_value', 'NONE');
#203 = CARTESIAN_POINT ( 'NONE',  ( -0.06250000000000000000, 0.06250000000000001388, 7.654042494670957545E-18 ) ) ;
#204 = EDGE_CURVE ( 'NONE', #185, #44, #164, .T. ) ;
#205 = SURFACE_SIDE_STYLE ('',( #304 ) ) ;
#206 = AXIS2_PLACEMENT_3D ( 'NONE', #349, #180, #123 ) ;
#207 = CARTESIAN_POINT ( 'NONE',  ( 0.06249999999999997918, 1.500000000000000222, 0.000000000000000000 ) ) ;
#208 = ORIENTED_EDGE ( 'NONE', *, *, #319, .T. ) ;
#209 = DIRECTION ( 'NONE',  ( 1.000000000000000000, 0.000000000000000000, -1.224646799147353207E-16 ) ) ;
#210 = FACE_OUTER_BOUND ( 'NONE', #78, .T. ) ;
#211 =( LENGTH_UNIT ( ) NAMED_UNIT ( * ) SI_UNIT ( $, .METRE. ) );
#212 = SURFACE_STYLE_USAGE ( .BOTH. , #205 ) ;
#213 = MECHANICAL_DESIGN_GEOMETRIC_PRESENTATION_REPRESENTATION (  '', ( #299 ), #172 ) ;
#214 = ORIENTED_EDGE ( 'NONE', *, *, #181, .T. ) ;
#215 = PRODUCT_DEFINITION_FORMATION_WITH_SPECIFIED_SOURCE ( 'ANY', '', #297, .NOT_KNOWN. ) ;
#216 = SURFACE_STYLE_USAGE ( .BOTH. , #104 ) ;
#217 = FILL_AREA_STYLE_COLOUR ( '', #166 ) ;
#218 = FILL_AREA_STYLE ('',( #107 ) ) ;
#219 = PRESENTATION_STYLE_ASSIGNMENT (( #108 ) ) ;
#220 = DIRECTION ( 'NONE',  ( 1.000000000000000000, 2.978405439163479986E-17, 0.000000000000000000 ) ) ;
#221 = ORIENTED_EDGE ( 'NONE', *, *, #171, .T. ) ;
#222 =( LENGTH_UNIT ( ) NAMED_UNIT ( * ) SI_UNIT ( $, .METRE. ) );
#223 = DIMENSIONAL_EXPONENTS ( 1.000000000000000000, 0.000000000000000000, 0.000000000000000000, 0.000000000000000000, 0.000000000000000000, 0.000000000000000000, 0.000000000000000000 ) ;
#224 = ADVANCED_FACE ( 'NONE', ( #308 ), #132, .T. ) ;
#225 = CYLINDRICAL_SURFACE ( 'NONE', #21, 0.06249999999999997918 ) ;
#226 = LENGTH_MEASURE_WITH_UNIT ( LENGTH_MEASURE( 0.02539999999999999897 ), #260 );
#227 =( NAMED_UNIT ( * ) SI_UNIT ( $, .STERADIAN. ) SOLID_ANGLE_UNIT ( ) );
#228 = FACE_OUTER_BOUND ( 'NONE', #51, .T. ) ;
#229 = AXIS2_PLACEMENT_3D ( 'NONE', #282, #113, #12 ) ;
#230 = VECTOR ( 'NONE', #22, 39.37007874015748143 ) ;
#231 = CARTESIAN_POINT ( 'NONE',  ( 0.000000000000000000, 0.2500000000000000555, 0.000000000000000000 ) ) ;
#232 = CIRCLE ( 'NONE', #280, 0.06249999999999999306 ) ;
#233 = APPLICATION_PROTOCOL_DEFINITION ( 'draft international standard', 'automotive_design', 1998, #201 ) ;
#234 = DIRECTION ( 'NONE',  ( 1.000000000000000000, 0.000000000000000000, 0.000000000000000000 ) ) ;
#235 = DIRECTION ( 'NONE',  ( -0.000000000000000000, 1.000000000000000000, -0.000000000000000000 ) ) ;
#236 = DIRECTION ( 'NONE',  ( -0.000000000000000000, 1.000000000000000000, -0.000000000000000000 ) ) ;
#237 = DIRECTION ( 'NONE',  ( 0.000000000000000000, 0.000000000000000000, 1.000000000000000000 ) ) ;
#238 =( GEOMETRIC_REPRESENTATION_CONTEXT ( 3 ) GLOBAL_UNCERTAINTY_ASSIGNED_CONTEXT ( ( #122 ) ) GLOBAL_UNIT_ASSIGNED_CONTEXT ( ( #296, #88, #41 ) ) REPRESENTATION_CONTEXT ( 'NONE', 'WORKASPACE' ) );
#239 = MANIFOLD_SOLID_BREP ( 'Revolve - Tool Body (Straight Shanked)', #82 ) ;
#240 = UNCERTAINTY_MEASURE_WITH_UNIT (LENGTH_MEASURE( 1.000000000000000082E-05 ), #188, 'distance_accuracy_value', 'NONE');
#241 = DIRECTION ( 'NONE',  ( -1.000000000000000000, 0.000000000000000000, 0.000000000000000000 ) ) ;
#242 = EDGE_LOOP ( 'NONE', ( #75, #208, #214 ) ) ;
#243 = CARTESIAN_POINT ( 'NONE',  ( -7.654042494670957545E-18, 0.06250000000000000000, 0.000000000000000000 ) ) ;
#244 = ORIENTED_EDGE ( 'NONE', *, *, #272, .T. ) ;
#245 = COLOUR_RGB ( '',1.000000000000000000, 0.000000000000000000, 0.000000000000000000 ) ;
#246 = ADVANCED_FACE ( 'NONE', ( #263 ), #184, .F. ) ;
#247 = DIMENSIONAL_EXPONENTS ( 1.000000000000000000, 0.000000000000000000, 0.000000000000000000, 0.000000000000000000, 0.000000000000000000, 0.000000000000000000, 0.000000000000000000 ) ;
#248 = PRESENTATION_STYLE_ASSIGNMENT (( #212 ) ) ;
#249 = FILL_AREA_STYLE_COLOUR ( '', #302 ) ;
#250 = ORIENTED_EDGE ( 'NONE', *, *, #99, .F. ) ;
#251 = CARTESIAN_POINT ( 'NONE',  ( 0.06249999999999997918, 1.861503399477174221E-18, 0.000000000000000000 ) ) ;
#252 = CIRCLE ( 'NONE', #31, 0.06249999999999997918 ) ;
#253 = COLOUR_RGB ( '',0.7921568627450980005, 0.8196078431372548767, 0.9333333333333333481 ) ;
#254 = DIRECTION ( 'NONE',  ( 2.978405439163479370E-17, -1.000000000000000000, -0.000000000000000000 ) ) ;
#255 = SURFACE_STYLE_FILL_AREA ( #50 ) ;
#256 = AXIS2_PLACEMENT_3D ( 'NONE', #207, #128, #20 ) ;
#257 = SURFACE_STYLE_USAGE ( .BOTH. , #139 ) ;
#258 = EDGE_CURVE ( 'NONE', #350, #275, #7, .T. ) ;
#259 = SURFACE_STYLE_USAGE ( .BOTH. , #314 ) ;
#260 =( LENGTH_UNIT ( ) NAMED_UNIT ( * ) SI_UNIT ( $, .METRE. ) );
#261 =( GEOMETRIC_REPRESENTATION_CONTEXT ( 3 ) GLOBAL_UNCERTAINTY_ASSIGNED_CONTEXT ( ( #151 ) ) GLOBAL_UNIT_ASSIGNED_CONTEXT ( ( #190, #158, #116 ) ) REPRESENTATION_CONTEXT ( 'NONE', 'WORKASPACE' ) );
#262 = DIRECTION ( 'NONE',  ( 2.978405439163479370E-17, -1.000000000000000000, -0.000000000000000000 ) ) ;
#263 = FACE_OUTER_BOUND ( 'NONE', #322, .T. ) ;
#264 = UNCERTAINTY_MEASURE_WITH_UNIT (LENGTH_MEASURE( 1.000000000000000082E-05 ), #79, 'distance_accuracy_value', 'NONE');
#265 =( LENGTH_UNIT ( ) NAMED_UNIT ( * ) SI_UNIT ( $, .METRE. ) );
#266 = APPLICATION_CONTEXT ( 'automotive_design' ) ;
#267 =( GEOMETRIC_REPRESENTATION_CONTEXT ( 3 ) GLOBAL_UNCERTAINTY_ASSIGNED_CONTEXT ( ( #342 ) ) GLOBAL_UNIT_ASSIGNED_CONTEXT ( ( #27, #86, #227 ) ) REPRESENTATION_CONTEXT ( 'NONE', 'WORKASPACE' ) );
#268 = FILL_AREA_STYLE_COLOUR ( '', #276 ) ;
#269 = COLOUR_RGB ( '',1.000000000000000000, 0.000000000000000000, 0.000000000000000000 ) ;
#270 = VERTEX_POINT ( 'NONE', #286 ) ;
#271 = LINE ( 'NONE', #48, #230 ) ;
#272 = EDGE_CURVE ( 'NONE', #185, #161, #187, .T. ) ;
#273 = VERTEX_POINT ( 'NONE', #195 ) ;
#274 = FILL_AREA_STYLE_COLOUR ( '', #253 ) ;
#275 = VERTEX_POINT ( 'NONE', #37 ) ;
#276 = COLOUR_RGB ( '',0.7921568627450980005, 0.8196078431372548767, 0.9333333333333333481 ) ;
#277 = COLOUR_RGB ( '',1.000000000000000000, 0.000000000000000000, 0.000000000000000000 ) ;
#278 = ORIENTED_EDGE ( 'NONE', *, *, #54, .F. ) ;
#279 = LENGTH_MEASURE_WITH_UNIT ( LENGTH_MEASURE( 0.02539999999999999897 ), #332 );
#280 = AXIS2_PLACEMENT_3D ( 'NONE', #168, #341, #315 ) ;
#281 =( NAMED_UNIT ( * ) SI_UNIT ( $, .STERADIAN. ) SOLID_ANGLE_UNIT ( ) );
#282 = CARTESIAN_POINT ( 'NONE',  ( -7.654042494670957545E-18, 0.06250000000000000000, 0.000000000000000000 ) ) ;
#283 =( NAMED_UNIT ( * ) PLANE_ANGLE_UNIT ( ) SI_UNIT ( $, .RADIAN. ) );
#284 = PRESENTATION_STYLE_ASSIGNMENT (( #111 ) ) ;
#285 = SURFACE_STYLE_FILL_AREA ( #333 ) ;
#286 = CARTESIAN_POINT ( 'NONE',  ( 7.654042494670956004E-18, 0.2500000000000000555, -0.06249999999999997918 ) ) ;
#287 = CIRCLE ( 'NONE', #25, 0.06250000000000000000 ) ;
#288 = CIRCLE ( 'NONE', #153, 0.06249999999999997918 ) ;
#289 = ADVANCED_FACE ( 'NONE', ( #228 ), #148, .T. ) ;
#290 = LENGTH_MEASURE_WITH_UNIT ( LENGTH_MEASURE( 0.02539999999999999897 ), #84 );
#291 = DIRECTION ( 'NONE',  ( -0.000000000000000000, 1.000000000000000000, -0.000000000000000000 ) ) ;
#292 = STYLED_ITEM ( 'NONE', ( #219 ), #8 ) ;
#293 = CIRCLE ( 'NONE', #32, 0.06249999999999997224 ) ;
#294 = DIRECTION ( 'NONE',  ( 1.000000000000000000, 2.978405439163479986E-17, 0.000000000000000000 ) ) ;
#295 = UNCERTAINTY_MEASURE_WITH_UNIT (LENGTH_MEASURE( 1.000000000000000082E-05 ), #127, 'distance_accuracy_value', 'NONE');
#296 =( CONVERSION_BASED_UNIT ( 'INCH', #290 ) LENGTH_UNIT ( ) NAMED_UNIT ( #98 ) );
#297 = PRODUCT ( '12017', '12017', '', ( #336 ) ) ;
#298 =( NAMED_UNIT ( * ) PLANE_ANGLE_UNIT ( ) SI_UNIT ( $, .RADIAN. ) );
#299 = STYLED_ITEM ( 'NONE', ( #29 ), #133 ) ;
#300 = EDGE_CURVE ( 'NONE', #161, #185, #293, .T. ) ;
#301 = DIRECTION ( 'NONE',  ( 0.000000000000000000, 0.000000000000000000, -1.000000000000000000 ) ) ;
#302 = COLOUR_RGB ( '',1.000000000000000000, 0.000000000000000000, 0.000000000000000000 ) ;
#303 = ORIENTED_EDGE ( 'NONE', *, *, #69, .F. ) ;
#304 = SURFACE_STYLE_FILL_AREA ( #179 ) ;
#305 = ORIENTED_EDGE ( 'NONE', *, *, #181, .F. ) ;
#306 = FILL_AREA_STYLE ('',( #274 ) ) ;
#307 = AXIS2_PLACEMENT_3D ( 'NONE', #55, #40, #85 ) ;
#308 = FACE_OUTER_BOUND ( 'NONE', #70, .T. ) ;
#309 = SPHERICAL_SURFACE ( 'NONE', #229, 0.06250000000000000000 ) ;
#310 = ORIENTED_EDGE ( 'NONE', *, *, #319, .F. ) ;
#311 = EDGE_CURVE ( 'NONE', #18, #275, #288, .T. ) ;
#312 = AXIS2_PLACEMENT_3D ( 'NONE', #39, #235, #337 ) ;
#313 = CIRCLE ( 'NONE', #67, 0.06250000000000000000 ) ;
#314 = SURFACE_SIDE_STYLE ('',( #344 ) ) ;
#315 = DIRECTION ( 'NONE',  ( 1.000000000000000000, 0.000000000000000000, 0.000000000000000000 ) ) ;
#316 = DIRECTION ( 'NONE',  ( 2.978405439163479370E-17, -1.000000000000000000, -0.000000000000000000 ) ) ;
#317 = PRESENTATION_LAYER_ASSIGNMENT (  '', '', ( #112 ) ) ;
#318 = PRODUCT_DEFINITION_SHAPE ( 'NONE', 'NONE',  #142 ) ;
#319 = EDGE_CURVE ( 'NONE', #100, #44, #232, .T. ) ;
#320 = ORIENTED_EDGE ( 'NONE', *, *, #54, .T. ) ;
#321 = MECHANICAL_DESIGN_GEOMETRIC_PRESENTATION_REPRESENTATION (  '', ( #343 ), #95 ) ;
#322 = EDGE_LOOP ( 'NONE', ( #250, #278 ) ) ;
#323 = SURFACE_STYLE_FILL_AREA ( #351 ) ;
#324 = AXIS2_PLACEMENT_3D ( 'NONE', #156, #254, #220 ) ;
#325 = AXIS2_PLACEMENT_3D ( 'NONE', #15, #57, #90 ) ;
#326 =( NAMED_UNIT ( * ) SI_UNIT ( $, .STERADIAN. ) SOLID_ANGLE_UNIT ( ) );
#327 = SURFACE_STYLE_FILL_AREA ( #218 ) ;
#328 =( LENGTH_UNIT ( ) NAMED_UNIT ( * ) SI_UNIT ( $, .METRE. ) );
#329 = MECHANICAL_DESIGN_GEOMETRIC_PRESENTATION_REPRESENTATION (  '', ( #292 ), #267 ) ;
#330 = AXIS2_PLACEMENT_3D ( 'NONE', #141, #291, #146 ) ;
#331 = ORIENTED_EDGE ( 'NONE', *, *, #176, .T. ) ;
#332 =( LENGTH_UNIT ( ) NAMED_UNIT ( * ) SI_UNIT ( $, .METRE. ) );
#333 = FILL_AREA_STYLE ('',( #165 ) ) ;
#334 = SURFACE_SIDE_STYLE ('',( #327 ) ) ;
#335 = EDGE_CURVE ( 'NONE', #44, #100, #80, .T. ) ;
#336 = PRODUCT_CONTEXT ( 'NONE', #266, 'mechanical' ) ;
#337 = DIRECTION ( 'NONE',  ( 0.000000000000000000, 0.000000000000000000, 1.000000000000000000 ) ) ;
#338 = MECHANICAL_DESIGN_GEOMETRIC_PRESENTATION_REPRESENTATION (  '', ( #89 ), #261 ) ;
#339 = CYLINDRICAL_SURFACE ( 'NONE', #312, 0.06249999999999997918 ) ;
#340 = DIRECTION ( 'NONE',  ( 0.000000000000000000, 0.000000000000000000, 1.000000000000000000 ) ) ;
#341 = DIRECTION ( 'NONE',  ( 2.978405439163479370E-17, -1.000000000000000000, -0.000000000000000000 ) ) ;
#342 = UNCERTAINTY_MEASURE_WITH_UNIT (LENGTH_MEASURE( 1.000000000000000082E-05 ), #27, 'distance_accuracy_value', 'NONE');
#343 = STYLED_ITEM ( 'NONE', ( #101 ), #239 ) ;
#344 = SURFACE_STYLE_FILL_AREA ( #174 ) ;
#345 = DIRECTION ( 'NONE',  ( 1.224646799147353207E-16, 3.647494687634621762E-33, 1.000000000000000000 ) ) ;
#346 = CARTESIAN_POINT ( 'NONE',  ( -7.654042494670957545E-18, 0.06250000000000000000, 0.000000000000000000 ) ) ;
#347 = VECTOR ( 'NONE', #117, 39.37007874015748143 ) ;
#348 = EDGE_LOOP ( 'NONE', ( #126, #74, #303, #135 ) ) ;
#349 = CARTESIAN_POINT ( 'NONE',  ( -7.446013597908698425E-18, 0.2500000000000000000, 0.000000000000000000 ) ) ;
#350 = VERTEX_POINT ( 'NONE', #144 ) ;
#351 = FILL_AREA_STYLE ('',( #249 ) ) ;
#352 = ORIENTED_EDGE ( 'NONE', *, *, #204, .T. ) ;
#353 = SURFACE_SIDE_STYLE ('',( #52 ) ) ;
ENDSEC;
END-ISO-10303-21;
