ISO-10303-21;
HEADER;
FILE_DESCRIPTION (( 'STEP AP214' ),
    '1' );
FILE_NAME ('Micro_SEM-375-03X.STEP',
    '2021-09-02T03:08:04',
    ( '' ),
    ( '' ),
    'SwSTEP 2.0',
    'SolidWorks 2020',
    '' );
FILE_SCHEMA (( 'AUTOMOTIVE_DESIGN' ));
ENDSEC;

DATA;
#1 = DIRECTION ( 'NONE',  ( 1.000000000000000000, 0.0000000000000000000, 0.0000000000000000000 ) ) ;
#2 = ORIENTED_EDGE ( 'NONE', *, *, #190, .T. ) ;
#3 = EDGE_CURVE ( 'NONE', #266, #66, #19, .T. ) ;
#4 = DIRECTION ( 'NONE',  ( 1.000000000000000000, 0.0000000000000000000, 0.0000000000000000000 ) ) ;
#5 = VECTOR ( 'NONE', #195, 39.37007874015748143 ) ;
#6 = EDGE_LOOP ( 'NONE', ( #74, #233, #2, #158 ) ) ;
#7 = DIRECTION ( 'NONE',  ( 0.0000000000000000000, 0.0000000000000000000, 1.000000000000000000 ) ) ;
#8 = LINE ( 'NONE', #118, #95 ) ;
#9 = CONICAL_SURFACE ( 'NONE', #297, 0.1873124999999999929, 0.1745329251994338915 ) ;
#10 = ORIENTED_EDGE ( 'NONE', *, *, #205, .F. ) ;
#11 = EDGE_CURVE ( 'NONE', #147, #236, #99, .T. ) ;
#12 = DIRECTION ( 'NONE',  ( -1.000000000000000000, 0.0000000000000000000, 1.224646799147352961E-16 ) ) ;
#13 = DIRECTION ( 'NONE',  ( 1.000000000000000000, 0.0000000000000000000, -0.0000000000000000000 ) ) ;
#14 = EDGE_CURVE ( 'NONE', #244, #18, #232, .T. ) ;
#15 = ORIENTED_EDGE ( 'NONE', *, *, #50, .T. ) ;
#16 = VECTOR ( 'NONE', #218, 39.37007874015748143 ) ;
#17 = CONICAL_SURFACE ( 'NONE', #243, 0.1725000000000001532, 0.7853981633974357335 ) ;
#18 = VERTEX_POINT ( 'NONE', #20 ) ;
#19 = CIRCLE ( 'NONE', #121, 0.1873124999999999929 ) ;
#20 = CARTESIAN_POINT ( 'NONE',  ( -0.1873124999999999929, 0.0000000000000000000, 4.587833071305771192E-17 ) ) ;
#21 = VECTOR ( 'NONE', #116, 39.37007874015748143 ) ;
#22 = CIRCLE ( 'NONE', #72, 0.1873124999999999929 ) ;
#23 = LENGTH_MEASURE_WITH_UNIT ( LENGTH_MEASURE( 0.02539999999999999897 ), #298 );
#24 = CARTESIAN_POINT ( 'NONE',  ( -0.1873124999999999929, 0.0000000000000000000, 2.293916535652885596E-17 ) ) ;
#25 = DIRECTION ( 'NONE',  ( 1.000000000000000000, 0.0000000000000000000, 0.0000000000000000000 ) ) ;
#26 = CARTESIAN_POINT ( 'NONE',  ( -0.1725000000000001532, 0.0000000000000000000, 2.000000000000000000 ) ) ;
#27 = DIRECTION ( 'NONE',  ( 0.0000000000000000000, 0.0000000000000000000, 1.000000000000000000 ) ) ;
#28 = FILL_AREA_STYLE_COLOUR ( '', #49 ) ;
#29 = EDGE_LOOP ( 'NONE', ( #84, #171 ) ) ;
#30 =( NAMED_UNIT ( * ) PLANE_ANGLE_UNIT ( ) SI_UNIT ( $, .RADIAN. ) );
#31 = VERTEX_POINT ( 'NONE', #82 ) ;
#32 = UNCERTAINTY_MEASURE_WITH_UNIT (LENGTH_MEASURE( 1.000000000000000082E-05 ), #172, 'distance_accuracy_value', 'NONE');
#33 = CARTESIAN_POINT ( 'NONE',  ( 0.1875000000000000278, 2.296212748401287726E-17, 1.984999999999999654 ) ) ;
#34 = VERTEX_POINT ( 'NONE', #107 ) ;
#35 = CARTESIAN_POINT ( 'NONE',  ( 0.1873125000000000484, 0.0000000000000000000, 0.6250000000000000000 ) ) ;
#36 = CARTESIAN_POINT ( 'NONE',  ( 0.0000000000000000000, 0.0000000000000000000, 0.0000000000000000000 ) ) ;
#37 = DIRECTION ( 'NONE',  ( 1.224646799147353207E-16, 0.0000000000000000000, 1.000000000000000000 ) ) ;
#38 = ADVANCED_BREP_SHAPE_REPRESENTATION ( 'Micro_SEM-375-03X', ( #132, #150 ), #45 ) ;
#39 = ORIENTED_EDGE ( 'NONE', *, *, #11, .T. ) ;
#40 = CIRCLE ( 'NONE', #229, 0.1875000000000000278 ) ;
#41 = CARTESIAN_POINT ( 'NONE',  ( 2.809237542898491532E-33, 0.0000000000000000000, 2.293916535652885596E-17 ) ) ;
#42 = DIRECTION ( 'NONE',  ( -1.224646799147353207E-16, -0.0000000000000000000, -1.000000000000000000 ) ) ;
#43 = EDGE_CURVE ( 'NONE', #236, #147, #188, .T. ) ;
#44 = DIRECTION ( 'NONE',  ( -0.0000000000000000000, -0.0000000000000000000, -1.000000000000000000 ) ) ;
#45 =( GEOMETRIC_REPRESENTATION_CONTEXT ( 3 ) GLOBAL_UNCERTAINTY_ASSIGNED_CONTEXT ( ( #261 ) ) GLOBAL_UNIT_ASSIGNED_CONTEXT ( ( #235, #30, #57 ) ) REPRESENTATION_CONTEXT ( 'NONE', 'WORKASPACE' ) );
#46 =( NAMED_UNIT ( * ) PLANE_ANGLE_UNIT ( ) SI_UNIT ( $, .RADIAN. ) );
#47 = DIRECTION ( 'NONE',  ( -0.0000000000000000000, -0.0000000000000000000, -1.000000000000000000 ) ) ;
#48 = STYLED_ITEM ( 'NONE', ( #208 ), #38 ) ;
#49 = COLOUR_RGB ( '',0.7921568627450980005, 0.8196078431372548767, 0.9333333333333333481 ) ;
#50 = EDGE_CURVE ( 'NONE', #66, #266, #268, .T. ) ;
#51 = FACE_OUTER_BOUND ( 'NONE', #29, .T. ) ;
#52 = ORIENTED_EDGE ( 'NONE', *, *, #216, .T. ) ;
#53 =( LENGTH_UNIT ( ) NAMED_UNIT ( * ) SI_UNIT ( $, .METRE. ) );
#54 = CYLINDRICAL_SURFACE ( 'NONE', #130, 0.1875000000000000278 ) ;
#55 = DIMENSIONAL_EXPONENTS ( 1.000000000000000000, 0.0000000000000000000, 0.0000000000000000000, 0.0000000000000000000, 0.0000000000000000000, 0.0000000000000000000, 0.0000000000000000000 ) ;
#56 = EDGE_CURVE ( 'NONE', #266, #34, #201, .T. ) ;
#57 =( NAMED_UNIT ( * ) SI_UNIT ( $, .STERADIAN. ) SOLID_ANGLE_UNIT ( ) );
#58 = ORIENTED_EDGE ( 'NONE', *, *, #224, .T. ) ;
#59 = PRESENTATION_LAYER_ASSIGNMENT (  '', '', ( #193 ) ) ;
#60 = CARTESIAN_POINT ( 'NONE',  ( -0.1873124999999999096, 2.293916535652885596E-17, 0.6250000000000000000 ) ) ;
#61 = PRODUCT_CONTEXT ( 'NONE', #211, 'mechanical' ) ;
#62 = DIRECTION ( 'NONE',  ( 0.0000000000000000000, 0.0000000000000000000, 1.000000000000000000 ) ) ;
#63 = DIRECTION ( 'NONE',  ( -1.000000000000000000, 0.0000000000000000000, 0.0000000000000000000 ) ) ;
#64 = VERTEX_POINT ( 'NONE', #155 ) ;
#65 = ADVANCED_FACE ( 'NONE', ( #104 ), #9, .T. ) ;
#66 = VERTEX_POINT ( 'NONE', #35 ) ;
#67 = DIRECTION ( 'NONE',  ( -1.000000000000000000, 0.0000000000000000000, 1.224646799147352961E-16 ) ) ;
#68 = FACE_OUTER_BOUND ( 'NONE', #96, .T. ) ;
#69 = ADVANCED_FACE ( 'NONE', ( #265 ), #134, .T. ) ;
#70 = CARTESIAN_POINT ( 'NONE',  ( 0.0000000000000000000, 0.0000000000000000000, 2.000000000000000000 ) ) ;
#71 = SURFACE_STYLE_FILL_AREA ( #275 ) ;
#72 = AXIS2_PLACEMENT_3D ( 'NONE', #228, #203, #299 ) ;
#73 = CARTESIAN_POINT ( 'NONE',  ( -0.1873124999999999096, 2.295064642027086507E-17, 0.6250000000000000000 ) ) ;
#74 = ORIENTED_EDGE ( 'NONE', *, *, #234, .F. ) ;
#75 = LENGTH_MEASURE_WITH_UNIT ( LENGTH_MEASURE( 0.02539999999999999897 ), #53 );
#76 = AXIS2_PLACEMENT_3D ( 'NONE', #70, #187, #114 ) ;
#77 = DIMENSIONAL_EXPONENTS ( 1.000000000000000000, 0.0000000000000000000, 0.0000000000000000000, 0.0000000000000000000, 0.0000000000000000000, 0.0000000000000000000, 0.0000000000000000000 ) ;
#78 = APPLICATION_CONTEXT ( 'automotive_design' ) ;
#79 = ORIENTED_EDGE ( 'NONE', *, *, #224, .F. ) ;
#80 = APPLICATION_PROTOCOL_DEFINITION ( 'draft international standard', 'automotive_design', 1998, #78 ) ;
#81 = VECTOR ( 'NONE', #89, 39.37007874015748143 ) ;
#82 = CARTESIAN_POINT ( 'NONE',  ( 0.1725000000000001532, 2.204364238465236130E-17, 2.000000000000000000 ) ) ;
#83 = CYLINDRICAL_SURFACE ( 'NONE', #109, 0.1873124999999999929 ) ;
#84 = ORIENTED_EDGE ( 'NONE', *, *, #166, .T. ) ;
#85 = PRODUCT_RELATED_PRODUCT_CATEGORY ( 'part', '', ( #162 ) ) ;
#86 = DIRECTION ( 'NONE',  ( 1.000000000000000000, 0.0000000000000000000, 0.0000000000000000000 ) ) ;
#87 = DIRECTION ( 'NONE',  ( 0.0000000000000000000, 0.0000000000000000000, 1.000000000000000000 ) ) ;
#88 =( NAMED_UNIT ( * ) SI_UNIT ( $, .STERADIAN. ) SOLID_ANGLE_UNIT ( ) );
#89 = DIRECTION ( 'NONE',  ( -1.224646799147353207E-16, -0.0000000000000000000, -1.000000000000000000 ) ) ;
#90 = AXIS2_PLACEMENT_3D ( 'NONE', #179, #101, #86 ) ;
#91 = CIRCLE ( 'NONE', #239, 0.1725000000000001532 ) ;
#92 = FACE_OUTER_BOUND ( 'NONE', #264, .T. ) ;
#93 = DIRECTION ( 'NONE',  ( 0.7071067811865386910, 8.659560562354824390E-17, -0.7071067811865563435 ) ) ;
#94 = MECHANICAL_DESIGN_GEOMETRIC_PRESENTATION_REPRESENTATION (  '', ( #193 ), #110 ) ;
#95 = VECTOR ( 'NONE', #93, 39.37007874015748143 ) ;
#96 = EDGE_LOOP ( 'NONE', ( #10, #15, #175, #128 ) ) ;
#97 = EDGE_CURVE ( 'NONE', #66, #181, #156, .T. ) ;
#98 = DIRECTION ( 'NONE',  ( -1.224646799147353207E-16, -0.0000000000000000000, -1.000000000000000000 ) ) ;
#99 = CIRCLE ( 'NONE', #129, 0.1875000000000000278 ) ;
#100 = FACE_OUTER_BOUND ( 'NONE', #120, .T. ) ;
#101 = DIRECTION ( 'NONE',  ( 0.0000000000000000000, 0.0000000000000000000, -1.000000000000000000 ) ) ;
#102 = ORIENTED_EDGE ( 'NONE', *, *, #97, .F. ) ;
#103 = AXIS2_PLACEMENT_3D ( 'NONE', #108, #47, #142 ) ;
#104 = FACE_OUTER_BOUND ( 'NONE', #137, .T. ) ;
#105 = ORIENTED_EDGE ( 'NONE', *, *, #97, .T. ) ;
#106 = ADVANCED_FACE ( 'NONE', ( #290 ), #83, .T. ) ;
#107 = CARTESIAN_POINT ( 'NONE',  ( -0.1874999999999999445, 0.0000000000000000000, 0.6260633653411784572 ) ) ;
#108 = CARTESIAN_POINT ( 'NONE',  ( 0.0000000000000000000, 0.0000000000000000000, 2.000000000000000000 ) ) ;
#109 = AXIS2_PLACEMENT_3D ( 'NONE', #180, #42, #191 ) ;
#110 =( GEOMETRIC_REPRESENTATION_CONTEXT ( 3 ) GLOBAL_UNCERTAINTY_ASSIGNED_CONTEXT ( ( #227 ) ) GLOBAL_UNIT_ASSIGNED_CONTEXT ( ( #167, #272, #88 ) ) REPRESENTATION_CONTEXT ( 'NONE', 'WORKASPACE' ) );
#111 = ADVANCED_FACE ( 'NONE', ( #206 ), #279, .T. ) ;
#112 = CARTESIAN_POINT ( 'NONE',  ( 7.667064964284941550E-17, 0.0000000000000000000, 0.6260633653411784572 ) ) ;
#113 = PRODUCT_DEFINITION_SHAPE ( 'NONE', 'NONE',  #247 ) ;
#114 = DIRECTION ( 'NONE',  ( -1.000000000000000000, 0.0000000000000000000, 0.0000000000000000000 ) ) ;
#115 = AXIS2_PLACEMENT_3D ( 'NONE', #151, #210, #4 ) ;
#116 = DIRECTION ( 'NONE',  ( -0.7071067811865386910, 0.0000000000000000000, -0.7071067811865563435 ) ) ;
#117 = DIMENSIONAL_EXPONENTS ( 1.000000000000000000, 0.0000000000000000000, 0.0000000000000000000, 0.0000000000000000000, 0.0000000000000000000, 0.0000000000000000000, 0.0000000000000000000 ) ;
#118 = CARTESIAN_POINT ( 'NONE',  ( 0.1725000000000001532, 2.112515728529185460E-17, 2.000000000000000000 ) ) ;
#119 = SURFACE_STYLE_USAGE ( .BOTH. , #231 ) ;
#120 = EDGE_LOOP ( 'NONE', ( #254, #270, #177, #102 ) ) ;
#121 = AXIS2_PLACEMENT_3D ( 'NONE', #220, #292, #63 ) ;
#122 = AXIS2_PLACEMENT_3D ( 'NONE', #127, #7, #212 ) ;
#123 = EDGE_CURVE ( 'NONE', #64, #147, #278, .T. ) ;
#124 = EDGE_LOOP ( 'NONE', ( #259, #213, #288, #238 ) ) ;
#125 = DIRECTION ( 'NONE',  ( -0.0000000000000000000, -0.0000000000000000000, -1.000000000000000000 ) ) ;
#126 = ORIENTED_EDGE ( 'NONE', *, *, #50, .F. ) ;
#127 = CARTESIAN_POINT ( 'NONE',  ( 0.0000000000000000000, 0.0000000000000000000, 0.0000000000000000000 ) ) ;
#128 = ORIENTED_EDGE ( 'NONE', *, *, #14, .F. ) ;
#129 = AXIS2_PLACEMENT_3D ( 'NONE', #135, #133, #215 ) ;
#130 = AXIS2_PLACEMENT_3D ( 'NONE', #145, #125, #230 ) ;
#131 = PRODUCT_DEFINITION_CONTEXT ( 'detailed design', #78, 'design' ) ;
#132 = MANIFOLD_SOLID_BREP ( 'Cut-Revolve1', #165 ) ;
#133 = DIRECTION ( 'NONE',  ( 0.0000000000000000000, 0.0000000000000000000, -1.000000000000000000 ) ) ;
#134 = PLANE ( 'NONE',  #173 ) ;
#135 = CARTESIAN_POINT ( 'NONE',  ( 0.0000000000000000000, 0.0000000000000000000, 1.984999999999999654 ) ) ;
#136 = ORIENTED_EDGE ( 'NONE', *, *, #281, .T. ) ;
#137 = EDGE_LOOP ( 'NONE', ( #283, #126, #105, #52 ) ) ;
#138 = SURFACE_STYLE_USAGE ( .BOTH. , #160 ) ;
#139 = PRESENTATION_STYLE_ASSIGNMENT (( #138 ) ) ;
#140 =( NAMED_UNIT ( * ) SI_UNIT ( $, .STERADIAN. ) SOLID_ANGLE_UNIT ( ) );
#141 = CYLINDRICAL_SURFACE ( 'NONE', #280, 0.1873124999999999929 ) ;
#142 = DIRECTION ( 'NONE',  ( -1.000000000000000000, 0.0000000000000000000, 0.0000000000000000000 ) ) ;
#143 = ADVANCED_FACE ( 'NONE', ( #92 ), #276, .T. ) ;
#144 = DIRECTION ( 'NONE',  ( 0.0000000000000000000, 0.0000000000000000000, -1.000000000000000000 ) ) ;
#145 = CARTESIAN_POINT ( 'NONE',  ( 0.0000000000000000000, 0.0000000000000000000, 2.000000000000000000 ) ) ;
#146 = DIRECTION ( 'NONE',  ( -0.0000000000000000000, -0.0000000000000000000, -1.000000000000000000 ) ) ;
#147 = VERTEX_POINT ( 'NONE', #249 ) ;
#148 = LENGTH_MEASURE_WITH_UNIT ( LENGTH_MEASURE( 0.02539999999999999897 ), #209 );
#149 = VECTOR ( 'NONE', #183, 39.37007874015747433 ) ;
#150 = AXIS2_PLACEMENT_3D ( 'NONE', #36, #291, #178 ) ;
#151 = CARTESIAN_POINT ( 'NONE',  ( 7.654042494670957853E-17, 0.0000000000000000000, 0.6250000000000000000 ) ) ;
#152 = ORIENTED_EDGE ( 'NONE', *, *, #190, .F. ) ;
#153 = ORIENTED_EDGE ( 'NONE', *, *, #281, .F. ) ;
#154 = PRESENTATION_LAYER_ASSIGNMENT (  '', '', ( #48 ) ) ;
#155 = CARTESIAN_POINT ( 'NONE',  ( -0.1725000000000001532, 0.0000000000000000000, 2.000000000000000000 ) ) ;
#156 = LINE ( 'NONE', #241, #16 ) ;
#157 = ADVANCED_FACE ( 'NONE', ( #245 ), #17, .T. ) ;
#158 = ORIENTED_EDGE ( 'NONE', *, *, #216, .F. ) ;
#159 = ORIENTED_EDGE ( 'NONE', *, *, #123, .T. ) ;
#160 = SURFACE_SIDE_STYLE ('',( #71 ) ) ;
#161 = LINE ( 'NONE', #246, #222 ) ;
#162 = PRODUCT ( 'Micro_SEM-375-03X', 'Micro_SEM-375-03X', '', ( #61 ) ) ;
#163 = CARTESIAN_POINT ( 'NONE',  ( 0.1873124999999999929, 2.293916535652885596E-17, -2.293916535652885596E-17 ) ) ;
#164 = CIRCLE ( 'NONE', #274, 0.1875000000000000278 ) ;
#165 = CLOSED_SHELL ( 'NONE', ( #106, #277, #157, #143, #256, #69, #111, #65, #184, #251 ) ) ;
#166 = EDGE_CURVE ( 'NONE', #18, #244, #22, .T. ) ;
#167 =( CONVERSION_BASED_UNIT ( 'INCH', #23 ) LENGTH_UNIT ( ) NAMED_UNIT ( #117 ) );
#168 = CARTESIAN_POINT ( 'NONE',  ( 0.1875000000000000278, 2.296212748401287726E-17, 2.000000000000000000 ) ) ;
#169 = MECHANICAL_DESIGN_GEOMETRIC_PRESENTATION_REPRESENTATION (  '', ( #48 ), #248 ) ;
#170 = FILL_AREA_STYLE ('',( #28 ) ) ;
#171 = ORIENTED_EDGE ( 'NONE', *, *, #14, .T. ) ;
#172 =( CONVERSION_BASED_UNIT ( 'INCH', #75 ) LENGTH_UNIT ( ) NAMED_UNIT ( #77 ) );
#173 = AXIS2_PLACEMENT_3D ( 'NONE', #217, #62, #13 ) ;
#174 = CARTESIAN_POINT ( 'NONE',  ( 0.1873124999999999929, 2.293916535652885596E-17, 0.0000000000000000000 ) ) ;
#175 = ORIENTED_EDGE ( 'NONE', *, *, #221, .T. ) ;
#176 = EDGE_CURVE ( 'NONE', #64, #31, #91, .T. ) ;
#177 = ORIENTED_EDGE ( 'NONE', *, *, #286, .T. ) ;
#178 = DIRECTION ( 'NONE',  ( 1.000000000000000000, 0.0000000000000000000, 0.0000000000000000000 ) ) ;
#179 = CARTESIAN_POINT ( 'NONE',  ( 0.0000000000000000000, 0.0000000000000000000, 1.984999999999999654 ) ) ;
#180 = CARTESIAN_POINT ( 'NONE',  ( 0.0000000000000000000, 0.0000000000000000000, 0.0000000000000000000 ) ) ;
#181 = VERTEX_POINT ( 'NONE', #296 ) ;
#182 = AXIS2_PLACEMENT_3D ( 'NONE', #237, #27, #1 ) ;
#183 = DIRECTION ( 'NONE',  ( -0.1736481776669311916, 2.126576849575783316E-17, 0.9848077530122080203 ) ) ;
#184 = ADVANCED_FACE ( 'NONE', ( #68 ), #141, .T. ) ;
#185 = CARTESIAN_POINT ( 'NONE',  ( 0.0000000000000000000, 0.0000000000000000000, 0.0000000000000000000 ) ) ;
#186 = DIRECTION ( 'NONE',  ( -1.000000000000000000, 0.0000000000000000000, 0.0000000000000000000 ) ) ;
#187 = DIRECTION ( 'NONE',  ( 0.0000000000000000000, 0.0000000000000000000, -1.000000000000000000 ) ) ;
#188 = CIRCLE ( 'NONE', #90, 0.1875000000000000278 ) ;
#189 = VECTOR ( 'NONE', #146, 39.37007874015748143 ) ;
#190 = EDGE_CURVE ( 'NONE', #147, #34, #161, .T. ) ;
#191 = DIRECTION ( 'NONE',  ( -1.000000000000000000, 0.0000000000000000000, 1.224646799147352961E-16 ) ) ;
#192 = DIRECTION ( 'NONE',  ( 1.000000000000000000, 0.0000000000000000000, 0.0000000000000000000 ) ) ;
#193 = STYLED_ITEM ( 'NONE', ( #139 ), #132 ) ;
#194 = APPLICATION_PROTOCOL_DEFINITION ( 'draft international standard', 'automotive_design', 1998, #211 ) ;
#195 = DIRECTION ( 'NONE',  ( -1.224646799147353207E-16, -0.0000000000000000000, -1.000000000000000000 ) ) ;
#196 = ORIENTED_EDGE ( 'NONE', *, *, #176, .F. ) ;
#197 = ORIENTED_EDGE ( 'NONE', *, *, #11, .F. ) ;
#198 = EDGE_LOOP ( 'NONE', ( #79, #136, #197, #255 ) ) ;
#199 = CARTESIAN_POINT ( 'NONE',  ( 7.654042494670957853E-17, 0.0000000000000000000, 0.6250000000000000000 ) ) ;
#200 = DIRECTION ( 'NONE',  ( -1.000000000000000000, 0.0000000000000000000, 0.0000000000000000000 ) ) ;
#201 = LINE ( 'NONE', #60, #149 ) ;
#202 = COLOUR_RGB ( '',0.7921568627450980005, 0.8196078431372548767, 0.9333333333333333481 ) ;
#203 = DIRECTION ( 'NONE',  ( -1.224646799147353207E-16, -0.0000000000000000000, -1.000000000000000000 ) ) ;
#204 = DIRECTION ( 'NONE',  ( -1.224646799147353207E-16, -0.0000000000000000000, -1.000000000000000000 ) ) ;
#205 = EDGE_CURVE ( 'NONE', #66, #244, #223, .T. ) ;
#206 = FACE_OUTER_BOUND ( 'NONE', #267, .T. ) ;
#207 = EDGE_LOOP ( 'NONE', ( #263, #58 ) ) ;
#208 = PRESENTATION_STYLE_ASSIGNMENT (( #119 ) ) ;
#209 =( LENGTH_UNIT ( ) NAMED_UNIT ( * ) SI_UNIT ( $, .METRE. ) );
#210 = DIRECTION ( 'NONE',  ( 1.224646799147353207E-16, 0.0000000000000000000, 1.000000000000000000 ) ) ;
#211 = APPLICATION_CONTEXT ( 'automotive_design' ) ;
#212 = DIRECTION ( 'NONE',  ( 1.000000000000000000, 0.0000000000000000000, -0.0000000000000000000 ) ) ;
#213 = ORIENTED_EDGE ( 'NONE', *, *, #205, .T. ) ;
#214 = PRODUCT_DEFINITION_FORMATION_WITH_SPECIFIED_SOURCE ( 'ANY', '', #162, .NOT_KNOWN. ) ;
#215 = DIRECTION ( 'NONE',  ( 1.000000000000000000, 0.0000000000000000000, 0.0000000000000000000 ) ) ;
#216 = EDGE_CURVE ( 'NONE', #181, #34, #164, .T. ) ;
#217 = CARTESIAN_POINT ( 'NONE',  ( 0.0000000000000000000, 0.0000000000000000000, 2.000000000000000000 ) ) ;
#218 = DIRECTION ( 'NONE',  ( 0.1736481776669313859, 0.0000000000000000000, 0.9848077530122077983 ) ) ;
#219 = DIRECTION ( 'NONE',  ( -1.224646799147353207E-16, -0.0000000000000000000, -1.000000000000000000 ) ) ;
#220 = CARTESIAN_POINT ( 'NONE',  ( 7.654042494670957853E-17, 0.0000000000000000000, 0.6250000000000000000 ) ) ;
#221 = EDGE_CURVE ( 'NONE', #266, #18, #225, .T. ) ;
#222 = VECTOR ( 'NONE', #44, 39.37007874015748143 ) ;
#223 = LINE ( 'NONE', #163, #81 ) ;
#224 = EDGE_CURVE ( 'NONE', #31, #64, #269, .T. ) ;
#225 = LINE ( 'NONE', #24, #5 ) ;
#226 = CARTESIAN_POINT ( 'NONE',  ( 0.0000000000000000000, 0.0000000000000000000, 2.000000000000000000 ) ) ;
#227 = UNCERTAINTY_MEASURE_WITH_UNIT (LENGTH_MEASURE( 1.000000000000000082E-05 ), #167, 'distance_accuracy_value', 'NONE');
#228 = CARTESIAN_POINT ( 'NONE',  ( 2.809237542898491532E-33, 0.0000000000000000000, 2.293916535652885596E-17 ) ) ;
#229 = AXIS2_PLACEMENT_3D ( 'NONE', #252, #98, #192 ) ;
#230 = DIRECTION ( 'NONE',  ( -1.000000000000000000, 0.0000000000000000000, 0.0000000000000000000 ) ) ;
#231 = SURFACE_SIDE_STYLE ('',( #253 ) ) ;
#232 = CIRCLE ( 'NONE', #273, 0.1873124999999999929 ) ;
#233 = ORIENTED_EDGE ( 'NONE', *, *, #43, .T. ) ;
#234 = EDGE_CURVE ( 'NONE', #236, #181, #257, .T. ) ;
#235 =( CONVERSION_BASED_UNIT ( 'INCH', #148 ) LENGTH_UNIT ( ) NAMED_UNIT ( #55 ) );
#236 = VERTEX_POINT ( 'NONE', #33 ) ;
#237 = CARTESIAN_POINT ( 'NONE',  ( 0.0000000000000000000, 0.0000000000000000000, 2.000000000000000000 ) ) ;
#238 = ORIENTED_EDGE ( 'NONE', *, *, #221, .F. ) ;
#239 = AXIS2_PLACEMENT_3D ( 'NONE', #294, #87, #25 ) ;
#240 = DIRECTION ( 'NONE',  ( 1.000000000000000000, 0.0000000000000000000, 0.0000000000000000000 ) ) ;
#241 = CARTESIAN_POINT ( 'NONE',  ( 0.1873125000000000484, 0.0000000000000000000, 0.6250000000000000000 ) ) ;
#242 = DIRECTION ( 'NONE',  ( -1.224646799147353207E-16, -0.0000000000000000000, -1.000000000000000000 ) ) ;
#243 = AXIS2_PLACEMENT_3D ( 'NONE', #226, #144, #186 ) ;
#244 = VERTEX_POINT ( 'NONE', #174 ) ;
#245 = FACE_OUTER_BOUND ( 'NONE', #198, .T. ) ;
#246 = CARTESIAN_POINT ( 'NONE',  ( -0.1875000000000000278, 0.0000000000000000000, 2.000000000000000000 ) ) ;
#247 = PRODUCT_DEFINITION ( 'UNKNOWN', '', #214, #131 ) ;
#248 =( GEOMETRIC_REPRESENTATION_CONTEXT ( 3 ) GLOBAL_UNCERTAINTY_ASSIGNED_CONTEXT ( ( #32 ) ) GLOBAL_UNIT_ASSIGNED_CONTEXT ( ( #172, #46, #140 ) ) REPRESENTATION_CONTEXT ( 'NONE', 'WORKASPACE' ) );
#249 = CARTESIAN_POINT ( 'NONE',  ( -0.1875000000000000278, 0.0000000000000000000, 1.984999999999999654 ) ) ;
#250 = FILL_AREA_STYLE_COLOUR ( '', #202 ) ;
#251 = ADVANCED_FACE ( 'NONE', ( #51 ), #282, .F. ) ;
#252 = CARTESIAN_POINT ( 'NONE',  ( 7.667064964284941550E-17, 0.0000000000000000000, 0.6260633653411784572 ) ) ;
#253 = SURFACE_STYLE_FILL_AREA ( #170 ) ;
#254 = ORIENTED_EDGE ( 'NONE', *, *, #3, .F. ) ;
#255 = ORIENTED_EDGE ( 'NONE', *, *, #123, .F. ) ;
#256 = ADVANCED_FACE ( 'NONE', ( #284 ), #54, .T. ) ;
#257 = LINE ( 'NONE', #168, #189 ) ;
#258 = AXIS2_PLACEMENT_3D ( 'NONE', #287, #242, #200 ) ;
#259 = ORIENTED_EDGE ( 'NONE', *, *, #3, .T. ) ;
#260 = CONICAL_SURFACE ( 'NONE', #115, 0.1873124999999999929, 0.1745329251994338915 ) ;
#261 = UNCERTAINTY_MEASURE_WITH_UNIT (LENGTH_MEASURE( 1.000000000000000082E-05 ), #235, 'distance_accuracy_value', 'NONE');
#262 = ORIENTED_EDGE ( 'NONE', *, *, #43, .F. ) ;
#263 = ORIENTED_EDGE ( 'NONE', *, *, #176, .T. ) ;
#264 = EDGE_LOOP ( 'NONE', ( #39, #285, #293, #152 ) ) ;
#265 = FACE_OUTER_BOUND ( 'NONE', #207, .T. ) ;
#266 = VERTEX_POINT ( 'NONE', #73 ) ;
#267 = EDGE_LOOP ( 'NONE', ( #153, #196, #159, #262 ) ) ;
#268 = CIRCLE ( 'NONE', #258, 0.1873124999999999929 ) ;
#269 = CIRCLE ( 'NONE', #182, 0.1725000000000001532 ) ;
#270 = ORIENTED_EDGE ( 'NONE', *, *, #56, .T. ) ;
#271 = DIRECTION ( 'NONE',  ( -1.224646799147353207E-16, -0.0000000000000000000, -1.000000000000000000 ) ) ;
#272 =( NAMED_UNIT ( * ) PLANE_ANGLE_UNIT ( ) SI_UNIT ( $, .RADIAN. ) );
#273 = AXIS2_PLACEMENT_3D ( 'NONE', #41, #219, #12 ) ;
#274 = AXIS2_PLACEMENT_3D ( 'NONE', #112, #204, #295 ) ;
#275 = FILL_AREA_STYLE ('',( #250 ) ) ;
#276 = CYLINDRICAL_SURFACE ( 'NONE', #103, 0.1875000000000000278 ) ;
#277 = ADVANCED_FACE ( 'NONE', ( #100 ), #260, .T. ) ;
#278 = LINE ( 'NONE', #26, #21 ) ;
#279 = CONICAL_SURFACE ( 'NONE', #76, 0.1725000000000001532, 0.7853981633974357335 ) ;
#280 = AXIS2_PLACEMENT_3D ( 'NONE', #185, #271, #67 ) ;
#281 = EDGE_CURVE ( 'NONE', #31, #236, #8, .T. ) ;
#282 = PLANE ( 'NONE',  #122 ) ;
#283 = ORIENTED_EDGE ( 'NONE', *, *, #56, .F. ) ;
#284 = FACE_OUTER_BOUND ( 'NONE', #6, .T. ) ;
#285 = ORIENTED_EDGE ( 'NONE', *, *, #234, .T. ) ;
#286 = EDGE_CURVE ( 'NONE', #34, #181, #40, .T. ) ;
#287 = CARTESIAN_POINT ( 'NONE',  ( 7.654042494670957853E-17, 0.0000000000000000000, 0.6250000000000000000 ) ) ;
#288 = ORIENTED_EDGE ( 'NONE', *, *, #166, .F. ) ;
#289 = SHAPE_DEFINITION_REPRESENTATION ( #113, #38 ) ;
#290 = FACE_OUTER_BOUND ( 'NONE', #124, .T. ) ;
#291 = DIRECTION ( 'NONE',  ( 0.0000000000000000000, 0.0000000000000000000, 1.000000000000000000 ) ) ;
#292 = DIRECTION ( 'NONE',  ( -1.224646799147353207E-16, -0.0000000000000000000, -1.000000000000000000 ) ) ;
#293 = ORIENTED_EDGE ( 'NONE', *, *, #286, .F. ) ;
#294 = CARTESIAN_POINT ( 'NONE',  ( 0.0000000000000000000, 0.0000000000000000000, 2.000000000000000000 ) ) ;
#295 = DIRECTION ( 'NONE',  ( 1.000000000000000000, 0.0000000000000000000, 0.0000000000000000000 ) ) ;
#296 = CARTESIAN_POINT ( 'NONE',  ( 0.1875000000000000833, 2.296212748401288650E-17, 0.6260633653411784572 ) ) ;
#297 = AXIS2_PLACEMENT_3D ( 'NONE', #199, #37, #240 ) ;
#298 =( LENGTH_UNIT ( ) NAMED_UNIT ( * ) SI_UNIT ( $, .METRE. ) );
#299 = DIRECTION ( 'NONE',  ( -1.000000000000000000, 0.0000000000000000000, 1.224646799147352961E-16 ) ) ;
ENDSEC;
END-ISO-10303-21;
