ISO-10303-21;
HEADER;
FILE_DESCRIPTION (( 'STEP AP214' ),
    '1' );
FILE_NAME ('Micro_EMS-250-3.STEP',
    '2021-09-01T17:49:25',
    ( '' ),
    ( '' ),
    'SwSTEP 2.0',
    'SolidWorks 2020',
    '' );
FILE_SCHEMA (( 'AUTOMOTIVE_DESIGN' ));
ENDSEC;

DATA;
#1 = CARTESIAN_POINT ( 'NONE',  ( 0.0000000000000000000, 0.0000000000000000000, 2.485000000000000320 ) ) ;
#2 = EDGE_CURVE ( 'NONE', #92, #152, #227, .T. ) ;
#3 = DIRECTION ( 'NONE',  ( 0.0000000000000000000, 0.0000000000000000000, -1.000000000000000000 ) ) ;
#4 = ORIENTED_EDGE ( 'NONE', *, *, #114, .F. ) ;
#5 = CIRCLE ( 'NONE', #9, 0.1250000000000000000 ) ;
#6 = UNCERTAINTY_MEASURE_WITH_UNIT (LENGTH_MEASURE( 1.000000000000000082E-05 ), #237, 'distance_accuracy_value', 'NONE');
#7 = PRODUCT_CONTEXT ( 'NONE', #18, 'mechanical' ) ;
#8 = ORIENTED_EDGE ( 'NONE', *, *, #243, .T. ) ;
#9 = AXIS2_PLACEMENT_3D ( 'NONE', #1, #3, #181 ) ;
#10 = DIRECTION ( 'NONE',  ( -1.000000000000000000, 0.0000000000000000000, 1.224646799147353454E-16 ) ) ;
#11 = DIRECTION ( 'NONE',  ( -1.224646799147353207E-16, -0.0000000000000000000, -1.000000000000000000 ) ) ;
#12 = ADVANCED_FACE ( 'NONE', ( #169 ), #262, .T. ) ;
#13 = CARTESIAN_POINT ( 'NONE',  ( 0.0000000000000000000, 0.0000000000000000000, 2.500000000000000000 ) ) ;
#14 = LINE ( 'NONE', #38, #185 ) ;
#15 = DIRECTION ( 'NONE',  ( -1.000000000000000000, 0.0000000000000000000, 1.224646799147353454E-16 ) ) ;
#16 = CARTESIAN_POINT ( 'NONE',  ( 0.1248750000000000970, 0.0000000000000000000, 0.7500000000000001110 ) ) ;
#17 = DIRECTION ( 'NONE',  ( 1.000000000000000000, 0.0000000000000000000, 0.0000000000000000000 ) ) ;
#18 = APPLICATION_CONTEXT ( 'automotive_design' ) ;
#19 = DIRECTION ( 'NONE',  ( -0.0000000000000000000, -0.0000000000000000000, -1.000000000000000000 ) ) ;
#20 = ORIENTED_EDGE ( 'NONE', *, *, #299, .T. ) ;
#21 = ORIENTED_EDGE ( 'NONE', *, *, #129, .T. ) ;
#22 = SURFACE_STYLE_FILL_AREA ( #111 ) ;
#23 = PRESENTATION_LAYER_ASSIGNMENT (  '', '', ( #170 ) ) ;
#24 = AXIS2_PLACEMENT_3D ( 'NONE', #137, #217, #151 ) ;
#25 = CARTESIAN_POINT ( 'NONE',  ( 0.0000000000000000000, 0.0000000000000000000, 0.0000000000000000000 ) ) ;
#26 = EDGE_CURVE ( 'NONE', #45, #67, #90, .T. ) ;
#27 = DIRECTION ( 'NONE',  ( 0.0000000000000000000, 0.0000000000000000000, -1.000000000000000000 ) ) ;
#28 =( GEOMETRIC_REPRESENTATION_CONTEXT ( 3 ) GLOBAL_UNCERTAINTY_ASSIGNED_CONTEXT ( ( #112 ) ) GLOBAL_UNIT_ASSIGNED_CONTEXT ( ( #274, #76, #127 ) ) REPRESENTATION_CONTEXT ( 'NONE', 'WORKASPACE' ) );
#29 = AXIS2_PLACEMENT_3D ( 'NONE', #107, #183, #278 ) ;
#30 = DIRECTION ( 'NONE',  ( 1.000000000000000000, 0.0000000000000000000, 0.0000000000000000000 ) ) ;
#31 = CARTESIAN_POINT ( 'NONE',  ( 1.872825028598994811E-33, 0.0000000000000000000, 1.529277690435257475E-17 ) ) ;
#32 = VERTEX_POINT ( 'NONE', #268 ) ;
#33 = VECTOR ( 'NONE', #124, 39.37007874015748143 ) ;
#34 = DIRECTION ( 'NONE',  ( -1.000000000000000000, 0.0000000000000000000, 1.224646799147353454E-16 ) ) ;
#35 = CARTESIAN_POINT ( 'NONE',  ( 0.0000000000000000000, 0.0000000000000000000, 2.500000000000000000 ) ) ;
#36 = EDGE_CURVE ( 'NONE', #141, #32, #158, .T. ) ;
#37 = FILL_AREA_STYLE ('',( #193 ) ) ;
#38 = CARTESIAN_POINT ( 'NONE',  ( -0.1250000000000000000, 0.0000000000000000000, 2.500000000000000000 ) ) ;
#39 = AXIS2_PLACEMENT_3D ( 'NONE', #263, #60, #117 ) ;
#40 = ORIENTED_EDGE ( 'NONE', *, *, #66, .T. ) ;
#41 = ORIENTED_EDGE ( 'NONE', *, *, #264, .F. ) ;
#42 = DIMENSIONAL_EXPONENTS ( 1.000000000000000000, 0.0000000000000000000, 0.0000000000000000000, 0.0000000000000000000, 0.0000000000000000000, 0.0000000000000000000, 0.0000000000000000000 ) ;
#43 = LENGTH_MEASURE_WITH_UNIT ( LENGTH_MEASURE( 0.02539999999999999897 ), #57 );
#44 = DIRECTION ( 'NONE',  ( 1.000000000000000000, 0.0000000000000000000, 0.0000000000000000000 ) ) ;
#45 = VERTEX_POINT ( 'NONE', #61 ) ;
#46 = ORIENTED_EDGE ( 'NONE', *, *, #212, .T. ) ;
#47 = SURFACE_SIDE_STYLE ('',( #22 ) ) ;
#48 = AXIS2_PLACEMENT_3D ( 'NONE', #85, #11, #194 ) ;
#49 = EDGE_CURVE ( 'NONE', #32, #141, #287, .T. ) ;
#50 = PRESENTATION_STYLE_ASSIGNMENT (( #208 ) ) ;
#51 = EDGE_LOOP ( 'NONE', ( #279, #21, #136, #145 ) ) ;
#52 = EDGE_CURVE ( 'NONE', #177, #92, #14, .T. ) ;
#53 = CIRCLE ( 'NONE', #142, 0.1248749999999999999 ) ;
#54 = EDGE_LOOP ( 'NONE', ( #100, #40, #216, #148 ) ) ;
#55 = ADVANCED_FACE ( 'NONE', ( #154 ), #139, .T. ) ;
#56 = PRODUCT_RELATED_PRODUCT_CATEGORY ( 'part', '', ( #239 ) ) ;
#57 =( LENGTH_UNIT ( ) NAMED_UNIT ( * ) SI_UNIT ( $, .METRE. ) );
#58 = ORIENTED_EDGE ( 'NONE', *, *, #264, .T. ) ;
#59 = CIRCLE ( 'NONE', #89, 0.1250000000000000000 ) ;
#60 = DIRECTION ( 'NONE',  ( -1.224646799147353207E-16, -0.0000000000000000000, -1.000000000000000000 ) ) ;
#61 = CARTESIAN_POINT ( 'NONE',  ( 0.1100000000000001948, 1.438959988998141146E-17, 2.500000000000000000 ) ) ;
#62 = AXIS2_PLACEMENT_3D ( 'NONE', #255, #213, #86 ) ;
#63 = ADVANCED_FACE ( 'NONE', ( #230 ), #224, .T. ) ;
#64 = CYLINDRICAL_SURFACE ( 'NONE', #164, 0.1250000000000000000 ) ;
#65 = CARTESIAN_POINT ( 'NONE',  ( 1.872825028598994811E-33, 0.0000000000000000000, 1.529277690435257475E-17 ) ) ;
#66 = EDGE_CURVE ( 'NONE', #67, #152, #218, .T. ) ;
#67 = VERTEX_POINT ( 'NONE', #102 ) ;
#68 = CIRCLE ( 'NONE', #24, 0.1100000000000001948 ) ;
#69 = CARTESIAN_POINT ( 'NONE',  ( 0.1248749999999999999, 1.529277690435257475E-17, -1.529277690435257475E-17 ) ) ;
#70 = ORIENTED_EDGE ( 'NONE', *, *, #290, .F. ) ;
#71 = CARTESIAN_POINT ( 'NONE',  ( 9.184850993605150903E-17, 0.0000000000000000000, 0.7500000000000001110 ) ) ;
#72 = VERTEX_POINT ( 'NONE', #78 ) ;
#73 = ADVANCED_FACE ( 'NONE', ( #179 ), #126, .T. ) ;
#74 = CARTESIAN_POINT ( 'NONE',  ( 0.1248750000000000970, 0.0000000000000000000, 0.7500000000000001110 ) ) ;
#75 = CARTESIAN_POINT ( 'NONE',  ( 0.1250000000000000000, 1.530808498934191509E-17, 2.500000000000000000 ) ) ;
#76 =( NAMED_UNIT ( * ) PLANE_ANGLE_UNIT ( ) SI_UNIT ( $, .RADIAN. ) );
#77 = VECTOR ( 'NONE', #248, 39.37007874015748143 ) ;
#78 = CARTESIAN_POINT ( 'NONE',  ( 0.1248749999999999999, 1.529277690435257475E-17, 0.0000000000000000000 ) ) ;
#79 =( LENGTH_UNIT ( ) NAMED_UNIT ( * ) SI_UNIT ( $, .METRE. ) );
#80 = ADVANCED_FACE ( 'NONE', ( #116 ), #219, .T. ) ;
#81 = SHAPE_DEFINITION_REPRESENTATION ( #190, #160 ) ;
#82 = VECTOR ( 'NONE', #87, 39.37007874015748143 ) ;
#83 = MANIFOLD_SOLID_BREP ( 'Cut-Revolve1', #285 ) ;
#84 = CARTESIAN_POINT ( 'NONE',  ( 0.0000000000000000000, 0.0000000000000000000, 0.0000000000000000000 ) ) ;
#85 = CARTESIAN_POINT ( 'NONE',  ( 9.193532640014472135E-17, 0.0000000000000000000, 0.7507089102274522308 ) ) ;
#86 = DIRECTION ( 'NONE',  ( -1.000000000000000000, 0.0000000000000000000, 0.0000000000000000000 ) ) ;
#87 = DIRECTION ( 'NONE',  ( -1.224646799147353207E-16, -0.0000000000000000000, -1.000000000000000000 ) ) ;
#88 = CARTESIAN_POINT ( 'NONE',  ( 0.1100000000000001948, 1.347111479062090784E-17, 2.500000000000000000 ) ) ;
#89 = AXIS2_PLACEMENT_3D ( 'NONE', #250, #27, #207 ) ;
#90 = LINE ( 'NONE', #88, #214 ) ;
#91 = PRODUCT_DEFINITION ( 'UNKNOWN', '', #201, #167 ) ;
#92 = VERTEX_POINT ( 'NONE', #96 ) ;
#93 = ORIENTED_EDGE ( 'NONE', *, *, #241, .F. ) ;
#94 = COLOUR_RGB ( '',0.7921568627450980005, 0.8196078431372548767, 0.9333333333333333481 ) ;
#95 = FACE_OUTER_BOUND ( 'NONE', #235, .T. ) ;
#96 = CARTESIAN_POINT ( 'NONE',  ( -0.1249999999999999167, 0.0000000000000000000, 0.7507089102274522308 ) ) ;
#97 = EDGE_CURVE ( 'NONE', #141, #72, #269, .T. ) ;
#98 = ORIENTED_EDGE ( 'NONE', *, *, #143, .F. ) ;
#99 = SURFACE_STYLE_FILL_AREA ( #37 ) ;
#100 = ORIENTED_EDGE ( 'NONE', *, *, #290, .T. ) ;
#101 = AXIS2_PLACEMENT_3D ( 'NONE', #65, #267, #15 ) ;
#102 = CARTESIAN_POINT ( 'NONE',  ( 0.1250000000000000000, 1.530808498934191509E-17, 2.485000000000000320 ) ) ;
#103 = ORIENTED_EDGE ( 'NONE', *, *, #26, .T. ) ;
#104 = DIRECTION ( 'NONE',  ( 0.1736481776669314137, 0.0000000000000000000, 0.9848077530122077983 ) ) ;
#105 = ADVANCED_FACE ( 'NONE', ( #95 ), #113, .T. ) ;
#106 = LINE ( 'NONE', #276, #77 ) ;
#107 = CARTESIAN_POINT ( 'NONE',  ( 0.0000000000000000000, 0.0000000000000000000, 2.500000000000000000 ) ) ;
#108 = AXIS2_PLACEMENT_3D ( 'NONE', #238, #234, #30 ) ;
#109 = FACE_OUTER_BOUND ( 'NONE', #156, .T. ) ;
#110 = ORIENTED_EDGE ( 'NONE', *, *, #243, .F. ) ;
#111 = FILL_AREA_STYLE ('',( #254 ) ) ;
#112 = UNCERTAINTY_MEASURE_WITH_UNIT (LENGTH_MEASURE( 1.000000000000000082E-05 ), #274, 'distance_accuracy_value', 'NONE');
#113 = CYLINDRICAL_SURFACE ( 'NONE', #192, 0.1248749999999999999 ) ;
#114 = EDGE_CURVE ( 'NONE', #45, #273, #68, .T. ) ;
#115 = DIRECTION ( 'NONE',  ( -1.000000000000000000, 0.0000000000000000000, 0.0000000000000000000 ) ) ;
#116 = FACE_OUTER_BOUND ( 'NONE', #251, .T. ) ;
#117 = DIRECTION ( 'NONE',  ( -1.000000000000000000, 0.0000000000000000000, 0.0000000000000000000 ) ) ;
#118 = DIRECTION ( 'NONE',  ( -1.224646799147353207E-16, -0.0000000000000000000, -1.000000000000000000 ) ) ;
#119 = MECHANICAL_DESIGN_GEOMETRIC_PRESENTATION_REPRESENTATION (  '', ( #170 ), #206 ) ;
#120 = DIRECTION ( 'NONE',  ( -1.224646799147353207E-16, -0.0000000000000000000, -1.000000000000000000 ) ) ;
#121 = LINE ( 'NONE', #203, #33 ) ;
#122 = DIRECTION ( 'NONE',  ( -1.224646799147353207E-16, -0.0000000000000000000, -1.000000000000000000 ) ) ;
#123 = ORIENTED_EDGE ( 'NONE', *, *, #52, .T. ) ;
#124 = DIRECTION ( 'NONE',  ( -0.7071067811865499042, 0.0000000000000000000, -0.7071067811865451302 ) ) ;
#125 = AXIS2_PLACEMENT_3D ( 'NONE', #282, #259, #150 ) ;
#126 = PLANE ( 'NONE',  #29 ) ;
#127 =( NAMED_UNIT ( * ) SI_UNIT ( $, .STERADIAN. ) SOLID_ANGLE_UNIT ( ) );
#128 = APPLICATION_CONTEXT ( 'automotive_design' ) ;
#129 = EDGE_CURVE ( 'NONE', #32, #92, #132, .T. ) ;
#130 = AXIS2_PLACEMENT_3D ( 'NONE', #35, #133, #289 ) ;
#131 = FACE_OUTER_BOUND ( 'NONE', #284, .T. ) ;
#132 = LINE ( 'NONE', #202, #191 ) ;
#133 = DIRECTION ( 'NONE',  ( -0.0000000000000000000, -0.0000000000000000000, -1.000000000000000000 ) ) ;
#134 = APPLICATION_PROTOCOL_DEFINITION ( 'draft international standard', 'automotive_design', 1998, #128 ) ;
#135 = ORIENTED_EDGE ( 'NONE', *, *, #155, .F. ) ;
#136 = ORIENTED_EDGE ( 'NONE', *, *, #2, .T. ) ;
#137 = CARTESIAN_POINT ( 'NONE',  ( 0.0000000000000000000, 0.0000000000000000000, 2.500000000000000000 ) ) ;
#138 = CARTESIAN_POINT ( 'NONE',  ( 9.184850993605150903E-17, 0.0000000000000000000, 0.7500000000000001110 ) ) ;
#139 = CYLINDRICAL_SURFACE ( 'NONE', #257, 0.1248749999999999999 ) ;
#140 =( NAMED_UNIT ( * ) PLANE_ANGLE_UNIT ( ) SI_UNIT ( $, .RADIAN. ) );
#141 = VERTEX_POINT ( 'NONE', #16 ) ;
#142 = AXIS2_PLACEMENT_3D ( 'NONE', #31, #240, #10 ) ;
#143 = EDGE_CURVE ( 'NONE', #152, #92, #149, .T. ) ;
#144 = DIRECTION ( 'NONE',  ( 1.000000000000000000, 0.0000000000000000000, 0.0000000000000000000 ) ) ;
#145 = ORIENTED_EDGE ( 'NONE', *, *, #299, .F. ) ;
#146 = CARTESIAN_POINT ( 'NONE',  ( -0.1100000000000001948, 0.0000000000000000000, 2.500000000000000000 ) ) ;
#147 = ORIENTED_EDGE ( 'NONE', *, *, #36, .T. ) ;
#148 = ORIENTED_EDGE ( 'NONE', *, *, #52, .F. ) ;
#149 = CIRCLE ( 'NONE', #229, 0.1250000000000000000 ) ;
#150 = DIRECTION ( 'NONE',  ( -1.000000000000000000, 0.0000000000000000000, 0.0000000000000000000 ) ) ;
#151 = DIRECTION ( 'NONE',  ( 1.000000000000000000, 0.0000000000000000000, 0.0000000000000000000 ) ) ;
#152 = VERTEX_POINT ( 'NONE', #293 ) ;
#153 = ORIENTED_EDGE ( 'NONE', *, *, #36, .F. ) ;
#154 = FACE_OUTER_BOUND ( 'NONE', #197, .T. ) ;
#155 = EDGE_CURVE ( 'NONE', #210, #72, #53, .T. ) ;
#156 = EDGE_LOOP ( 'NONE', ( #272, #153, #20, #249 ) ) ;
#157 = CARTESIAN_POINT ( 'NONE',  ( -0.1248749999999999999, 0.0000000000000000000, 3.058555380870514950E-17 ) ) ;
#158 = CIRCLE ( 'NONE', #39, 0.1248749999999999999 ) ;
#159 = ORIENTED_EDGE ( 'NONE', *, *, #66, .F. ) ;
#160 = ADVANCED_BREP_SHAPE_REPRESENTATION ( 'Micro_EMS-250-3', ( #83, #108 ), #271 ) ;
#161 = ORIENTED_EDGE ( 'NONE', *, *, #97, .F. ) ;
#162 = PLANE ( 'NONE',  #233 ) ;
#163 = APPLICATION_PROTOCOL_DEFINITION ( 'draft international standard', 'automotive_design', 1998, #18 ) ;
#164 = AXIS2_PLACEMENT_3D ( 'NONE', #13, #291, #115 ) ;
#165 = ORIENTED_EDGE ( 'NONE', *, *, #26, .F. ) ;
#166 = CONICAL_SURFACE ( 'NONE', #242, 0.1248749999999999999, 0.1745329251994339192 ) ;
#167 = PRODUCT_DEFINITION_CONTEXT ( 'detailed design', #128, 'design' ) ;
#168 =( NAMED_UNIT ( * ) PLANE_ANGLE_UNIT ( ) SI_UNIT ( $, .RADIAN. ) );
#169 = FACE_OUTER_BOUND ( 'NONE', #54, .T. ) ;
#170 = STYLED_ITEM ( 'NONE', ( #176 ), #83 ) ;
#171 = CARTESIAN_POINT ( 'NONE',  ( 9.193532640014472135E-17, 0.0000000000000000000, 0.7507089102274522308 ) ) ;
#172 = ORIENTED_EDGE ( 'NONE', *, *, #209, .T. ) ;
#173 = ADVANCED_FACE ( 'NONE', ( #131 ), #64, .T. ) ;
#174 = AXIS2_PLACEMENT_3D ( 'NONE', #71, #252, #144 ) ;
#175 = FACE_OUTER_BOUND ( 'NONE', #51, .T. ) ;
#176 = PRESENTATION_STYLE_ASSIGNMENT (( #261 ) ) ;
#177 = VERTEX_POINT ( 'NONE', #221 ) ;
#178 = CIRCLE ( 'NONE', #101, 0.1248749999999999999 ) ;
#179 = FACE_OUTER_BOUND ( 'NONE', #292, .T. ) ;
#180 = EDGE_LOOP ( 'NONE', ( #265, #172 ) ) ;
#181 = DIRECTION ( 'NONE',  ( 1.000000000000000000, 0.0000000000000000000, 0.0000000000000000000 ) ) ;
#182 = LENGTH_MEASURE_WITH_UNIT ( LENGTH_MEASURE( 0.02539999999999999897 ), #295 );
#183 = DIRECTION ( 'NONE',  ( 0.0000000000000000000, 0.0000000000000000000, 1.000000000000000000 ) ) ;
#184 = ORIENTED_EDGE ( 'NONE', *, *, #212, .F. ) ;
#185 = VECTOR ( 'NONE', #19, 39.37007874015748143 ) ;
#186 = STYLED_ITEM ( 'NONE', ( #50 ), #160 ) ;
#187 = LINE ( 'NONE', #74, #236 ) ;
#188 = DIRECTION ( 'NONE',  ( 1.000000000000000000, 0.0000000000000000000, -0.0000000000000000000 ) ) ;
#189 = UNCERTAINTY_MEASURE_WITH_UNIT (LENGTH_MEASURE( 1.000000000000000082E-05 ), #297, 'distance_accuracy_value', 'NONE');
#190 = PRODUCT_DEFINITION_SHAPE ( 'NONE', 'NONE',  #91 ) ;
#191 = VECTOR ( 'NONE', #223, 39.37007874015747433 ) ;
#192 = AXIS2_PLACEMENT_3D ( 'NONE', #84, #120, #34 ) ;
#193 = FILL_AREA_STYLE_COLOUR ( '', #196 ) ;
#194 = DIRECTION ( 'NONE',  ( 1.000000000000000000, 0.0000000000000000000, 0.0000000000000000000 ) ) ;
#195 =( NAMED_UNIT ( * ) SI_UNIT ( $, .STERADIAN. ) SOLID_ANGLE_UNIT ( ) );
#196 = COLOUR_RGB ( '',0.7921568627450980005, 0.8196078431372548767, 0.9333333333333333481 ) ;
#197 = EDGE_LOOP ( 'NONE', ( #161, #147, #58, #298 ) ) ;
#198 = EDGE_LOOP ( 'NONE', ( #4, #103, #70, #93 ) ) ;
#199 = DIRECTION ( 'NONE',  ( 0.7071067811865499042, 8.659560562354961208E-17, -0.7071067811865451302 ) ) ;
#200 = CARTESIAN_POINT ( 'NONE',  ( 0.0000000000000000000, 0.0000000000000000000, 2.500000000000000000 ) ) ;
#201 = PRODUCT_DEFINITION_FORMATION_WITH_SPECIFIED_SOURCE ( 'ANY', '', #239, .NOT_KNOWN. ) ;
#202 = CARTESIAN_POINT ( 'NONE',  ( -0.1248749999999999166, 1.529277690435257475E-17, 0.7500000000000001110 ) ) ;
#203 = CARTESIAN_POINT ( 'NONE',  ( -0.1100000000000001948, 0.0000000000000000000, 2.500000000000000000 ) ) ;
#204 = DIRECTION ( 'NONE',  ( -1.000000000000000000, 0.0000000000000000000, 1.224646799147353454E-16 ) ) ;
#205 = DIRECTION ( 'NONE',  ( -0.0000000000000000000, -0.0000000000000000000, -1.000000000000000000 ) ) ;
#206 =( GEOMETRIC_REPRESENTATION_CONTEXT ( 3 ) GLOBAL_UNCERTAINTY_ASSIGNED_CONTEXT ( ( #6 ) ) GLOBAL_UNIT_ASSIGNED_CONTEXT ( ( #237, #168, #195 ) ) REPRESENTATION_CONTEXT ( 'NONE', 'WORKASPACE' ) );
#207 = DIRECTION ( 'NONE',  ( 1.000000000000000000, 0.0000000000000000000, 0.0000000000000000000 ) ) ;
#208 = SURFACE_STYLE_USAGE ( .BOTH. , #47 ) ;
#209 = EDGE_CURVE ( 'NONE', #72, #210, #178, .T. ) ;
#210 = VERTEX_POINT ( 'NONE', #157 ) ;
#211 = LENGTH_MEASURE_WITH_UNIT ( LENGTH_MEASURE( 0.02539999999999999897 ), #79 );
#212 = EDGE_CURVE ( 'NONE', #273, #45, #296, .T. ) ;
#213 = DIRECTION ( 'NONE',  ( 0.0000000000000000000, 0.0000000000000000000, -1.000000000000000000 ) ) ;
#214 = VECTOR ( 'NONE', #199, 39.37007874015748143 ) ;
#215 = DIRECTION ( 'NONE',  ( 1.000000000000000000, 0.0000000000000000000, 0.0000000000000000000 ) ) ;
#216 = ORIENTED_EDGE ( 'NONE', *, *, #2, .F. ) ;
#217 = DIRECTION ( 'NONE',  ( 0.0000000000000000000, 0.0000000000000000000, 1.000000000000000000 ) ) ;
#218 = LINE ( 'NONE', #75, #246 ) ;
#219 = CONICAL_SURFACE ( 'NONE', #125, 0.1100000000000001948, 0.7853981633974517207 ) ;
#220 = DIMENSIONAL_EXPONENTS ( 1.000000000000000000, 0.0000000000000000000, 0.0000000000000000000, 0.0000000000000000000, 0.0000000000000000000, 0.0000000000000000000, 0.0000000000000000000 ) ;
#221 = CARTESIAN_POINT ( 'NONE',  ( -0.1250000000000000000, 0.0000000000000000000, 2.485000000000000320 ) ) ;
#222 = PRESENTATION_LAYER_ASSIGNMENT (  '', '', ( #186 ) ) ;
#223 = DIRECTION ( 'NONE',  ( -0.1736481776669312194, 2.126576849575783625E-17, 0.9848077530122080203 ) ) ;
#224 = CONICAL_SURFACE ( 'NONE', #62, 0.1100000000000001948, 0.7853981633974517207 ) ;
#225 = DIRECTION ( 'NONE',  ( 1.224646799147353207E-16, 0.0000000000000000000, 1.000000000000000000 ) ) ;
#226 = CARTESIAN_POINT ( 'NONE',  ( 0.0000000000000000000, 0.0000000000000000000, 0.0000000000000000000 ) ) ;
#227 = CIRCLE ( 'NONE', #48, 0.1250000000000000000 ) ;
#228 = ORIENTED_EDGE ( 'NONE', *, *, #97, .T. ) ;
#229 = AXIS2_PLACEMENT_3D ( 'NONE', #171, #118, #215 ) ;
#230 = FACE_OUTER_BOUND ( 'NONE', #198, .T. ) ;
#231 = ADVANCED_FACE ( 'NONE', ( #175 ), #166, .T. ) ;
#232 = FACE_OUTER_BOUND ( 'NONE', #180, .T. ) ;
#233 = AXIS2_PLACEMENT_3D ( 'NONE', #25, #277, #188 ) ;
#234 = DIRECTION ( 'NONE',  ( 0.0000000000000000000, 0.0000000000000000000, 1.000000000000000000 ) ) ;
#235 = EDGE_LOOP ( 'NONE', ( #275, #228, #135, #41 ) ) ;
#236 = VECTOR ( 'NONE', #104, 39.37007874015748143 ) ;
#237 =( CONVERSION_BASED_UNIT ( 'INCH', #43 ) LENGTH_UNIT ( ) NAMED_UNIT ( #42 ) );
#238 = CARTESIAN_POINT ( 'NONE',  ( 0.0000000000000000000, 0.0000000000000000000, 0.0000000000000000000 ) ) ;
#239 = PRODUCT ( 'Micro_EMS-250-3', 'Micro_EMS-250-3', '', ( #7 ) ) ;
#240 = DIRECTION ( 'NONE',  ( -1.224646799147353207E-16, -0.0000000000000000000, -1.000000000000000000 ) ) ;
#241 = EDGE_CURVE ( 'NONE', #273, #177, #121, .T. ) ;
#242 = AXIS2_PLACEMENT_3D ( 'NONE', #138, #225, #17 ) ;
#243 = EDGE_CURVE ( 'NONE', #67, #177, #5, .T. ) ;
#244 = SURFACE_SIDE_STYLE ('',( #99 ) ) ;
#245 = DIRECTION ( 'NONE',  ( 0.0000000000000000000, 0.0000000000000000000, 1.000000000000000000 ) ) ;
#246 = VECTOR ( 'NONE', #205, 39.37007874015748143 ) ;
#247 = DIRECTION ( 'NONE',  ( -1.000000000000000000, 0.0000000000000000000, 0.0000000000000000000 ) ) ;
#248 = DIRECTION ( 'NONE',  ( -1.224646799147353207E-16, -0.0000000000000000000, -1.000000000000000000 ) ) ;
#249 = ORIENTED_EDGE ( 'NONE', *, *, #143, .T. ) ;
#250 = CARTESIAN_POINT ( 'NONE',  ( 0.0000000000000000000, 0.0000000000000000000, 2.485000000000000320 ) ) ;
#251 = EDGE_LOOP ( 'NONE', ( #165, #184, #281, #110 ) ) ;
#252 = DIRECTION ( 'NONE',  ( 1.224646799147353207E-16, 0.0000000000000000000, 1.000000000000000000 ) ) ;
#253 = AXIS2_PLACEMENT_3D ( 'NONE', #200, #245, #44 ) ;
#254 = FILL_AREA_STYLE_COLOUR ( '', #94 ) ;
#255 = CARTESIAN_POINT ( 'NONE',  ( 0.0000000000000000000, 0.0000000000000000000, 2.500000000000000000 ) ) ;
#256 =( NAMED_UNIT ( * ) SI_UNIT ( $, .STERADIAN. ) SOLID_ANGLE_UNIT ( ) );
#257 = AXIS2_PLACEMENT_3D ( 'NONE', #226, #122, #204 ) ;
#258 = CARTESIAN_POINT ( 'NONE',  ( 9.184850993605150903E-17, 0.0000000000000000000, 0.7500000000000001110 ) ) ;
#259 = DIRECTION ( 'NONE',  ( 0.0000000000000000000, 0.0000000000000000000, -1.000000000000000000 ) ) ;
#260 = ADVANCED_FACE ( 'NONE', ( #109 ), #283, .T. ) ;
#261 = SURFACE_STYLE_USAGE ( .BOTH. , #244 ) ;
#262 = CYLINDRICAL_SURFACE ( 'NONE', #130, 0.1250000000000000000 ) ;
#263 = CARTESIAN_POINT ( 'NONE',  ( 9.184850993605150903E-17, 0.0000000000000000000, 0.7500000000000001110 ) ) ;
#264 = EDGE_CURVE ( 'NONE', #32, #210, #106, .T. ) ;
#265 = ORIENTED_EDGE ( 'NONE', *, *, #155, .T. ) ;
#266 = AXIS2_PLACEMENT_3D ( 'NONE', #258, #270, #247 ) ;
#267 = DIRECTION ( 'NONE',  ( -1.224646799147353207E-16, -0.0000000000000000000, -1.000000000000000000 ) ) ;
#268 = CARTESIAN_POINT ( 'NONE',  ( -0.1248749999999999166, 1.530043094684724646E-17, 0.7500000000000001110 ) ) ;
#269 = LINE ( 'NONE', #69, #82 ) ;
#270 = DIRECTION ( 'NONE',  ( -1.224646799147353207E-16, -0.0000000000000000000, -1.000000000000000000 ) ) ;
#271 =( GEOMETRIC_REPRESENTATION_CONTEXT ( 3 ) GLOBAL_UNCERTAINTY_ASSIGNED_CONTEXT ( ( #189 ) ) GLOBAL_UNIT_ASSIGNED_CONTEXT ( ( #297, #140, #256 ) ) REPRESENTATION_CONTEXT ( 'NONE', 'WORKASPACE' ) );
#272 = ORIENTED_EDGE ( 'NONE', *, *, #129, .F. ) ;
#273 = VERTEX_POINT ( 'NONE', #146 ) ;
#274 =( CONVERSION_BASED_UNIT ( 'INCH', #182 ) LENGTH_UNIT ( ) NAMED_UNIT ( #294 ) );
#275 = ORIENTED_EDGE ( 'NONE', *, *, #49, .T. ) ;
#276 = CARTESIAN_POINT ( 'NONE',  ( -0.1248749999999999999, 0.0000000000000000000, 1.529277690435257475E-17 ) ) ;
#277 = DIRECTION ( 'NONE',  ( 0.0000000000000000000, 0.0000000000000000000, 1.000000000000000000 ) ) ;
#278 = DIRECTION ( 'NONE',  ( 1.000000000000000000, 0.0000000000000000000, -0.0000000000000000000 ) ) ;
#279 = ORIENTED_EDGE ( 'NONE', *, *, #49, .F. ) ;
#280 = ORIENTED_EDGE ( 'NONE', *, *, #114, .T. ) ;
#281 = ORIENTED_EDGE ( 'NONE', *, *, #241, .T. ) ;
#282 = CARTESIAN_POINT ( 'NONE',  ( 0.0000000000000000000, 0.0000000000000000000, 2.500000000000000000 ) ) ;
#283 = CONICAL_SURFACE ( 'NONE', #174, 0.1248749999999999999, 0.1745329251994339192 ) ;
#284 = EDGE_LOOP ( 'NONE', ( #159, #8, #123, #98 ) ) ;
#285 = CLOSED_SHELL ( 'NONE', ( #105, #231, #63, #12, #173, #73, #80, #260, #55, #286 ) ) ;
#286 = ADVANCED_FACE ( 'NONE', ( #232 ), #162, .F. ) ;
#287 = CIRCLE ( 'NONE', #266, 0.1248749999999999999 ) ;
#288 = MECHANICAL_DESIGN_GEOMETRIC_PRESENTATION_REPRESENTATION (  '', ( #186 ), #28 ) ;
#289 = DIRECTION ( 'NONE',  ( -1.000000000000000000, 0.0000000000000000000, 0.0000000000000000000 ) ) ;
#290 = EDGE_CURVE ( 'NONE', #177, #67, #59, .T. ) ;
#291 = DIRECTION ( 'NONE',  ( -0.0000000000000000000, -0.0000000000000000000, -1.000000000000000000 ) ) ;
#292 = EDGE_LOOP ( 'NONE', ( #46, #280 ) ) ;
#293 = CARTESIAN_POINT ( 'NONE',  ( 0.1250000000000000833, 1.530808498934192433E-17, 0.7507089102274522308 ) ) ;
#294 = DIMENSIONAL_EXPONENTS ( 1.000000000000000000, 0.0000000000000000000, 0.0000000000000000000, 0.0000000000000000000, 0.0000000000000000000, 0.0000000000000000000, 0.0000000000000000000 ) ;
#295 =( LENGTH_UNIT ( ) NAMED_UNIT ( * ) SI_UNIT ( $, .METRE. ) );
#296 = CIRCLE ( 'NONE', #253, 0.1100000000000001948 ) ;
#297 =( CONVERSION_BASED_UNIT ( 'INCH', #211 ) LENGTH_UNIT ( ) NAMED_UNIT ( #220 ) );
#298 = ORIENTED_EDGE ( 'NONE', *, *, #209, .F. ) ;
#299 = EDGE_CURVE ( 'NONE', #141, #152, #187, .T. ) ;
ENDSEC;
END-ISO-10303-21;
