ISO-10303-21;
HEADER;
FILE_DESCRIPTION (( 'STEP AP214' ),
    '1' );
FILE_NAME ('Micro_GEM-500-4X.STEP',
    '2021-09-01T20:51:26',
    ( '' ),
    ( '' ),
    'SwSTEP 2.0',
    'SolidWorks 2020',
    '' );
FILE_SCHEMA (( 'AUTOMOTIVE_DESIGN' ));
ENDSEC;

DATA;
#1 = FACE_OUTER_BOUND ( 'NONE', #31, .T. ) ;
#2 = CARTESIAN_POINT ( 'NONE',  ( 0.2350000000000011524, 2.877919977996294002E-17, 3.000000000000000444 ) ) ;
#3 = VERTEX_POINT ( 'NONE', #93 ) ;
#4 = VECTOR ( 'NONE', #136, 39.37007874015748143 ) ;
#5 = DIRECTION ( 'NONE',  ( 1.000000000000000000, 0.0000000000000000000, 0.0000000000000000000 ) ) ;
#6 = EDGE_CURVE ( 'NONE', #215, #256, #24, .T. ) ;
#7 = AXIS2_PLACEMENT_3D ( 'NONE', #35, #285, #177 ) ;
#8 = ADVANCED_FACE ( 'NONE', ( #173 ), #211, .T. ) ;
#9 = FACE_OUTER_BOUND ( 'NONE', #45, .T. ) ;
#10 = SHAPE_DEFINITION_REPRESENTATION ( #289, #260 ) ;
#11 = CARTESIAN_POINT ( 'NONE',  ( 0.0000000000000000000, 0.0000000000000000000, 3.000000000000000444 ) ) ;
#12 = ORIENTED_EDGE ( 'NONE', *, *, #208, .F. ) ;
#13 = CARTESIAN_POINT ( 'NONE',  ( 1.224646799147353454E-16, 0.0000000000000000000, 1.000000000000000000 ) ) ;
#14 =( GEOMETRIC_REPRESENTATION_CONTEXT ( 3 ) GLOBAL_UNCERTAINTY_ASSIGNED_CONTEXT ( ( #42 ) ) GLOBAL_UNIT_ASSIGNED_CONTEXT ( ( #143, #148, #272 ) ) REPRESENTATION_CONTEXT ( 'NONE', 'WORKASPACE' ) );
#15 = DIRECTION ( 'NONE',  ( -1.000000000000000000, 0.0000000000000000000, 0.0000000000000000000 ) ) ;
#16 = ORIENTED_EDGE ( 'NONE', *, *, #210, .F. ) ;
#17 = DIRECTION ( 'NONE',  ( 1.000000000000000000, 0.0000000000000000000, 0.0000000000000000000 ) ) ;
#18 = PRODUCT_DEFINITION ( 'UNKNOWN', '', #75, #225 ) ;
#19 = CARTESIAN_POINT ( 'NONE',  ( 0.2350000000000011524, 2.969768487932338510E-17, 3.000000000000000444 ) ) ;
#20 = UNCERTAINTY_MEASURE_WITH_UNIT (LENGTH_MEASURE( 1.000000000000000082E-05 ), #53, 'distance_accuracy_value', 'NONE');
#21 = AXIS2_PLACEMENT_3D ( 'NONE', #204, #262, #58 ) ;
#22 = LINE ( 'NONE', #107, #279 ) ;
#23 = DIRECTION ( 'NONE',  ( 0.0000000000000000000, 0.0000000000000000000, -1.000000000000000000 ) ) ;
#24 = LINE ( 'NONE', #2, #73 ) ;
#25 = DIRECTION ( 'NONE',  ( 0.0000000000000000000, 0.0000000000000000000, 1.000000000000000000 ) ) ;
#26 = ADVANCED_FACE ( 'NONE', ( #193 ), #251, .T. ) ;
#27 = ORIENTED_EDGE ( 'NONE', *, *, #196, .F. ) ;
#28 = MANIFOLD_SOLID_BREP ( 'Cut-Revolve1', #205 ) ;
#29 = DIRECTION ( 'NONE',  ( -1.224646799147353454E-16, -0.0000000000000000000, -1.000000000000000000 ) ) ;
#30 = ORIENTED_EDGE ( 'NONE', *, *, #263, .T. ) ;
#31 = EDGE_LOOP ( 'NONE', ( #155, #30 ) ) ;
#32 = CARTESIAN_POINT ( 'NONE',  ( -0.2497499999999998888, 3.060086189369449292E-17, 1.000000000000000000 ) ) ;
#33 = CARTESIAN_POINT ( 'NONE',  ( 0.0000000000000000000, 0.0000000000000000000, 3.000000000000000444 ) ) ;
#34 = DIRECTION ( 'NONE',  ( -1.000000000000000000, 0.0000000000000000000, 0.0000000000000000000 ) ) ;
#35 = CARTESIAN_POINT ( 'NONE',  ( 0.0000000000000000000, 0.0000000000000000000, 2.985000000000001208 ) ) ;
#36 = DIRECTION ( 'NONE',  ( -1.000000000000000000, 0.0000000000000000000, 0.0000000000000000000 ) ) ;
#37 = EDGE_CURVE ( 'NONE', #3, #256, #85, .T. ) ;
#38 = CIRCLE ( 'NONE', #214, 0.2500000000000000000 ) ;
#39 = ORIENTED_EDGE ( 'NONE', *, *, #210, .T. ) ;
#40 = EDGE_CURVE ( 'NONE', #200, #185, #257, .T. ) ;
#41 = CARTESIAN_POINT ( 'NONE',  ( 0.2500000000000001110, 3.061616997868383634E-17, 1.001417820454904462 ) ) ;
#42 = UNCERTAINTY_MEASURE_WITH_UNIT (LENGTH_MEASURE( 1.000000000000000082E-05 ), #143, 'distance_accuracy_value', 'NONE');
#43 = CIRCLE ( 'NONE', #199, 0.2497499999999999998 ) ;
#44 = DIRECTION ( 'NONE',  ( -0.0000000000000000000, -0.0000000000000000000, -1.000000000000000000 ) ) ;
#45 = EDGE_LOOP ( 'NONE', ( #67, #163, #39, #270 ) ) ;
#46 = ORIENTED_EDGE ( 'NONE', *, *, #230, .F. ) ;
#47 = MECHANICAL_DESIGN_GEOMETRIC_PRESENTATION_REPRESENTATION (  '', ( #127 ), #55 ) ;
#48 = SURFACE_SIDE_STYLE ('',( #169 ) ) ;
#49 = VECTOR ( 'NONE', #241, 39.37007874015747433 ) ;
#50 = DIRECTION ( 'NONE',  ( 0.1736481776669314137, 0.0000000000000000000, 0.9848077530122077983 ) ) ;
#51 = FILL_AREA_STYLE_COLOUR ( '', #65 ) ;
#52 = CARTESIAN_POINT ( 'NONE',  ( 0.2497499999999999998, 3.058555380870514950E-17, -3.058555380870515566E-17 ) ) ;
#53 =( CONVERSION_BASED_UNIT ( 'INCH', #203 ) LENGTH_UNIT ( ) NAMED_UNIT ( #140 ) );
#54 = ADVANCED_FACE ( 'NONE', ( #1 ), #95, .T. ) ;
#55 =( GEOMETRIC_REPRESENTATION_CONTEXT ( 3 ) GLOBAL_UNCERTAINTY_ASSIGNED_CONTEXT ( ( #20 ) ) GLOBAL_UNIT_ASSIGNED_CONTEXT ( ( #53, #100, #282 ) ) REPRESENTATION_CONTEXT ( 'NONE', 'WORKASPACE' ) );
#56 = DIRECTION ( 'NONE',  ( 1.000000000000000000, 0.0000000000000000000, -0.0000000000000000000 ) ) ;
#57 = CIRCLE ( 'NONE', #288, 0.2350000000000011524 ) ;
#58 = DIRECTION ( 'NONE',  ( 1.000000000000000000, 0.0000000000000000000, 0.0000000000000000000 ) ) ;
#59 = EDGE_LOOP ( 'NONE', ( #291, #213, #147, #84 ) ) ;
#60 = DIRECTION ( 'NONE',  ( -1.000000000000000000, 0.0000000000000000000, 0.0000000000000000000 ) ) ;
#61 = DIRECTION ( 'NONE',  ( 0.0000000000000000000, 0.0000000000000000000, 1.000000000000000000 ) ) ;
#62 = CARTESIAN_POINT ( 'NONE',  ( 0.2500000000000000000, 3.061616997868382402E-17, 2.985000000000001208 ) ) ;
#63 = CIRCLE ( 'NONE', #232, 0.2497499999999999998 ) ;
#64 = ORIENTED_EDGE ( 'NONE', *, *, #40, .F. ) ;
#65 = COLOUR_RGB ( '',0.7921568627450980005, 0.8196078431372548767, 0.9333333333333333481 ) ;
#66 = AXIS2_PLACEMENT_3D ( 'NONE', #101, #130, #201 ) ;
#67 = ORIENTED_EDGE ( 'NONE', *, *, #178, .F. ) ;
#68 = EDGE_LOOP ( 'NONE', ( #271, #231, #142, #190 ) ) ;
#69 = APPLICATION_PROTOCOL_DEFINITION ( 'draft international standard', 'automotive_design', 1998, #184 ) ;
#70 = CARTESIAN_POINT ( 'NONE',  ( 0.0000000000000000000, 0.0000000000000000000, 3.000000000000000444 ) ) ;
#71 = FILL_AREA_STYLE ('',( #51 ) ) ;
#72 = EDGE_CURVE ( 'NONE', #200, #247, #197, .T. ) ;
#73 = VECTOR ( 'NONE', #97, 39.37007874015748854 ) ;
#74 = ORIENTED_EDGE ( 'NONE', *, *, #98, .T. ) ;
#75 = PRODUCT_DEFINITION_FORMATION_WITH_SPECIFIED_SOURCE ( 'ANY', '', #131, .NOT_KNOWN. ) ;
#76 = PRESENTATION_STYLE_ASSIGNMENT (( #254 ) ) ;
#77 = EDGE_LOOP ( 'NONE', ( #228, #234, #16, #27 ) ) ;
#78 = CIRCLE ( 'NONE', #7, 0.2500000000000000000 ) ;
#79 = APPLICATION_PROTOCOL_DEFINITION ( 'draft international standard', 'automotive_design', 1998, #217 ) ;
#80 = CYLINDRICAL_SURFACE ( 'NONE', #267, 0.2500000000000000000 ) ;
#81 = CONICAL_SURFACE ( 'NONE', #245, 0.2350000000000011524, 0.7853981633974380649 ) ;
#82 = DIRECTION ( 'NONE',  ( 0.0000000000000000000, 0.0000000000000000000, 1.000000000000000000 ) ) ;
#83 = CARTESIAN_POINT ( 'NONE',  ( 0.0000000000000000000, 0.0000000000000000000, 3.000000000000000444 ) ) ;
#84 = ORIENTED_EDGE ( 'NONE', *, *, #299, .F. ) ;
#85 = CIRCLE ( 'NONE', #172, 0.2500000000000000000 ) ;
#86 = STYLED_ITEM ( 'NONE', ( #76 ), #260 ) ;
#87 = CARTESIAN_POINT ( 'NONE',  ( 1.224646799147353454E-16, 0.0000000000000000000, 1.000000000000000000 ) ) ;
#88 = UNCERTAINTY_MEASURE_WITH_UNIT (LENGTH_MEASURE( 1.000000000000000082E-05 ), #250, 'distance_accuracy_value', 'NONE');
#89 = CARTESIAN_POINT ( 'NONE',  ( -0.2497499999999999998, 0.0000000000000000000, 6.117110761741031132E-17 ) ) ;
#90 = VERTEX_POINT ( 'NONE', #32 ) ;
#91 = CARTESIAN_POINT ( 'NONE',  ( -0.2350000000000011524, 0.0000000000000000000, 3.000000000000000444 ) ) ;
#92 = VECTOR ( 'NONE', #50, 39.37007874015748143 ) ;
#93 = CARTESIAN_POINT ( 'NONE',  ( -0.2500000000000000000, 0.0000000000000000000, 2.985000000000001208 ) ) ;
#94 = ORIENTED_EDGE ( 'NONE', *, *, #237, .F. ) ;
#95 = PLANE ( 'NONE',  #108 ) ;
#96 = PRESENTATION_STYLE_ASSIGNMENT (( #145 ) ) ;
#97 = DIRECTION ( 'NONE',  ( 0.7071067811865402453, 8.659560562354845344E-17, -0.7071067811865546782 ) ) ;
#98 = EDGE_CURVE ( 'NONE', #247, #264, #38, .T. ) ;
#99 = CARTESIAN_POINT ( 'NONE',  ( 0.0000000000000000000, 0.0000000000000000000, 0.0000000000000000000 ) ) ;
#100 =( NAMED_UNIT ( * ) PLANE_ANGLE_UNIT ( ) SI_UNIT ( $, .RADIAN. ) );
#101 = CARTESIAN_POINT ( 'NONE',  ( 1.224646799147353454E-16, 0.0000000000000000000, 1.000000000000000000 ) ) ;
#102 =( LENGTH_UNIT ( ) NAMED_UNIT ( * ) SI_UNIT ( $, .METRE. ) );
#103 = CARTESIAN_POINT ( 'NONE',  ( 0.2497499999999999998, 3.058555380870514950E-17, 0.0000000000000000000 ) ) ;
#104 = AXIS2_PLACEMENT_3D ( 'NONE', #295, #29, #253 ) ;
#105 = LINE ( 'NONE', #188, #4 ) ;
#106 = PRODUCT_RELATED_PRODUCT_CATEGORY ( 'part', '', ( #131 ) ) ;
#107 = CARTESIAN_POINT ( 'NONE',  ( 0.2500000000000000000, 3.061616997868382402E-17, 3.000000000000000444 ) ) ;
#108 = AXIS2_PLACEMENT_3D ( 'NONE', #70, #168, #194 ) ;
#109 = CIRCLE ( 'NONE', #21, 0.2350000000000011524 ) ;
#110 = CARTESIAN_POINT ( 'NONE',  ( 3.745650057197990990E-33, 0.0000000000000000000, 3.058555380870515566E-17 ) ) ;
#111 = ORIENTED_EDGE ( 'NONE', *, *, #196, .T. ) ;
#112 = LINE ( 'NONE', #183, #162 ) ;
#113 = ORIENTED_EDGE ( 'NONE', *, *, #233, .F. ) ;
#114 =( NAMED_UNIT ( * ) SI_UNIT ( $, .STERADIAN. ) SOLID_ANGLE_UNIT ( ) );
#115 = AXIS2_PLACEMENT_3D ( 'NONE', #134, #222, #17 ) ;
#116 = ORIENTED_EDGE ( 'NONE', *, *, #72, .T. ) ;
#117 = SURFACE_SIDE_STYLE ('',( #170 ) ) ;
#118 = ORIENTED_EDGE ( 'NONE', *, *, #178, .T. ) ;
#119 = ADVANCED_FACE ( 'NONE', ( #281 ), #180, .T. ) ;
#120 =( LENGTH_UNIT ( ) NAMED_UNIT ( * ) SI_UNIT ( $, .METRE. ) );
#121 = DIRECTION ( 'NONE',  ( -1.224646799147353454E-16, -0.0000000000000000000, -1.000000000000000000 ) ) ;
#122 = EDGE_LOOP ( 'NONE', ( #118, #167, #12, #268 ) ) ;
#123 = AXIS2_PLACEMENT_3D ( 'NONE', #139, #227, #269 ) ;
#124 = DIRECTION ( 'NONE',  ( 0.0000000000000000000, 0.0000000000000000000, -1.000000000000000000 ) ) ;
#125 = CARTESIAN_POINT ( 'NONE',  ( 0.0000000000000000000, 0.0000000000000000000, 3.000000000000000444 ) ) ;
#126 = EDGE_CURVE ( 'NONE', #256, #3, #78, .T. ) ;
#127 = STYLED_ITEM ( 'NONE', ( #96 ), #28 ) ;
#128 = AXIS2_PLACEMENT_3D ( 'NONE', #259, #82, #56 ) ;
#129 = PLANE ( 'NONE',  #128 ) ;
#130 = DIRECTION ( 'NONE',  ( 1.224646799147353454E-16, 0.0000000000000000000, 1.000000000000000000 ) ) ;
#131 = PRODUCT ( 'Micro_GEM-500-4X', 'Micro_GEM-500-4X', '', ( #287 ) ) ;
#132 = FACE_OUTER_BOUND ( 'NONE', #235, .T. ) ;
#133 = DIRECTION ( 'NONE',  ( -1.000000000000000000, 0.0000000000000000000, 0.0000000000000000000 ) ) ;
#134 = CARTESIAN_POINT ( 'NONE',  ( 1.226383128429217700E-16, 0.0000000000000000000, 1.001417820454904462 ) ) ;
#135 = ADVANCED_FACE ( 'NONE', ( #290 ), #80, .T. ) ;
#136 = DIRECTION ( 'NONE',  ( -0.0000000000000000000, -0.0000000000000000000, -1.000000000000000000 ) ) ;
#137 = AXIS2_PLACEMENT_3D ( 'NONE', #13, #220, #154 ) ;
#138 = ORIENTED_EDGE ( 'NONE', *, *, #126, .T. ) ;
#139 = CARTESIAN_POINT ( 'NONE',  ( 3.745650057197990990E-33, 0.0000000000000000000, 3.058555380870515566E-17 ) ) ;
#140 = DIMENSIONAL_EXPONENTS ( 1.000000000000000000, 0.0000000000000000000, 0.0000000000000000000, 0.0000000000000000000, 0.0000000000000000000, 0.0000000000000000000, 0.0000000000000000000 ) ;
#141 = ORIENTED_EDGE ( 'NONE', *, *, #233, .T. ) ;
#142 = ORIENTED_EDGE ( 'NONE', *, *, #299, .T. ) ;
#143 =( CONVERSION_BASED_UNIT ( 'INCH', #216 ) LENGTH_UNIT ( ) NAMED_UNIT ( #161 ) );
#144 =( GEOMETRIC_REPRESENTATION_CONTEXT ( 3 ) GLOBAL_UNCERTAINTY_ASSIGNED_CONTEXT ( ( #88 ) ) GLOBAL_UNIT_ASSIGNED_CONTEXT ( ( #250, #146, #114 ) ) REPRESENTATION_CONTEXT ( 'NONE', 'WORKASPACE' ) );
#145 = SURFACE_STYLE_USAGE ( .BOTH. , #48 ) ;
#146 =( NAMED_UNIT ( * ) PLANE_ANGLE_UNIT ( ) SI_UNIT ( $, .RADIAN. ) );
#147 = ORIENTED_EDGE ( 'NONE', *, *, #37, .F. ) ;
#148 =( NAMED_UNIT ( * ) PLANE_ANGLE_UNIT ( ) SI_UNIT ( $, .RADIAN. ) );
#149 = CARTESIAN_POINT ( 'NONE',  ( 1.226383128429217700E-16, 0.0000000000000000000, 1.001417820454904462 ) ) ;
#150 = AXIS2_PLACEMENT_3D ( 'NONE', #249, #298, #195 ) ;
#151 = VECTOR ( 'NONE', #191, 39.37007874015748854 ) ;
#152 = ADVANCED_FACE ( 'NONE', ( #153 ), #129, .F. ) ;
#153 = FACE_OUTER_BOUND ( 'NONE', #277, .T. ) ;
#154 = DIRECTION ( 'NONE',  ( 1.000000000000000000, 0.0000000000000000000, 0.0000000000000000000 ) ) ;
#155 = ORIENTED_EDGE ( 'NONE', *, *, #186, .T. ) ;
#156 = CARTESIAN_POINT ( 'NONE',  ( 1.224646799147353454E-16, 0.0000000000000000000, 1.000000000000000000 ) ) ;
#157 = LINE ( 'NONE', #212, #49 ) ;
#158 = ADVANCED_FACE ( 'NONE', ( #132 ), #223, .T. ) ;
#159 = DIRECTION ( 'NONE',  ( -1.224646799147353454E-16, -0.0000000000000000000, -1.000000000000000000 ) ) ;
#160 = DIRECTION ( 'NONE',  ( -1.000000000000000000, 0.0000000000000000000, 0.0000000000000000000 ) ) ;
#161 = DIMENSIONAL_EXPONENTS ( 1.000000000000000000, 0.0000000000000000000, 0.0000000000000000000, 0.0000000000000000000, 0.0000000000000000000, 0.0000000000000000000, 0.0000000000000000000 ) ;
#162 = VECTOR ( 'NONE', #248, 39.37007874015748143 ) ;
#163 = ORIENTED_EDGE ( 'NONE', *, *, #283, .T. ) ;
#164 = ADVANCED_FACE ( 'NONE', ( #9 ), #261, .T. ) ;
#165 = DIMENSIONAL_EXPONENTS ( 1.000000000000000000, 0.0000000000000000000, 0.0000000000000000000, 0.0000000000000000000, 0.0000000000000000000, 0.0000000000000000000, 0.0000000000000000000 ) ;
#166 =( LENGTH_UNIT ( ) NAMED_UNIT ( * ) SI_UNIT ( $, .METRE. ) );
#167 = ORIENTED_EDGE ( 'NONE', *, *, #40, .T. ) ;
#168 = DIRECTION ( 'NONE',  ( 0.0000000000000000000, 0.0000000000000000000, 1.000000000000000000 ) ) ;
#169 = SURFACE_STYLE_FILL_AREA ( #71 ) ;
#170 = SURFACE_STYLE_FILL_AREA ( #274 ) ;
#171 = ADVANCED_FACE ( 'NONE', ( #182 ), #265, .T. ) ;
#172 = AXIS2_PLACEMENT_3D ( 'NONE', #273, #23, #276 ) ;
#173 = FACE_OUTER_BOUND ( 'NONE', #122, .T. ) ;
#174 = DIRECTION ( 'NONE',  ( -1.224646799147353454E-16, -0.0000000000000000000, -1.000000000000000000 ) ) ;
#175 = ORIENTED_EDGE ( 'NONE', *, *, #275, .T. ) ;
#176 = AXIS2_PLACEMENT_3D ( 'NONE', #99, #61, #286 ) ;
#177 = DIRECTION ( 'NONE',  ( 1.000000000000000000, 0.0000000000000000000, 0.0000000000000000000 ) ) ;
#178 = EDGE_CURVE ( 'NONE', #90, #200, #240, .T. ) ;
#179 = DIRECTION ( 'NONE',  ( -0.0000000000000000000, -0.0000000000000000000, -1.000000000000000000 ) ) ;
#180 = CONICAL_SURFACE ( 'NONE', #202, 0.2350000000000011524, 0.7853981633974380649 ) ;
#181 = DIRECTION ( 'NONE',  ( -0.0000000000000000000, -0.0000000000000000000, -1.000000000000000000 ) ) ;
#182 = FACE_OUTER_BOUND ( 'NONE', #198, .T. ) ;
#183 = CARTESIAN_POINT ( 'NONE',  ( -0.2497499999999999998, 0.0000000000000000000, 3.058555380870515566E-17 ) ) ;
#184 = APPLICATION_CONTEXT ( 'automotive_design' ) ;
#185 = VERTEX_POINT ( 'NONE', #103 ) ;
#186 = EDGE_CURVE ( 'NONE', #242, #215, #109, .T. ) ;
#187 = AXIS2_PLACEMENT_3D ( 'NONE', #11, #181, #60 ) ;
#188 = CARTESIAN_POINT ( 'NONE',  ( -0.2500000000000000000, 0.0000000000000000000, 3.000000000000000444 ) ) ;
#189 = CARTESIAN_POINT ( 'NONE',  ( -0.2499999999999998612, 0.0000000000000000000, 1.001417820454904462 ) ) ;
#190 = ORIENTED_EDGE ( 'NONE', *, *, #126, .F. ) ;
#191 = DIRECTION ( 'NONE',  ( -0.7071067811865402453, 0.0000000000000000000, -0.7071067811865546782 ) ) ;
#192 = AXIS2_PLACEMENT_3D ( 'NONE', #156, #239, #133 ) ;
#193 = FACE_OUTER_BOUND ( 'NONE', #207, .T. ) ;
#194 = DIRECTION ( 'NONE',  ( 1.000000000000000000, 0.0000000000000000000, -0.0000000000000000000 ) ) ;
#195 = DIRECTION ( 'NONE',  ( -1.000000000000000000, 0.0000000000000000000, 1.224646799147353700E-16 ) ) ;
#196 = EDGE_CURVE ( 'NONE', #3, #264, #105, .T. ) ;
#197 = LINE ( 'NONE', #255, #92 ) ;
#198 = EDGE_LOOP ( 'NONE', ( #46, #138, #111, #226 ) ) ;
#199 = AXIS2_PLACEMENT_3D ( 'NONE', #110, #159, #293 ) ;
#200 = VERTEX_POINT ( 'NONE', #243 ) ;
#201 = DIRECTION ( 'NONE',  ( 1.000000000000000000, 0.0000000000000000000, 0.0000000000000000000 ) ) ;
#202 = AXIS2_PLACEMENT_3D ( 'NONE', #33, #124, #36 ) ;
#203 = LENGTH_MEASURE_WITH_UNIT ( LENGTH_MEASURE( 0.02539999999999999897 ), #102 );
#204 = CARTESIAN_POINT ( 'NONE',  ( 0.0000000000000000000, 0.0000000000000000000, 3.000000000000000444 ) ) ;
#205 = CLOSED_SHELL ( 'NONE', ( #8, #164, #119, #135, #171, #54, #221, #158, #26, #152 ) ) ;
#206 = COLOUR_RGB ( '',0.7921568627450980005, 0.8196078431372548767, 0.9333333333333333481 ) ;
#207 = EDGE_LOOP ( 'NONE', ( #64, #141, #175, #94 ) ) ;
#208 = EDGE_CURVE ( 'NONE', #280, #185, #43, .T. ) ;
#209 = CARTESIAN_POINT ( 'NONE',  ( 0.0000000000000000000, 0.0000000000000000000, 3.000000000000000444 ) ) ;
#210 = EDGE_CURVE ( 'NONE', #264, #247, #292, .T. ) ;
#211 = CYLINDRICAL_SURFACE ( 'NONE', #104, 0.2497499999999999998 ) ;
#212 = CARTESIAN_POINT ( 'NONE',  ( -0.2497499999999998888, 3.058555380870514950E-17, 1.000000000000000000 ) ) ;
#213 = ORIENTED_EDGE ( 'NONE', *, *, #6, .T. ) ;
#214 = AXIS2_PLACEMENT_3D ( 'NONE', #149, #121, #5 ) ;
#215 = VERTEX_POINT ( 'NONE', #19 ) ;
#216 = LENGTH_MEASURE_WITH_UNIT ( LENGTH_MEASURE( 0.02539999999999999897 ), #120 );
#217 = APPLICATION_CONTEXT ( 'automotive_design' ) ;
#218 = ORIENTED_EDGE ( 'NONE', *, *, #237, .T. ) ;
#219 = ORIENTED_EDGE ( 'NONE', *, *, #208, .T. ) ;
#220 = DIRECTION ( 'NONE',  ( 1.224646799147353454E-16, 0.0000000000000000000, 1.000000000000000000 ) ) ;
#221 = ADVANCED_FACE ( 'NONE', ( #266 ), #81, .T. ) ;
#222 = DIRECTION ( 'NONE',  ( -1.224646799147353454E-16, -0.0000000000000000000, -1.000000000000000000 ) ) ;
#223 = CONICAL_SURFACE ( 'NONE', #137, 0.2497499999999999998, 0.1745329251994339192 ) ;
#224 = DIRECTION ( 'NONE',  ( -1.224646799147353454E-16, -0.0000000000000000000, -1.000000000000000000 ) ) ;
#225 = PRODUCT_DEFINITION_CONTEXT ( 'detailed design', #217, 'design' ) ;
#226 = ORIENTED_EDGE ( 'NONE', *, *, #98, .F. ) ;
#227 = DIRECTION ( 'NONE',  ( -1.224646799147353454E-16, -0.0000000000000000000, -1.000000000000000000 ) ) ;
#228 = ORIENTED_EDGE ( 'NONE', *, *, #37, .T. ) ;
#229 = LENGTH_MEASURE_WITH_UNIT ( LENGTH_MEASURE( 0.02539999999999999897 ), #166 );
#230 = EDGE_CURVE ( 'NONE', #256, #247, #22, .T. ) ;
#231 = ORIENTED_EDGE ( 'NONE', *, *, #186, .F. ) ;
#232 = AXIS2_PLACEMENT_3D ( 'NONE', #87, #224, #15 ) ;
#233 = EDGE_CURVE ( 'NONE', #200, #90, #63, .T. ) ;
#234 = ORIENTED_EDGE ( 'NONE', *, *, #230, .T. ) ;
#235 = EDGE_LOOP ( 'NONE', ( #297, #113, #116, #74 ) ) ;
#236 = PRESENTATION_LAYER_ASSIGNMENT (  '', '', ( #86 ) ) ;
#237 = EDGE_CURVE ( 'NONE', #185, #280, #284, .T. ) ;
#238 = VECTOR ( 'NONE', #174, 39.37007874015748143 ) ;
#239 = DIRECTION ( 'NONE',  ( -1.224646799147353454E-16, -0.0000000000000000000, -1.000000000000000000 ) ) ;
#240 = CIRCLE ( 'NONE', #192, 0.2497499999999999998 ) ;
#241 = DIRECTION ( 'NONE',  ( -0.1736481776669312194, 2.126576849575783625E-17, 0.9848077530122080203 ) ) ;
#242 = VERTEX_POINT ( 'NONE', #244 ) ;
#243 = CARTESIAN_POINT ( 'NONE',  ( 0.2497500000000001386, 0.0000000000000000000, 1.000000000000000000 ) ) ;
#244 = CARTESIAN_POINT ( 'NONE',  ( -0.2350000000000011524, 0.0000000000000000000, 3.000000000000000444 ) ) ;
#245 = AXIS2_PLACEMENT_3D ( 'NONE', #83, #246, #160 ) ;
#246 = DIRECTION ( 'NONE',  ( 0.0000000000000000000, 0.0000000000000000000, -1.000000000000000000 ) ) ;
#247 = VERTEX_POINT ( 'NONE', #41 ) ;
#248 = DIRECTION ( 'NONE',  ( -1.224646799147353454E-16, -0.0000000000000000000, -1.000000000000000000 ) ) ;
#249 = CARTESIAN_POINT ( 'NONE',  ( 0.0000000000000000000, 0.0000000000000000000, 0.0000000000000000000 ) ) ;
#250 =( CONVERSION_BASED_UNIT ( 'INCH', #229 ) LENGTH_UNIT ( ) NAMED_UNIT ( #165 ) );
#251 = CYLINDRICAL_SURFACE ( 'NONE', #150, 0.2497499999999999998 ) ;
#252 = PRESENTATION_LAYER_ASSIGNMENT (  '', '', ( #127 ) ) ;
#253 = DIRECTION ( 'NONE',  ( -1.000000000000000000, 0.0000000000000000000, 1.224646799147353700E-16 ) ) ;
#254 = SURFACE_STYLE_USAGE ( .BOTH. , #117 ) ;
#255 = CARTESIAN_POINT ( 'NONE',  ( 0.2497500000000001386, 0.0000000000000000000, 1.000000000000000000 ) ) ;
#256 = VERTEX_POINT ( 'NONE', #62 ) ;
#257 = LINE ( 'NONE', #52, #238 ) ;
#258 = MECHANICAL_DESIGN_GEOMETRIC_PRESENTATION_REPRESENTATION (  '', ( #86 ), #14 ) ;
#259 = CARTESIAN_POINT ( 'NONE',  ( 0.0000000000000000000, 0.0000000000000000000, 0.0000000000000000000 ) ) ;
#260 = ADVANCED_BREP_SHAPE_REPRESENTATION ( 'Micro_GEM-500-4X', ( #28, #176 ), #144 ) ;
#261 = CONICAL_SURFACE ( 'NONE', #66, 0.2497499999999999998, 0.1745329251994339192 ) ;
#262 = DIRECTION ( 'NONE',  ( 0.0000000000000000000, 0.0000000000000000000, 1.000000000000000000 ) ) ;
#263 = EDGE_CURVE ( 'NONE', #215, #242, #57, .T. ) ;
#264 = VERTEX_POINT ( 'NONE', #189 ) ;
#265 = CYLINDRICAL_SURFACE ( 'NONE', #187, 0.2500000000000000000 ) ;
#266 = FACE_OUTER_BOUND ( 'NONE', #68, .T. ) ;
#267 = AXIS2_PLACEMENT_3D ( 'NONE', #125, #179, #34 ) ;
#268 = ORIENTED_EDGE ( 'NONE', *, *, #275, .F. ) ;
#269 = DIRECTION ( 'NONE',  ( -1.000000000000000000, 0.0000000000000000000, 1.224646799147353700E-16 ) ) ;
#270 = ORIENTED_EDGE ( 'NONE', *, *, #72, .F. ) ;
#271 = ORIENTED_EDGE ( 'NONE', *, *, #6, .F. ) ;
#272 =( NAMED_UNIT ( * ) SI_UNIT ( $, .STERADIAN. ) SOLID_ANGLE_UNIT ( ) );
#273 = CARTESIAN_POINT ( 'NONE',  ( 0.0000000000000000000, 0.0000000000000000000, 2.985000000000001208 ) ) ;
#274 = FILL_AREA_STYLE ('',( #278 ) ) ;
#275 = EDGE_CURVE ( 'NONE', #90, #280, #112, .T. ) ;
#276 = DIRECTION ( 'NONE',  ( 1.000000000000000000, 0.0000000000000000000, 0.0000000000000000000 ) ) ;
#277 = EDGE_LOOP ( 'NONE', ( #219, #218 ) ) ;
#278 = FILL_AREA_STYLE_COLOUR ( '', #206 ) ;
#279 = VECTOR ( 'NONE', #44, 39.37007874015748143 ) ;
#280 = VERTEX_POINT ( 'NONE', #89 ) ;
#281 = FACE_OUTER_BOUND ( 'NONE', #59, .T. ) ;
#282 =( NAMED_UNIT ( * ) SI_UNIT ( $, .STERADIAN. ) SOLID_ANGLE_UNIT ( ) );
#283 = EDGE_CURVE ( 'NONE', #90, #264, #157, .T. ) ;
#284 = CIRCLE ( 'NONE', #123, 0.2497499999999999998 ) ;
#285 = DIRECTION ( 'NONE',  ( 0.0000000000000000000, 0.0000000000000000000, -1.000000000000000000 ) ) ;
#286 = DIRECTION ( 'NONE',  ( 1.000000000000000000, 0.0000000000000000000, 0.0000000000000000000 ) ) ;
#287 = PRODUCT_CONTEXT ( 'NONE', #184, 'mechanical' ) ;
#288 = AXIS2_PLACEMENT_3D ( 'NONE', #209, #25, #294 ) ;
#289 = PRODUCT_DEFINITION_SHAPE ( 'NONE', 'NONE',  #18 ) ;
#290 = FACE_OUTER_BOUND ( 'NONE', #77, .T. ) ;
#291 = ORIENTED_EDGE ( 'NONE', *, *, #263, .F. ) ;
#292 = CIRCLE ( 'NONE', #115, 0.2500000000000000000 ) ;
#293 = DIRECTION ( 'NONE',  ( -1.000000000000000000, 0.0000000000000000000, 1.224646799147353700E-16 ) ) ;
#294 = DIRECTION ( 'NONE',  ( 1.000000000000000000, 0.0000000000000000000, 0.0000000000000000000 ) ) ;
#295 = CARTESIAN_POINT ( 'NONE',  ( 0.0000000000000000000, 0.0000000000000000000, 0.0000000000000000000 ) ) ;
#296 = LINE ( 'NONE', #91, #151 ) ;
#297 = ORIENTED_EDGE ( 'NONE', *, *, #283, .F. ) ;
#298 = DIRECTION ( 'NONE',  ( -1.224646799147353454E-16, -0.0000000000000000000, -1.000000000000000000 ) ) ;
#299 = EDGE_CURVE ( 'NONE', #242, #3, #296, .T. ) ;
ENDSEC;
END-ISO-10303-21;
