ISO-10303-21;
HEADER;
FILE_DESCRIPTION (( 'STEP AP214' ),
    '1' );
FILE_NAME ('83766.STEP',
    '2023-07-05T19:24:21',
    ( '' ),
    ( '' ),
    'SwSTEP 2.0',
    'SolidWorks 2023',
    '' );
FILE_SCHEMA (( 'AUTOMOTIVE_DESIGN' ));
ENDSEC;

DATA;
#1 = CARTESIAN_POINT ( 'NONE',  ( 0.000000000000000000, 0.000000000000000000, 0.000000000000000000 ) ) ;
#2 = LENGTH_MEASURE_WITH_UNIT ( LENGTH_MEASURE( 0.02539999999999999897 ), #209 );
#3 = EDGE_CURVE ( 'NONE', #141, #237, #83, .T. ) ;
#4 = SURFACE_STYLE_USAGE ( .BOTH. , #264 ) ;
#5 =( NAMED_UNIT ( * ) PLANE_ANGLE_UNIT ( ) SI_UNIT ( $, .RADIAN. ) );
#6 = DIRECTION ( 'NONE',  ( 0.000000000000000000, -0.000000000000000000, 1.000000000000000000 ) ) ;
#7 = SURFACE_STYLE_USAGE ( .BOTH. , #38 ) ;
#8 = UNCERTAINTY_MEASURE_WITH_UNIT (LENGTH_MEASURE( 1.000000000000000082E-05 ), #308, 'distance_accuracy_value', 'NONE');
#9 =( NAMED_UNIT ( * ) PLANE_ANGLE_UNIT ( ) SI_UNIT ( $, .RADIAN. ) );
#10 = FILL_AREA_STYLE ('',( #188 ) ) ;
#11 = CARTESIAN_POINT ( 'NONE',  ( 0.000000000000000000, 0.8750000000000000000, -0.1874999999999999722 ) ) ;
#12 = ORIENTED_EDGE ( 'NONE', *, *, #40, .F. ) ;
#13 = VECTOR ( 'NONE', #58, 39.37007874015748143 ) ;
#14 = CONICAL_SURFACE ( 'NONE', #142, 46.91943277929978251, 0.8726646259971666542 ) ;
#15 = ADVANCED_FACE ( 'NONE', ( #290 ), #156, .F. ) ;
#16 = DIRECTION ( 'NONE',  ( -1.000000000000000000, 0.000000000000000000, 0.000000000000000000 ) ) ;
#17 = ORIENTED_EDGE ( 'NONE', *, *, #3, .T. ) ;
#18 = DIRECTION ( 'NONE',  ( 0.000000000000000000, 1.000000000000000000, 0.000000000000000000 ) ) ;
#19 = ORIENTED_EDGE ( 'NONE', *, *, #102, .F. ) ;
#20 =( GEOMETRIC_REPRESENTATION_CONTEXT ( 3 ) GLOBAL_UNCERTAINTY_ASSIGNED_CONTEXT ( ( #182 ) ) GLOBAL_UNIT_ASSIGNED_CONTEXT ( ( #187, #5, #131 ) ) REPRESENTATION_CONTEXT ( 'NONE', 'WORKASPACE' ) );
#21 = EDGE_CURVE ( 'NONE', #146, #318, #179, .T. ) ;
#22 = ORIENTED_EDGE ( 'NONE', *, *, #171, .T. ) ;
#23 =( NAMED_UNIT ( * ) SI_UNIT ( $, .STERADIAN. ) SOLID_ANGLE_UNIT ( ) );
#24 =( CONVERSION_BASED_UNIT ( 'INCH', #216 ) LENGTH_UNIT ( ) NAMED_UNIT ( #176 ) );
#25 = CARTESIAN_POINT ( 'NONE',  ( -0.1875000000000000833, 2.500000000000000000, 0.000000000000000000 ) ) ;
#26 = MECHANICAL_DESIGN_GEOMETRIC_PRESENTATION_REPRESENTATION (  '', ( #125 ), #256 ) ;
#27 = ORIENTED_EDGE ( 'NONE', *, *, #44, .T. ) ;
#28 = LENGTH_MEASURE_WITH_UNIT ( LENGTH_MEASURE( 0.02539999999999999897 ), #99 );
#29 = FILL_AREA_STYLE_COLOUR ( '', #101 ) ;
#30 = DIRECTION ( 'NONE',  ( 0.000000000000000000, 0.000000000000000000, -1.000000000000000000 ) ) ;
#31 = ADVANCED_FACE ( 'NONE', ( #208 ), #148, .T. ) ;
#32 = AXIS2_PLACEMENT_3D ( 'NONE', #224, #335, #30 ) ;
#33 = VECTOR ( 'NONE', #123, 39.37007874015748143 ) ;
#34 = CARTESIAN_POINT ( 'NONE',  ( -0.1874999999999996114, 0.8749999999999997780, 0.000000000000000000 ) ) ;
#35 = SURFACE_STYLE_FILL_AREA ( #10 ) ;
#36 = CARTESIAN_POINT ( 'NONE',  ( 0.000000000000000000, 0.1573311808457394101, -0.1874999999999999722 ) ) ;
#37 = COLOUR_RGB ( '',1.000000000000000000, 0.000000000000000000, 0.000000000000000000 ) ;
#38 = SURFACE_SIDE_STYLE ('',( #35 ) ) ;
#39 = SURFACE_STYLE_FILL_AREA ( #279 ) ;
#40 = EDGE_CURVE ( 'NONE', #146, #251, #98, .T. ) ;
#41 = CARTESIAN_POINT ( 'NONE',  ( 0.1874999999999999722, 2.500000000000000000, 2.296212748401287726E-17 ) ) ;
#42 = EDGE_LOOP ( 'NONE', ( #285, #27, #165, #260 ) ) ;
#43 = APPLICATION_CONTEXT ( 'automotive_design' ) ;
#44 = EDGE_CURVE ( 'NONE', #168, #237, #210, .T. ) ;
#45 = COLOUR_RGB ( '',1.000000000000000000, 0.000000000000000000, 0.000000000000000000 ) ;
#46 = FACE_OUTER_BOUND ( 'NONE', #42, .T. ) ;
#47 = EDGE_LOOP ( 'NONE', ( #203, #70, #280, #295 ) ) ;
#48 = PRESENTATION_LAYER_ASSIGNMENT (  '', '', ( #334 ) ) ;
#49 = STYLED_ITEM ( 'NONE', ( #349 ), #347 ) ;
#50 = CARTESIAN_POINT ( 'NONE',  ( 0.1874999999999998057, 2.500000000000000000, 2.296212748401286493E-17 ) ) ;
#51 = DIRECTION ( 'NONE',  ( -0.000000000000000000, -1.000000000000000000, -0.000000000000000000 ) ) ;
#52 = FILL_AREA_STYLE ('',( #29 ) ) ;
#53 = SURFACE_STYLE_FILL_AREA ( #213 ) ;
#54 = CARTESIAN_POINT ( 'NONE',  ( 0.000000000000000000, 0.8750000000000000000, 0.000000000000000000 ) ) ;
#55 = EDGE_CURVE ( 'NONE', #299, #168, #325, .T. ) ;
#56 = CLOSED_SHELL ( 'NONE', ( #267, #332, #31, #214, #273 ) ) ;
#57 =( GEOMETRIC_REPRESENTATION_CONTEXT ( 3 ) GLOBAL_UNCERTAINTY_ASSIGNED_CONTEXT ( ( #190 ) ) GLOBAL_UNIT_ASSIGNED_CONTEXT ( ( #200, #254, #205 ) ) REPRESENTATION_CONTEXT ( 'NONE', 'WORKASPACE' ) );
#58 = DIRECTION ( 'NONE',  ( 0.000000000000000000, 0.6427876096865379196, 0.7660444431189792347 ) ) ;
#59 = CARTESIAN_POINT ( 'NONE',  ( 0.000000000000000000, 0.000000000000000000, 0.000000000000000000 ) ) ;
#60 = ORIENTED_EDGE ( 'NONE', *, *, #230, .F. ) ;
#61 = UNCERTAINTY_MEASURE_WITH_UNIT (LENGTH_MEASURE( 1.000000000000000082E-05 ), #244, 'distance_accuracy_value', 'NONE');
#62 = DIRECTION ( 'NONE',  ( -0.000000000000000000, -1.000000000000000000, -0.000000000000000000 ) ) ;
#63 = CIRCLE ( 'NONE', #255, 0.1874999999999999722 ) ;
#64 = COLOUR_RGB ( '',0.7921568627450980005, 0.8196078431372548767, 0.9333333333333333481 ) ;
#65 = PLANE ( 'NONE',  #134 ) ;
#66 = LINE ( 'NONE', #336, #104 ) ;
#67 = DIRECTION ( 'NONE',  ( -1.961946181288333422E-16, 1.000000000000000000, -0.000000000000000000 ) ) ;
#68 = VECTOR ( 'NONE', #326, 39.37007874015748143 ) ;
#69 = SHAPE_DEFINITION_REPRESENTATION ( #277, #215 ) ;
#70 = ORIENTED_EDGE ( 'NONE', *, *, #90, .T. ) ;
#71 = CARTESIAN_POINT ( 'NONE',  ( -1.224646799147352961E-16, 2.500000000000000000, 0.000000000000000000 ) ) ;
#72 = CYLINDRICAL_SURFACE ( 'NONE', #240, 0.1874999999999999445 ) ;
#73 = EDGE_LOOP ( 'NONE', ( #206, #12 ) ) ;
#74 =( GEOMETRIC_REPRESENTATION_CONTEXT ( 3 ) GLOBAL_UNCERTAINTY_ASSIGNED_CONTEXT ( ( #61 ) ) GLOBAL_UNIT_ASSIGNED_CONTEXT ( ( #244, #181, #23 ) ) REPRESENTATION_CONTEXT ( 'NONE', 'WORKASPACE' ) );
#75 =( NAMED_UNIT ( * ) SI_UNIT ( $, .STERADIAN. ) SOLID_ANGLE_UNIT ( ) );
#76 = LENGTH_MEASURE_WITH_UNIT ( LENGTH_MEASURE( 0.02539999999999999897 ), #227 );
#77 =( CONVERSION_BASED_UNIT ( 'INCH', #28 ) LENGTH_UNIT ( ) NAMED_UNIT ( #202 ) );
#78 = EDGE_LOOP ( 'NONE', ( #262, #170, #115 ) ) ;
#79 = DIRECTION ( 'NONE',  ( -0.000000000000000000, -1.000000000000000000, -0.000000000000000000 ) ) ;
#80 = DIRECTION ( 'NONE',  ( 0.000000000000000000, 1.000000000000000000, 0.000000000000000000 ) ) ;
#81 = EDGE_LOOP ( 'NONE', ( #19, #17, #315 ) ) ;
#82 =( GEOMETRIC_REPRESENTATION_CONTEXT ( 3 ) GLOBAL_UNCERTAINTY_ASSIGNED_CONTEXT ( ( #8 ) ) GLOBAL_UNIT_ASSIGNED_CONTEXT ( ( #308, #9, #107 ) ) REPRESENTATION_CONTEXT ( 'NONE', 'WORKASPACE' ) );
#83 = LINE ( 'NONE', #1, #13 ) ;
#84 = MECHANICAL_DESIGN_GEOMETRIC_PRESENTATION_REPRESENTATION (  '', ( #49 ), #20 ) ;
#85 = EDGE_CURVE ( 'NONE', #251, #323, #151, .T. ) ;
#86 = CARTESIAN_POINT ( 'NONE',  ( 0.000000000000000000, 0.000000000000000000, -0.1874999999999999722 ) ) ;
#87 = DIRECTION ( 'NONE',  ( -1.961946181288333422E-16, 1.000000000000000000, -0.000000000000000000 ) ) ;
#88 = AXIS2_PLACEMENT_3D ( 'NONE', #331, #87, #189 ) ;
#89 = PRODUCT_DEFINITION_FORMATION_WITH_SPECIFIED_SOURCE ( 'ANY', '', #219, .NOT_KNOWN. ) ;
#90 = EDGE_CURVE ( 'NONE', #168, #299, #297, .T. ) ;
#91 = DIRECTION ( 'NONE',  ( 9.381338752702745572E-17, 0.6427876096865379196, -0.7660444431189792347 ) ) ;
#92 =( NAMED_UNIT ( * ) SI_UNIT ( $, .STERADIAN. ) SOLID_ANGLE_UNIT ( ) );
#93 =( GEOMETRIC_REPRESENTATION_CONTEXT ( 3 ) GLOBAL_UNCERTAINTY_ASSIGNED_CONTEXT ( ( #261 ) ) GLOBAL_UNIT_ASSIGNED_CONTEXT ( ( #344, #113, #92 ) ) REPRESENTATION_CONTEXT ( 'NONE', 'WORKASPACE' ) );
#94 = MECHANICAL_DESIGN_GEOMETRIC_PRESENTATION_REPRESENTATION (  '', ( #204 ), #173 ) ;
#95 = DIRECTION ( 'NONE',  ( 0.000000000000000000, 0.000000000000000000, -1.000000000000000000 ) ) ;
#96 = VERTEX_POINT ( 'NONE', #36 ) ;
#97 = APPLICATION_PROTOCOL_DEFINITION ( 'draft international standard', 'automotive_design', 1998, #312 ) ;
#98 = CIRCLE ( 'NONE', #345, 0.1874999999999998057 ) ;
#99 =( LENGTH_UNIT ( ) NAMED_UNIT ( * ) SI_UNIT ( $, .METRE. ) );
#100 = DIRECTION ( 'NONE',  ( -1.000000000000000000, 0.000000000000000000, 0.000000000000000000 ) ) ;
#101 = COLOUR_RGB ( '',1.000000000000000000, 0.000000000000000000, 0.000000000000000000 ) ;
#102 = EDGE_CURVE ( 'NONE', #141, #96, #66, .T. ) ;
#103 =( NAMED_UNIT ( * ) PLANE_ANGLE_UNIT ( ) SI_UNIT ( $, .RADIAN. ) );
#104 = VECTOR ( 'NONE', #91, 39.37007874015748143 ) ;
#105 = AXIS2_PLACEMENT_3D ( 'NONE', #59, #51, #128 ) ;
#106 = DIRECTION ( 'NONE',  ( -1.000000000000000000, 0.000000000000000000, 0.000000000000000000 ) ) ;
#107 =( NAMED_UNIT ( * ) SI_UNIT ( $, .STERADIAN. ) SOLID_ANGLE_UNIT ( ) );
#108 = CONICAL_SURFACE ( 'NONE', #270, 46.91943277929978251, 0.8726646259971666542 ) ;
#109 = DIRECTION ( 'NONE',  ( -0.000000000000000000, -1.000000000000000000, -0.000000000000000000 ) ) ;
#110 = CARTESIAN_POINT ( 'NONE',  ( 0.000000000000000000, 39.37007874015748143, 0.000000000000000000 ) ) ;
#111 = SURFACE_SIDE_STYLE ('',( #39 ) ) ;
#112 = AXIS2_PLACEMENT_3D ( 'NONE', #338, #283, #95 ) ;
#113 =( NAMED_UNIT ( * ) PLANE_ANGLE_UNIT ( ) SI_UNIT ( $, .RADIAN. ) );
#114 = SURFACE_STYLE_USAGE ( .BOTH. , #111 ) ;
#115 = ORIENTED_EDGE ( 'NONE', *, *, #246, .T. ) ;
#116 = SURFACE_SIDE_STYLE ('',( #197 ) ) ;
#117 = EDGE_LOOP ( 'NONE', ( #186, #321 ) ) ;
#118 = CIRCLE ( 'NONE', #163, 0.1875000000000001110 ) ;
#119 =( GEOMETRIC_REPRESENTATION_CONTEXT ( 3 ) GLOBAL_UNCERTAINTY_ASSIGNED_CONTEXT ( ( #342 ) ) GLOBAL_UNIT_ASSIGNED_CONTEXT ( ( #222, #307, #75 ) ) REPRESENTATION_CONTEXT ( 'NONE', 'WORKASPACE' ) );
#120 = ORIENTED_EDGE ( 'NONE', *, *, #40, .T. ) ;
#121 =( LENGTH_UNIT ( ) NAMED_UNIT ( * ) SI_UNIT ( $, .METRE. ) );
#122 = DIRECTION ( 'NONE',  ( -1.961946181288333422E-16, 1.000000000000000000, -0.000000000000000000 ) ) ;
#123 = DIRECTION ( 'NONE',  ( -1.961946181288333422E-16, 1.000000000000000000, -0.000000000000000000 ) ) ;
#124 = VECTOR ( 'NONE', #350, 39.37007874015748143 ) ;
#125 = STYLED_ITEM ( 'NONE', ( #149 ), #332 ) ;
#126 = PRESENTATION_STYLE_ASSIGNMENT (( #4 ) ) ;
#127 = DIRECTION ( 'NONE',  ( 1.961946181288333422E-16, -1.000000000000000000, 0.000000000000000000 ) ) ;
#128 = DIRECTION ( 'NONE',  ( 0.000000000000000000, 0.000000000000000000, -1.000000000000000000 ) ) ;
#129 = PRESENTATION_LAYER_ASSIGNMENT (  '', '', ( #263 ) ) ;
#130 = CARTESIAN_POINT ( 'NONE',  ( -1.224646799147352961E-16, 2.500000000000000000, 0.000000000000000000 ) ) ;
#131 =( NAMED_UNIT ( * ) SI_UNIT ( $, .STERADIAN. ) SOLID_ANGLE_UNIT ( ) );
#132 = FACE_OUTER_BOUND ( 'NONE', #78, .T. ) ;
#133 = FACE_OUTER_BOUND ( 'NONE', #201, .T. ) ;
#134 = AXIS2_PLACEMENT_3D ( 'NONE', #305, #250, #157 ) ;
#135 = PRESENTATION_LAYER_ASSIGNMENT (  '', '', ( #204 ) ) ;
#136 =( LENGTH_UNIT ( ) NAMED_UNIT ( * ) SI_UNIT ( $, .METRE. ) );
#137 = PRODUCT_DEFINITION ( 'UNKNOWN', '', #89, #139 ) ;
#138 = DIRECTION ( 'NONE',  ( 0.000000000000000000, 1.000000000000000000, 0.000000000000000000 ) ) ;
#139 = PRODUCT_DEFINITION_CONTEXT ( 'detailed design', #43, 'design' ) ;
#140 =( LENGTH_UNIT ( ) NAMED_UNIT ( * ) SI_UNIT ( $, .METRE. ) );
#141 = VERTEX_POINT ( 'NONE', #194 ) ;
#142 = AXIS2_PLACEMENT_3D ( 'NONE', #320, #138, #174 ) ;
#143 = DIMENSIONAL_EXPONENTS ( 1.000000000000000000, 0.000000000000000000, 0.000000000000000000, 0.000000000000000000, 0.000000000000000000, 0.000000000000000000, 0.000000000000000000 ) ;
#144 = PRODUCT_CONTEXT ( 'NONE', #312, 'mechanical' ) ;
#145 = EDGE_LOOP ( 'NONE', ( #175, #281, #339, #232 ) ) ;
#146 = VERTEX_POINT ( 'NONE', #309 ) ;
#147 = SURFACE_STYLE_USAGE ( .BOTH. , #183 ) ;
#148 = PLANE ( 'NONE',  #268 ) ;
#149 = PRESENTATION_STYLE_ASSIGNMENT (( #147 ) ) ;
#150 = LENGTH_MEASURE_WITH_UNIT ( LENGTH_MEASURE( 0.02539999999999999897 ), #243 );
#151 = LINE ( 'NONE', #25, #33 ) ;
#152 = MECHANICAL_DESIGN_GEOMETRIC_PRESENTATION_REPRESENTATION (  '', ( #334 ), #93 ) ;
#153 =( NAMED_UNIT ( * ) SI_UNIT ( $, .STERADIAN. ) SOLID_ANGLE_UNIT ( ) );
#154 = ADVANCED_FACE ( 'NONE', ( #133 ), #333, .T. ) ;
#155 = PRESENTATION_LAYER_ASSIGNMENT (  '', '', ( #49 ) ) ;
#156 = PLANE ( 'NONE',  #253 ) ;
#157 = DIRECTION ( 'NONE',  ( -1.000000000000000000, -1.961946181288333422E-16, 0.000000000000000000 ) ) ;
#158 = CIRCLE ( 'NONE', #88, 0.1874999999999998057 ) ;
#159 =( LENGTH_UNIT ( ) NAMED_UNIT ( * ) SI_UNIT ( $, .METRE. ) );
#160 = DIRECTION ( 'NONE',  ( -0.000000000000000000, -1.000000000000000000, -0.000000000000000000 ) ) ;
#161 = FACE_OUTER_BOUND ( 'NONE', #73, .T. ) ;
#162 = DIRECTION ( 'NONE',  ( -1.961946181288333422E-16, 1.000000000000000000, -0.000000000000000000 ) ) ;
#163 = AXIS2_PLACEMENT_3D ( 'NONE', #130, #247, #106 ) ;
#164 = FILL_AREA_STYLE ('',( #233 ) ) ;
#165 = ORIENTED_EDGE ( 'NONE', *, *, #246, .F. ) ;
#166 = DIMENSIONAL_EXPONENTS ( 1.000000000000000000, 0.000000000000000000, 0.000000000000000000, 0.000000000000000000, 0.000000000000000000, 0.000000000000000000, 0.000000000000000000 ) ;
#167 = DIRECTION ( 'NONE',  ( -1.961946181288333422E-16, 1.000000000000000000, -0.000000000000000000 ) ) ;
#168 = VERTEX_POINT ( 'NONE', #248 ) ;
#169 = CARTESIAN_POINT ( 'NONE',  ( -0.1875000000000002498, 2.500000000000000000, 0.000000000000000000 ) ) ;
#170 = ORIENTED_EDGE ( 'NONE', *, *, #102, .T. ) ;
#171 = EDGE_CURVE ( 'NONE', #323, #318, #185, .T. ) ;
#172 = PRESENTATION_LAYER_ASSIGNMENT (  '', '', ( #125 ) ) ;
#173 =( GEOMETRIC_REPRESENTATION_CONTEXT ( 3 ) GLOBAL_UNCERTAINTY_ASSIGNED_CONTEXT ( ( #211 ) ) GLOBAL_UNIT_ASSIGNED_CONTEXT ( ( #24, #103, #153 ) ) REPRESENTATION_CONTEXT ( 'NONE', 'WORKASPACE' ) );
#174 = DIRECTION ( 'NONE',  ( 0.000000000000000000, 0.000000000000000000, 1.000000000000000000 ) ) ;
#175 = ORIENTED_EDGE ( 'NONE', *, *, #241, .T. ) ;
#176 = DIMENSIONAL_EXPONENTS ( 1.000000000000000000, 0.000000000000000000, 0.000000000000000000, 0.000000000000000000, 0.000000000000000000, 0.000000000000000000, 0.000000000000000000 ) ;
#177 = ADVANCED_FACE ( 'NONE', ( #161 ), #65, .F. ) ;
#178 = MECHANICAL_DESIGN_GEOMETRIC_PRESENTATION_REPRESENTATION (  '', ( #235 ), #82 ) ;
#179 = LINE ( 'NONE', #50, #124 ) ;
#180 = FILL_AREA_STYLE_COLOUR ( '', #304 ) ;
#181 =( NAMED_UNIT ( * ) PLANE_ANGLE_UNIT ( ) SI_UNIT ( $, .RADIAN. ) );
#182 = UNCERTAINTY_MEASURE_WITH_UNIT (LENGTH_MEASURE( 1.000000000000000082E-05 ), #187, 'distance_accuracy_value', 'NONE');
#183 = SURFACE_SIDE_STYLE ('',( #328 ) ) ;
#184 = SURFACE_STYLE_FILL_AREA ( #52 ) ;
#185 = CIRCLE ( 'NONE', #212, 0.1875000000000001110 ) ;
#186 = ORIENTED_EDGE ( 'NONE', *, *, #55, .F. ) ;
#187 =( CONVERSION_BASED_UNIT ( 'INCH', #2 ) LENGTH_UNIT ( ) NAMED_UNIT ( #340 ) );
#188 = FILL_AREA_STYLE_COLOUR ( '', #37 ) ;
#189 = DIRECTION ( 'NONE',  ( -1.000000000000000000, 0.000000000000000000, 0.000000000000000000 ) ) ;
#190 = UNCERTAINTY_MEASURE_WITH_UNIT (LENGTH_MEASURE( 1.000000000000000082E-05 ), #200, 'distance_accuracy_value', 'NONE');
#191 = PRESENTATION_LAYER_ASSIGNMENT (  '', '', ( #302 ) ) ;
#192 = LENGTH_MEASURE_WITH_UNIT ( LENGTH_MEASURE( 0.02539999999999999897 ), #159 );
#193 = DIRECTION ( 'NONE',  ( -1.000000000000000000, 0.000000000000000000, 0.000000000000000000 ) ) ;
#194 = CARTESIAN_POINT ( 'NONE',  ( 0.000000000000000000, 0.000000000000000000, 0.000000000000000000 ) ) ;
#195 = APPLICATION_PROTOCOL_DEFINITION ( 'draft international standard', 'automotive_design', 1998, #43 ) ;
#196 = PRESENTATION_LAYER_ASSIGNMENT (  '', '', ( #235 ) ) ;
#197 = SURFACE_STYLE_FILL_AREA ( #164 ) ;
#198 = PRODUCT_RELATED_PRODUCT_CATEGORY ( 'part', '', ( #219 ) ) ;
#199 = EDGE_CURVE ( 'NONE', #299, #96, #223, .T. ) ;
#200 =( CONVERSION_BASED_UNIT ( 'INCH', #322 ) LENGTH_UNIT ( ) NAMED_UNIT ( #143 ) );
#201 = EDGE_LOOP ( 'NONE', ( #286, #120, #229, #60 ) ) ;
#202 = DIMENSIONAL_EXPONENTS ( 1.000000000000000000, 0.000000000000000000, 0.000000000000000000, 0.000000000000000000, 0.000000000000000000, 0.000000000000000000, 0.000000000000000000 ) ;
#203 = ORIENTED_EDGE ( 'NONE', *, *, #44, .F. ) ;
#204 = STYLED_ITEM ( 'NONE', ( #126 ), #343 ) ;
#205 =( NAMED_UNIT ( * ) SI_UNIT ( $, .STERADIAN. ) SOLID_ANGLE_UNIT ( ) );
#206 = ORIENTED_EDGE ( 'NONE', *, *, #241, .F. ) ;
#207 =( NAMED_UNIT ( * ) SI_UNIT ( $, .STERADIAN. ) SOLID_ANGLE_UNIT ( ) );
#208 = FACE_OUTER_BOUND ( 'NONE', #117, .T. ) ;
#209 =( LENGTH_UNIT ( ) NAMED_UNIT ( * ) SI_UNIT ( $, .METRE. ) );
#210 = LINE ( 'NONE', #293, #68 ) ;
#211 = UNCERTAINTY_MEASURE_WITH_UNIT (LENGTH_MEASURE( 1.000000000000000082E-05 ), #24, 'distance_accuracy_value', 'NONE');
#212 = AXIS2_PLACEMENT_3D ( 'NONE', #220, #67, #276 ) ;
#213 = FILL_AREA_STYLE ('',( #180 ) ) ;
#214 = ADVANCED_FACE ( 'NONE', ( #330 ), #274, .T. ) ;
#215 = ADVANCED_BREP_SHAPE_REPRESENTATION ( '83766', ( #347, #343, #313 ), #119 ) ;
#216 = LENGTH_MEASURE_WITH_UNIT ( LENGTH_MEASURE( 0.02539999999999999897 ), #121 );
#217 = CARTESIAN_POINT ( 'NONE',  ( 0.000000000000000000, 0.8750000000000000000, 0.000000000000000000 ) ) ;
#218 = COLOUR_RGB ( '',1.000000000000000000, 0.000000000000000000, 0.000000000000000000 ) ;
#219 = PRODUCT ( '83766', '83766', '', ( #144 ) ) ;
#220 = CARTESIAN_POINT ( 'NONE',  ( -1.224646799147352961E-16, 2.500000000000000000, 0.000000000000000000 ) ) ;
#221 = CARTESIAN_POINT ( 'NONE',  ( 2.296212748401286801E-17, 0.1573311808457394101, 0.1874999999999999722 ) ) ;
#222 =( CONVERSION_BASED_UNIT ( 'INCH', #192 ) LENGTH_UNIT ( ) NAMED_UNIT ( #166 ) );
#223 = LINE ( 'NONE', #86, #228 ) ;
#224 = CARTESIAN_POINT ( 'NONE',  ( 0.000000000000000000, 0.000000000000000000, 0.000000000000000000 ) ) ;
#225 = DIRECTION ( 'NONE',  ( 0.000000000000000000, 0.000000000000000000, -1.000000000000000000 ) ) ;
#226 = CARTESIAN_POINT ( 'NONE',  ( 0.000000000000000000, 0.000000000000000000, 0.000000000000000000 ) ) ;
#227 =( LENGTH_UNIT ( ) NAMED_UNIT ( * ) SI_UNIT ( $, .METRE. ) );
#228 = VECTOR ( 'NONE', #109, 39.37007874015748143 ) ;
#229 = ORIENTED_EDGE ( 'NONE', *, *, #85, .T. ) ;
#230 = EDGE_CURVE ( 'NONE', #318, #323, #118, .T. ) ;
#231 = PRESENTATION_STYLE_ASSIGNMENT (( #287 ) ) ;
#232 = ORIENTED_EDGE ( 'NONE', *, *, #85, .F. ) ;
#233 = FILL_AREA_STYLE_COLOUR ( '', #218 ) ;
#234 = ORIENTED_EDGE ( 'NONE', *, *, #230, .T. ) ;
#235 = STYLED_ITEM ( 'NONE', ( #300 ), #214 ) ;
#236 = SURFACE_SIDE_STYLE ('',( #53 ) ) ;
#237 = VERTEX_POINT ( 'NONE', #221 ) ;
#238 =( NAMED_UNIT ( * ) PLANE_ANGLE_UNIT ( ) SI_UNIT ( $, .RADIAN. ) );
#239 = CARTESIAN_POINT ( 'NONE',  ( 0.000000000000000000, 0.8750000000000000000, 0.000000000000000000 ) ) ;
#240 = AXIS2_PLACEMENT_3D ( 'NONE', #71, #167, #16 ) ;
#241 = EDGE_CURVE ( 'NONE', #251, #146, #158, .T. ) ;
#242 = SURFACE_STYLE_USAGE ( .BOTH. , #236 ) ;
#243 =( LENGTH_UNIT ( ) NAMED_UNIT ( * ) SI_UNIT ( $, .METRE. ) );
#244 =( CONVERSION_BASED_UNIT ( 'INCH', #150 ) LENGTH_UNIT ( ) NAMED_UNIT ( #319 ) );
#245 = CARTESIAN_POINT ( 'NONE',  ( 0.1874999999999999722, 2.500000000000000000, 0.000000000000000000 ) ) ;
#246 = EDGE_CURVE ( 'NONE', #96, #237, #63, .T. ) ;
#247 = DIRECTION ( 'NONE',  ( -1.961946181288333422E-16, 1.000000000000000000, -0.000000000000000000 ) ) ;
#248 = CARTESIAN_POINT ( 'NONE',  ( 2.296212748401286801E-17, 0.8750000000000000000, 0.1874999999999999722 ) ) ;
#249 = CARTESIAN_POINT ( 'NONE',  ( -1.224646799147352961E-16, 2.500000000000000000, 0.000000000000000000 ) ) ;
#250 = DIRECTION ( 'NONE',  ( -1.961946181288333422E-16, 1.000000000000000000, 0.000000000000000000 ) ) ;
#251 = VERTEX_POINT ( 'NONE', #34 ) ;
#252 = DIRECTION ( 'NONE',  ( 1.000000000000000000, 0.000000000000000000, 0.000000000000000000 ) ) ;
#253 = AXIS2_PLACEMENT_3D ( 'NONE', #245, #127, #269 ) ;
#254 =( NAMED_UNIT ( * ) PLANE_ANGLE_UNIT ( ) SI_UNIT ( $, .RADIAN. ) );
#255 = AXIS2_PLACEMENT_3D ( 'NONE', #301, #62, #271 ) ;
#256 =( GEOMETRIC_REPRESENTATION_CONTEXT ( 3 ) GLOBAL_UNCERTAINTY_ASSIGNED_CONTEXT ( ( #288 ) ) GLOBAL_UNIT_ASSIGNED_CONTEXT ( ( #77, #238, #207 ) ) REPRESENTATION_CONTEXT ( 'NONE', 'WORKASPACE' ) );
#257 = EDGE_LOOP ( 'NONE', ( #22, #234 ) ) ;
#258 = FILL_AREA_STYLE_COLOUR ( '', #284 ) ;
#259 = CYLINDRICAL_SURFACE ( 'NONE', #105, 0.1874999999999999722 ) ;
#260 = ORIENTED_EDGE ( 'NONE', *, *, #199, .F. ) ;
#261 = UNCERTAINTY_MEASURE_WITH_UNIT (LENGTH_MEASURE( 1.000000000000000082E-05 ), #344, 'distance_accuracy_value', 'NONE');
#262 = ORIENTED_EDGE ( 'NONE', *, *, #3, .F. ) ;
#263 = STYLED_ITEM ( 'NONE', ( #231 ), #267 ) ;
#264 = SURFACE_SIDE_STYLE ('',( #289 ) ) ;
#265 = CARTESIAN_POINT ( 'NONE',  ( 1.963515745446189373E-16, 0.8749999999999997780, 0.000000000000000000 ) ) ;
#266 = SURFACE_STYLE_USAGE ( .BOTH. , #329 ) ;
#267 = ADVANCED_FACE ( 'NONE', ( #132 ), #108, .T. ) ;
#268 = AXIS2_PLACEMENT_3D ( 'NONE', #217, #80, #6 ) ;
#269 = DIRECTION ( 'NONE',  ( 1.000000000000000000, 1.961946181288333422E-16, 0.000000000000000000 ) ) ;
#270 = AXIS2_PLACEMENT_3D ( 'NONE', #110, #18, #341 ) ;
#271 = DIRECTION ( 'NONE',  ( 0.000000000000000000, 0.000000000000000000, -1.000000000000000000 ) ) ;
#272 = LENGTH_MEASURE_WITH_UNIT ( LENGTH_MEASURE( 0.02539999999999999897 ), #136 );
#273 = ADVANCED_FACE ( 'NONE', ( #314 ), #14, .T. ) ;
#274 = CYLINDRICAL_SURFACE ( 'NONE', #32, 0.1874999999999999722 ) ;
#275 = AXIS2_PLACEMENT_3D ( 'NONE', #54, #79, #292 ) ;
#276 = DIRECTION ( 'NONE',  ( -1.000000000000000000, 0.000000000000000000, 0.000000000000000000 ) ) ;
#277 = PRODUCT_DEFINITION_SHAPE ( 'NONE', 'NONE',  #137 ) ;
#278 = DIMENSIONAL_EXPONENTS ( 1.000000000000000000, 0.000000000000000000, 0.000000000000000000, 0.000000000000000000, 0.000000000000000000, 0.000000000000000000, 0.000000000000000000 ) ;
#279 = FILL_AREA_STYLE ('',( #258 ) ) ;
#280 = ORIENTED_EDGE ( 'NONE', *, *, #199, .T. ) ;
#281 = ORIENTED_EDGE ( 'NONE', *, *, #21, .T. ) ;
#282 = CLOSED_SHELL ( 'NONE', ( #310, #177, #154, #15 ) ) ;
#283 = DIRECTION ( 'NONE',  ( -0.000000000000000000, -1.000000000000000000, -0.000000000000000000 ) ) ;
#284 = COLOUR_RGB ( '',1.000000000000000000, 0.000000000000000000, 0.000000000000000000 ) ;
#285 = ORIENTED_EDGE ( 'NONE', *, *, #55, .T. ) ;
#286 = ORIENTED_EDGE ( 'NONE', *, *, #21, .F. ) ;
#287 = SURFACE_STYLE_USAGE ( .BOTH. , #116 ) ;
#288 = UNCERTAINTY_MEASURE_WITH_UNIT (LENGTH_MEASURE( 1.000000000000000082E-05 ), #77, 'distance_accuracy_value', 'NONE');
#289 = SURFACE_STYLE_FILL_AREA ( #298 ) ;
#290 = FACE_OUTER_BOUND ( 'NONE', #257, .T. ) ;
#291 = AXIS2_PLACEMENT_3D ( 'NONE', #249, #162, #193 ) ;
#292 = DIRECTION ( 'NONE',  ( 0.000000000000000000, 0.000000000000000000, -1.000000000000000000 ) ) ;
#293 = CARTESIAN_POINT ( 'NONE',  ( 2.296212748401286801E-17, 0.000000000000000000, 0.1874999999999999722 ) ) ;
#294 = FILL_AREA_STYLE_COLOUR ( '', #64 ) ;
#295 = ORIENTED_EDGE ( 'NONE', *, *, #306, .F. ) ;
#296 = MECHANICAL_DESIGN_GEOMETRIC_PRESENTATION_REPRESENTATION (  '', ( #302 ), #74 ) ;
#297 = CIRCLE ( 'NONE', #303, 0.1874999999999999722 ) ;
#298 = FILL_AREA_STYLE ('',( #294 ) ) ;
#299 = VERTEX_POINT ( 'NONE', #11 ) ;
#300 = PRESENTATION_STYLE_ASSIGNMENT (( #7 ) ) ;
#301 = CARTESIAN_POINT ( 'NONE',  ( 0.000000000000000000, 0.1573311808457394101, 0.000000000000000000 ) ) ;
#302 = STYLED_ITEM ( 'NONE', ( #327 ), #31 ) ;
#303 = AXIS2_PLACEMENT_3D ( 'NONE', #239, #160, #225 ) ;
#304 = COLOUR_RGB ( '',0.7921568627450980005, 0.8196078431372548767, 0.9333333333333333481 ) ;
#305 = CARTESIAN_POINT ( 'NONE',  ( 1.963515745446189127E-16, 0.8750000000000000000, 0.000000000000000000 ) ) ;
#306 = EDGE_CURVE ( 'NONE', #237, #96, #351, .T. ) ;
#307 =( NAMED_UNIT ( * ) PLANE_ANGLE_UNIT ( ) SI_UNIT ( $, .RADIAN. ) );
#308 =( CONVERSION_BASED_UNIT ( 'INCH', #272 ) LENGTH_UNIT ( ) NAMED_UNIT ( #278 ) );
#309 = CARTESIAN_POINT ( 'NONE',  ( 0.1874999999999999722, 0.8749999999999997780, 2.296212748401287726E-17 ) ) ;
#310 = ADVANCED_FACE ( 'NONE', ( #317 ), #72, .T. ) ;
#311 = MECHANICAL_DESIGN_GEOMETRIC_PRESENTATION_REPRESENTATION (  '', ( #263 ), #57 ) ;
#312 = APPLICATION_CONTEXT ( 'automotive_design' ) ;
#313 = AXIS2_PLACEMENT_3D ( 'NONE', #226, #316, #252 ) ;
#314 = FACE_OUTER_BOUND ( 'NONE', #81, .T. ) ;
#315 = ORIENTED_EDGE ( 'NONE', *, *, #306, .T. ) ;
#316 = DIRECTION ( 'NONE',  ( 0.000000000000000000, 0.000000000000000000, 1.000000000000000000 ) ) ;
#317 = FACE_OUTER_BOUND ( 'NONE', #145, .T. ) ;
#318 = VERTEX_POINT ( 'NONE', #41 ) ;
#319 = DIMENSIONAL_EXPONENTS ( 1.000000000000000000, 0.000000000000000000, 0.000000000000000000, 0.000000000000000000, 0.000000000000000000, 0.000000000000000000, 0.000000000000000000 ) ;
#320 = CARTESIAN_POINT ( 'NONE',  ( 0.000000000000000000, 39.37007874015748143, 0.000000000000000000 ) ) ;
#321 = ORIENTED_EDGE ( 'NONE', *, *, #90, .F. ) ;
#322 = LENGTH_MEASURE_WITH_UNIT ( LENGTH_MEASURE( 0.02539999999999999897 ), #140 );
#323 = VERTEX_POINT ( 'NONE', #169 ) ;
#324 = FILL_AREA_STYLE ('',( #348 ) ) ;
#325 = CIRCLE ( 'NONE', #275, 0.1874999999999999722 ) ;
#326 = DIRECTION ( 'NONE',  ( -0.000000000000000000, -1.000000000000000000, -0.000000000000000000 ) ) ;
#327 = PRESENTATION_STYLE_ASSIGNMENT (( #266 ) ) ;
#328 = SURFACE_STYLE_FILL_AREA ( #324 ) ;
#329 = SURFACE_SIDE_STYLE ('',( #184 ) ) ;
#330 = FACE_OUTER_BOUND ( 'NONE', #47, .T. ) ;
#331 = CARTESIAN_POINT ( 'NONE',  ( 1.963515745446189373E-16, 0.8749999999999997780, 0.000000000000000000 ) ) ;
#332 = ADVANCED_FACE ( 'NONE', ( #46 ), #259, .T. ) ;
#333 = CYLINDRICAL_SURFACE ( 'NONE', #291, 0.1874999999999999445 ) ;
#334 = STYLED_ITEM ( 'NONE', ( #337 ), #273 ) ;
#335 = DIRECTION ( 'NONE',  ( -0.000000000000000000, -1.000000000000000000, -0.000000000000000000 ) ) ;
#336 = CARTESIAN_POINT ( 'NONE',  ( 0.000000000000000000, 0.000000000000000000, 0.000000000000000000 ) ) ;
#337 = PRESENTATION_STYLE_ASSIGNMENT (( #114 ) ) ;
#338 = CARTESIAN_POINT ( 'NONE',  ( 0.000000000000000000, 0.1573311808457394101, 0.000000000000000000 ) ) ;
#339 = ORIENTED_EDGE ( 'NONE', *, *, #171, .F. ) ;
#340 = DIMENSIONAL_EXPONENTS ( 1.000000000000000000, 0.000000000000000000, 0.000000000000000000, 0.000000000000000000, 0.000000000000000000, 0.000000000000000000, 0.000000000000000000 ) ;
#341 = DIRECTION ( 'NONE',  ( 0.000000000000000000, 0.000000000000000000, 1.000000000000000000 ) ) ;
#342 = UNCERTAINTY_MEASURE_WITH_UNIT (LENGTH_MEASURE( 1.000000000000000082E-05 ), #222, 'distance_accuracy_value', 'NONE');
#343 = MANIFOLD_SOLID_BREP ( 'Revolve - Tool Body (Straight Shanked)', #282 ) ;
#344 =( CONVERSION_BASED_UNIT ( 'INCH', #76 ) LENGTH_UNIT ( ) NAMED_UNIT ( #346 ) );
#345 = AXIS2_PLACEMENT_3D ( 'NONE', #265, #122, #100 ) ;
#346 = DIMENSIONAL_EXPONENTS ( 1.000000000000000000, 0.000000000000000000, 0.000000000000000000, 0.000000000000000000, 0.000000000000000000, 0.000000000000000000, 0.000000000000000000 ) ;
#347 = MANIFOLD_SOLID_BREP ( 'Revolve - Cutting Edge', #56 ) ;
#348 = FILL_AREA_STYLE_COLOUR ( '', #45 ) ;
#349 = PRESENTATION_STYLE_ASSIGNMENT (( #242 ) ) ;
#350 = DIRECTION ( 'NONE',  ( -1.961946181288333422E-16, 1.000000000000000000, -0.000000000000000000 ) ) ;
#351 = CIRCLE ( 'NONE', #112, 0.1874999999999999722 ) ;
ENDSEC;
END-ISO-10303-21;
