ISO-10303-21;
HEADER;
FILE_DESCRIPTION (( 'STEP AP214' ),
    '1' );
FILE_NAME ('30662.STEP',
    '2023-06-22T18:55:09',
    ( '' ),
    ( '' ),
    'SwSTEP 2.0',
    'SolidWorks 2023',
    '' );
FILE_SCHEMA (( 'AUTOMOTIVE_DESIGN' ));
ENDSEC;

DATA;
#1 = PLANE ( 'NONE',  #103 ) ;
#2 = ORIENTED_EDGE ( 'NONE', *, *, #122, .F. ) ;
#3 = VERTEX_POINT ( 'NONE', #218 ) ;
#4 = CARTESIAN_POINT ( 'NONE',  ( 0.3750000000000000555, 4.000000000000000000, 4.592425496802576684E-17 ) ) ;
#5 = EDGE_CURVE ( 'NONE', #28, #106, #198, .T. ) ;
#6 =( CONVERSION_BASED_UNIT ( 'INCH', #273 ) LENGTH_UNIT ( ) NAMED_UNIT ( #100 ) );
#7 = CARTESIAN_POINT ( 'NONE',  ( -1.224646799147352714E-16, 4.000000000000000000, 0.000000000000000000 ) ) ;
#8 = DIRECTION ( 'NONE',  ( -0.000000000000000000, -1.000000000000000000, -0.000000000000000000 ) ) ;
#9 = MANIFOLD_SOLID_BREP ( 'Revolve - Tool Body (Straight Shanked)', #249 ) ;
#10 = AXIS2_PLACEMENT_3D ( 'NONE', #92, #15, #298 ) ;
#11 =( LENGTH_UNIT ( ) NAMED_UNIT ( * ) SI_UNIT ( $, .METRE. ) );
#12 = DIRECTION ( 'NONE',  ( -1.000000000000000000, 0.000000000000000000, 0.000000000000000000 ) ) ;
#13 = DIRECTION ( 'NONE',  ( -5.156407575357275299E-17, 1.000000000000000000, -0.000000000000000000 ) ) ;
#14 = CIRCLE ( 'NONE', #101, 0.3750000000000000555 ) ;
#15 = DIRECTION ( 'NONE',  ( -0.000000000000000000, -1.000000000000000000, -0.000000000000000000 ) ) ;
#16 = DIRECTION ( 'NONE',  ( 0.000000000000000000, -1.000000000000000000, -0.000000000000000000 ) ) ;
#17 =( GEOMETRIC_REPRESENTATION_CONTEXT ( 3 ) GLOBAL_UNCERTAINTY_ASSIGNED_CONTEXT ( ( #308 ) ) GLOBAL_UNIT_ASSIGNED_CONTEXT ( ( #288, #189, #190 ) ) REPRESENTATION_CONTEXT ( 'NONE', 'WORKASPACE' ) );
#18 =( GEOMETRIC_REPRESENTATION_CONTEXT ( 3 ) GLOBAL_UNCERTAINTY_ASSIGNED_CONTEXT ( ( #127 ) ) GLOBAL_UNIT_ASSIGNED_CONTEXT ( ( #182, #187, #37 ) ) REPRESENTATION_CONTEXT ( 'NONE', 'WORKASPACE' ) );
#19 = CARTESIAN_POINT ( 'NONE',  ( 0.000000000000000000, 1.625000000000000000, 0.000000000000000000 ) ) ;
#20 = FILL_AREA_STYLE ('',( #142 ) ) ;
#21 = ORIENTED_EDGE ( 'NONE', *, *, #72, .T. ) ;
#22 =( LENGTH_UNIT ( ) NAMED_UNIT ( * ) SI_UNIT ( $, .METRE. ) );
#23 = ORIENTED_EDGE ( 'NONE', *, *, #72, .F. ) ;
#24 = LINE ( 'NONE', #94, #40 ) ;
#25 =( LENGTH_UNIT ( ) NAMED_UNIT ( * ) SI_UNIT ( $, .METRE. ) );
#26 = ORIENTED_EDGE ( 'NONE', *, *, #5, .F. ) ;
#27 = DIMENSIONAL_EXPONENTS ( 1.000000000000000000, 0.000000000000000000, 0.000000000000000000, 0.000000000000000000, 0.000000000000000000, 0.000000000000000000, 0.000000000000000000 ) ;
#28 = VERTEX_POINT ( 'NONE', #219 ) ;
#29 = PRESENTATION_LAYER_ASSIGNMENT (  '', '', ( #118 ) ) ;
#30 = VECTOR ( 'NONE', #256, 39.37007874015748143 ) ;
#31 = EDGE_CURVE ( 'NONE', #130, #225, #287, .T. ) ;
#32 = LENGTH_MEASURE_WITH_UNIT ( LENGTH_MEASURE( 0.02539999999999999897 ), #222 );
#33 = COLOUR_RGB ( '',1.000000000000000000, 0.000000000000000000, 0.000000000000000000 ) ;
#34 = CARTESIAN_POINT ( 'NONE',  ( 3.032960542342103792E-32, 1.625000000000000000, 0.000000000000000000 ) ) ;
#35 = AXIS2_PLACEMENT_3D ( 'NONE', #144, #16, #167 ) ;
#36 = SURFACE_STYLE_FILL_AREA ( #20 ) ;
#37 =( NAMED_UNIT ( * ) SI_UNIT ( $, .STERADIAN. ) SOLID_ANGLE_UNIT ( ) );
#38 = FACE_OUTER_BOUND ( 'NONE', #76, .T. ) ;
#39 = FACE_OUTER_BOUND ( 'NONE', #289, .T. ) ;
#40 = VECTOR ( 'NONE', #70, 39.37007874015748143 ) ;
#41 = PRODUCT ( '30662', '30662', '', ( #67 ) ) ;
#42 = VERTEX_POINT ( 'NONE', #148 ) ;
#43 = APPLICATION_CONTEXT ( 'automotive_design' ) ;
#44 = SURFACE_SIDE_STYLE ('',( #154 ) ) ;
#45 = PRESENTATION_LAYER_ASSIGNMENT (  '', '', ( #186 ) ) ;
#46 = ORIENTED_EDGE ( 'NONE', *, *, #215, .F. ) ;
#47 = AXIS2_PLACEMENT_3D ( 'NONE', #58, #159, #231 ) ;
#48 = DIRECTION ( 'NONE',  ( -1.000000000000000000, 0.000000000000000000, 0.000000000000000000 ) ) ;
#49 = PRODUCT_DEFINITION_SHAPE ( 'NONE', 'NONE',  #194 ) ;
#50 = DIRECTION ( 'NONE',  ( -0.000000000000000000, -1.000000000000000000, -0.000000000000000000 ) ) ;
#51 = ORIENTED_EDGE ( 'NONE', *, *, #136, .F. ) ;
#52 = DIMENSIONAL_EXPONENTS ( 1.000000000000000000, 0.000000000000000000, 0.000000000000000000, 0.000000000000000000, 0.000000000000000000, 0.000000000000000000, 0.000000000000000000 ) ;
#53 = SURFACE_STYLE_USAGE ( .BOTH. , #44 ) ;
#54 = COLOUR_RGB ( '',1.000000000000000000, 0.000000000000000000, 0.000000000000000000 ) ;
#55 = AXIS2_PLACEMENT_3D ( 'NONE', #84, #272, #180 ) ;
#56 = EDGE_CURVE ( 'NONE', #28, #197, #240, .T. ) ;
#57 = VECTOR ( 'NONE', #125, 39.37007874015748143 ) ;
#58 = CARTESIAN_POINT ( 'NONE',  ( -1.224646799147352714E-16, 4.000000000000000000, 0.000000000000000000 ) ) ;
#59 = AXIS2_PLACEMENT_3D ( 'NONE', #89, #161, #65 ) ;
#60 = LENGTH_MEASURE_WITH_UNIT ( LENGTH_MEASURE( 0.02539999999999999897 ), #25 );
#61 = CARTESIAN_POINT ( 'NONE',  ( 0.3750000000000000555, 1.625000000000000000, 4.592425496802576684E-17 ) ) ;
#62 =( NAMED_UNIT ( * ) SI_UNIT ( $, .STERADIAN. ) SOLID_ANGLE_UNIT ( ) );
#63 = LENGTH_MEASURE_WITH_UNIT ( LENGTH_MEASURE( 0.02539999999999999897 ), #74 );
#64 = MECHANICAL_DESIGN_GEOMETRIC_PRESENTATION_REPRESENTATION (  '', ( #118 ), #280 ) ;
#65 = DIRECTION ( 'NONE',  ( -1.000000000000000000, 0.000000000000000000, 0.000000000000000000 ) ) ;
#66 = FILL_AREA_STYLE ('',( #185 ) ) ;
#67 = PRODUCT_CONTEXT ( 'NONE', #233, 'mechanical' ) ;
#68 = SURFACE_STYLE_USAGE ( .BOTH. , #188 ) ;
#69 = CARTESIAN_POINT ( 'NONE',  ( -1.224646799147352714E-16, 4.000000000000000000, 0.000000000000000000 ) ) ;
#70 = DIRECTION ( 'NONE',  ( -5.156407575357275916E-17, 1.000000000000000000, -0.000000000000000000 ) ) ;
#71 = UNCERTAINTY_MEASURE_WITH_UNIT (LENGTH_MEASURE( 1.000000000000000082E-05 ), #6, 'distance_accuracy_value', 'NONE');
#72 = EDGE_CURVE ( 'NONE', #197, #28, #14, .T. ) ;
#73 = ORIENTED_EDGE ( 'NONE', *, *, #236, .T. ) ;
#74 =( LENGTH_UNIT ( ) NAMED_UNIT ( * ) SI_UNIT ( $, .METRE. ) );
#75 = FILL_AREA_STYLE ('',( #302 ) ) ;
#76 = EDGE_LOOP ( 'NONE', ( #176, #73, #134, #270 ) ) ;
#77 = ORIENTED_EDGE ( 'NONE', *, *, #56, .F. ) ;
#78 = EDGE_LOOP ( 'NONE', ( #195, #21, #102, #248 ) ) ;
#79 = PRESENTATION_LAYER_ASSIGNMENT (  '', '', ( #210 ) ) ;
#80 = ADVANCED_FACE ( 'NONE', ( #39 ), #214, .F. ) ;
#81 = DIRECTION ( 'NONE',  ( 0.000000000000000000, -0.000000000000000000, 1.000000000000000000 ) ) ;
#82 = DIMENSIONAL_EXPONENTS ( 1.000000000000000000, 0.000000000000000000, 0.000000000000000000, 0.000000000000000000, 0.000000000000000000, 0.000000000000000000, 0.000000000000000000 ) ;
#83 = EDGE_CURVE ( 'NONE', #153, #42, #24, .T. ) ;
#84 = CARTESIAN_POINT ( 'NONE',  ( 3.032960542342103792E-32, 1.625000000000000000, 0.000000000000000000 ) ) ;
#85 = AXIS2_PLACEMENT_3D ( 'NONE', #177, #150, #202 ) ;
#86 = SURFACE_SIDE_STYLE ('',( #295 ) ) ;
#87 = CLOSED_SHELL ( 'NONE', ( #172, #206, #169, #90 ) ) ;
#88 = PRESENTATION_LAYER_ASSIGNMENT (  '', '', ( #178 ) ) ;
#89 = CARTESIAN_POINT ( 'NONE',  ( -1.224646799147352714E-16, 4.000000000000000000, 0.000000000000000000 ) ) ;
#90 = ADVANCED_FACE ( 'NONE', ( #265 ), #282, .T. ) ;
#91 = CYLINDRICAL_SURFACE ( 'NONE', #254, 0.3750000000000000555 ) ;
#92 = CARTESIAN_POINT ( 'NONE',  ( 0.000000000000000000, 0.000000000000000000, 0.000000000000000000 ) ) ;
#93 = SURFACE_STYLE_USAGE ( .BOTH. , #304 ) ;
#94 = CARTESIAN_POINT ( 'NONE',  ( -0.3750000000000002220, 4.000000000000000000, 0.000000000000000000 ) ) ;
#95 = LENGTH_MEASURE_WITH_UNIT ( LENGTH_MEASURE( 0.02539999999999999897 ), #22 );
#96 = CARTESIAN_POINT ( 'NONE',  ( 0.000000000000000000, 1.625000000000000000, 0.000000000000000000 ) ) ;
#97 =( GEOMETRIC_REPRESENTATION_CONTEXT ( 3 ) GLOBAL_UNCERTAINTY_ASSIGNED_CONTEXT ( ( #247 ) ) GLOBAL_UNIT_ASSIGNED_CONTEXT ( ( #116, #123, #260 ) ) REPRESENTATION_CONTEXT ( 'NONE', 'WORKASPACE' ) );
#98 = EDGE_LOOP ( 'NONE', ( #271, #155 ) ) ;
#99 = ORIENTED_EDGE ( 'NONE', *, *, #215, .T. ) ;
#100 = DIMENSIONAL_EXPONENTS ( 1.000000000000000000, 0.000000000000000000, 0.000000000000000000, 0.000000000000000000, 0.000000000000000000, 0.000000000000000000, 0.000000000000000000 ) ;
#101 = AXIS2_PLACEMENT_3D ( 'NONE', #19, #211, #307 ) ;
#102 = ORIENTED_EDGE ( 'NONE', *, *, #5, .T. ) ;
#103 = AXIS2_PLACEMENT_3D ( 'NONE', #96, #158, #81 ) ;
#104 = ADVANCED_BREP_SHAPE_REPRESENTATION ( '30662', ( #121, #9, #281 ), #18 ) ;
#105 = DIMENSIONAL_EXPONENTS ( 1.000000000000000000, 0.000000000000000000, 0.000000000000000000, 0.000000000000000000, 0.000000000000000000, 0.000000000000000000, 0.000000000000000000 ) ;
#106 = VERTEX_POINT ( 'NONE', #119 ) ;
#107 =( NAMED_UNIT ( * ) SI_UNIT ( $, .STERADIAN. ) SOLID_ANGLE_UNIT ( ) );
#108 = FACE_OUTER_BOUND ( 'NONE', #98, .T. ) ;
#109 = PRESENTATION_LAYER_ASSIGNMENT (  '', '', ( #151 ) ) ;
#110 = ADVANCED_FACE ( 'NONE', ( #38 ), #117, .T. ) ;
#111 = FILL_AREA_STYLE_COLOUR ( '', #285 ) ;
#112 = VECTOR ( 'NONE', #174, 39.37007874015748143 ) ;
#113 = CARTESIAN_POINT ( 'NONE',  ( -0.3750000000000000555, 1.625000000000000000, 0.000000000000000000 ) ) ;
#114 = DIRECTION ( 'NONE',  ( 0.000000000000000000, 0.000000000000000000, -1.000000000000000000 ) ) ;
#115 = APPLICATION_PROTOCOL_DEFINITION ( 'draft international standard', 'automotive_design', 1998, #43 ) ;
#116 =( CONVERSION_BASED_UNIT ( 'INCH', #63 ) LENGTH_UNIT ( ) NAMED_UNIT ( #175 ) );
#117 = CYLINDRICAL_SURFACE ( 'NONE', #296, 0.3750000000000001110 ) ;
#118 = STYLED_ITEM ( 'NONE', ( #230 ), #169 ) ;
#119 = CARTESIAN_POINT ( 'NONE',  ( 0.000000000000000000, 0.000000000000000000, -0.3750000000000000555 ) ) ;
#120 = PRODUCT_DEFINITION_CONTEXT ( 'detailed design', #43, 'design' ) ;
#121 = MANIFOLD_SOLID_BREP ( 'Revolve - Cutting Edge', #87 ) ;
#122 = EDGE_CURVE ( 'NONE', #42, #225, #224, .T. ) ;
#123 =( NAMED_UNIT ( * ) PLANE_ANGLE_UNIT ( ) SI_UNIT ( $, .RADIAN. ) );
#124 = EDGE_LOOP ( 'NONE', ( #77, #23 ) ) ;
#125 = DIRECTION ( 'NONE',  ( -5.156407575357275916E-17, 1.000000000000000000, -0.000000000000000000 ) ) ;
#126 = EDGE_CURVE ( 'NONE', #197, #3, #232, .T. ) ;
#127 = UNCERTAINTY_MEASURE_WITH_UNIT (LENGTH_MEASURE( 1.000000000000000082E-05 ), #182, 'distance_accuracy_value', 'NONE');
#128 = COLOUR_RGB ( '',0.7921568627450980005, 0.8196078431372548767, 0.9333333333333333481 ) ;
#129 = CIRCLE ( 'NONE', #55, 0.3750000000000000555 ) ;
#130 = VERTEX_POINT ( 'NONE', #61 ) ;
#131 = SURFACE_SIDE_STYLE ('',( #171 ) ) ;
#132 = PRODUCT_RELATED_PRODUCT_CATEGORY ( 'part', '', ( #41 ) ) ;
#133 = DIRECTION ( 'NONE',  ( 0.000000000000000000, 0.000000000000000000, -1.000000000000000000 ) ) ;
#134 = ORIENTED_EDGE ( 'NONE', *, *, #83, .T. ) ;
#135 = MECHANICAL_DESIGN_GEOMETRIC_PRESENTATION_REPRESENTATION (  '', ( #210 ), #140 ) ;
#136 = EDGE_CURVE ( 'NONE', #153, #130, #229, .T. ) ;
#137 = PRESENTATION_STYLE_ASSIGNMENT (( #53 ) ) ;
#138 = FACE_OUTER_BOUND ( 'NONE', #78, .T. ) ;
#139 = CARTESIAN_POINT ( 'NONE',  ( 0.000000000000000000, 0.000000000000000000, 0.000000000000000000 ) ) ;
#140 =( GEOMETRIC_REPRESENTATION_CONTEXT ( 3 ) GLOBAL_UNCERTAINTY_ASSIGNED_CONTEXT ( ( #191 ) ) GLOBAL_UNIT_ASSIGNED_CONTEXT ( ( #143, #227, #107 ) ) REPRESENTATION_CONTEXT ( 'NONE', 'WORKASPACE' ) );
#141 = CYLINDRICAL_SURFACE ( 'NONE', #10, 0.3750000000000000555 ) ;
#142 = FILL_AREA_STYLE_COLOUR ( '', #277 ) ;
#143 =( CONVERSION_BASED_UNIT ( 'INCH', #95 ) LENGTH_UNIT ( ) NAMED_UNIT ( #291 ) );
#144 = CARTESIAN_POINT ( 'NONE',  ( 0.000000000000000000, 0.000000000000000000, 0.000000000000000000 ) ) ;
#145 = DIRECTION ( 'NONE',  ( -1.000000000000000000, 0.000000000000000000, 0.000000000000000000 ) ) ;
#146 = DIRECTION ( 'NONE',  ( -1.000000000000000000, -5.156407575357275916E-17, 0.000000000000000000 ) ) ;
#147 =( GEOMETRIC_REPRESENTATION_CONTEXT ( 3 ) GLOBAL_UNCERTAINTY_ASSIGNED_CONTEXT ( ( #217 ) ) GLOBAL_UNIT_ASSIGNED_CONTEXT ( ( #257, #205, #62 ) ) REPRESENTATION_CONTEXT ( 'NONE', 'WORKASPACE' ) );
#148 = CARTESIAN_POINT ( 'NONE',  ( -0.3750000000000002776, 4.000000000000000000, 0.000000000000000000 ) ) ;
#149 = FILL_AREA_STYLE ('',( #294 ) ) ;
#150 = DIRECTION ( 'NONE',  ( 5.156407575357275916E-17, -1.000000000000000000, 0.000000000000000000 ) ) ;
#151 = STYLED_ITEM ( 'NONE', ( #238 ), #90 ) ;
#152 = EDGE_LOOP ( 'NONE', ( #170, #266, #46, #26 ) ) ;
#153 = VERTEX_POINT ( 'NONE', #113 ) ;
#154 = SURFACE_STYLE_FILL_AREA ( #149 ) ;
#155 = ORIENTED_EDGE ( 'NONE', *, *, #207, .T. ) ;
#156 =( NAMED_UNIT ( * ) SI_UNIT ( $, .STERADIAN. ) SOLID_ANGLE_UNIT ( ) );
#157 = MECHANICAL_DESIGN_GEOMETRIC_PRESENTATION_REPRESENTATION (  '', ( #178 ), #147 ) ;
#158 = DIRECTION ( 'NONE',  ( 0.000000000000000000, 1.000000000000000000, 0.000000000000000000 ) ) ;
#159 = DIRECTION ( 'NONE',  ( -5.156407575357275299E-17, 1.000000000000000000, -0.000000000000000000 ) ) ;
#160 =( NAMED_UNIT ( * ) PLANE_ANGLE_UNIT ( ) SI_UNIT ( $, .RADIAN. ) );
#161 = DIRECTION ( 'NONE',  ( -5.156407575357275299E-17, 1.000000000000000000, -0.000000000000000000 ) ) ;
#162 = DIRECTION ( 'NONE',  ( 0.000000000000000000, 0.000000000000000000, 1.000000000000000000 ) ) ;
#163 = FILL_AREA_STYLE ('',( #300 ) ) ;
#164 = CARTESIAN_POINT ( 'NONE',  ( 4.592425496802575451E-17, 1.625000000000000000, 0.3750000000000000555 ) ) ;
#165 = PRESENTATION_STYLE_ASSIGNMENT (( #68 ) ) ;
#166 = CARTESIAN_POINT ( 'NONE',  ( 0.3749999999999999445, 4.000000000000000000, 4.592425496802576068E-17 ) ) ;
#167 = DIRECTION ( 'NONE',  ( 0.000000000000000000, 0.000000000000000000, -1.000000000000000000 ) ) ;
#168 = AXIS2_PLACEMENT_3D ( 'NONE', #269, #250, #146 ) ;
#169 = ADVANCED_FACE ( 'NONE', ( #138 ), #141, .T. ) ;
#170 = ORIENTED_EDGE ( 'NONE', *, *, #56, .T. ) ;
#171 = SURFACE_STYLE_FILL_AREA ( #75 ) ;
#172 = ADVANCED_FACE ( 'NONE', ( #239 ), #91, .T. ) ;
#173 =( GEOMETRIC_REPRESENTATION_CONTEXT ( 3 ) GLOBAL_UNCERTAINTY_ASSIGNED_CONTEXT ( ( #303 ) ) GLOBAL_UNIT_ASSIGNED_CONTEXT ( ( #259, #183, #276 ) ) REPRESENTATION_CONTEXT ( 'NONE', 'WORKASPACE' ) );
#174 = DIRECTION ( 'NONE',  ( -0.000000000000000000, -1.000000000000000000, -0.000000000000000000 ) ) ;
#175 = DIMENSIONAL_EXPONENTS ( 1.000000000000000000, 0.000000000000000000, 0.000000000000000000, 0.000000000000000000, 0.000000000000000000, 0.000000000000000000, 0.000000000000000000 ) ;
#176 = ORIENTED_EDGE ( 'NONE', *, *, #31, .F. ) ;
#177 = CARTESIAN_POINT ( 'NONE',  ( 0.3750000000000000555, 4.000000000000000000, 0.000000000000000000 ) ) ;
#178 = STYLED_ITEM ( 'NONE', ( #165 ), #172 ) ;
#179 = ADVANCED_FACE ( 'NONE', ( #208 ), #297, .T. ) ;
#180 = DIRECTION ( 'NONE',  ( -1.000000000000000000, 0.000000000000000000, 0.000000000000000000 ) ) ;
#181 = SURFACE_STYLE_USAGE ( .BOTH. , #86 ) ;
#182 =( CONVERSION_BASED_UNIT ( 'INCH', #32 ) LENGTH_UNIT ( ) NAMED_UNIT ( #27 ) );
#183 =( NAMED_UNIT ( * ) PLANE_ANGLE_UNIT ( ) SI_UNIT ( $, .RADIAN. ) );
#184 = CARTESIAN_POINT ( 'NONE',  ( 0.000000000000000000, 0.000000000000000000, 0.000000000000000000 ) ) ;
#185 = FILL_AREA_STYLE_COLOUR ( '', #54 ) ;
#186 = STYLED_ITEM ( 'NONE', ( #196 ), #9 ) ;
#187 =( NAMED_UNIT ( * ) PLANE_ANGLE_UNIT ( ) SI_UNIT ( $, .RADIAN. ) );
#188 = SURFACE_SIDE_STYLE ('',( #209 ) ) ;
#189 =( NAMED_UNIT ( * ) PLANE_ANGLE_UNIT ( ) SI_UNIT ( $, .RADIAN. ) );
#190 =( NAMED_UNIT ( * ) SI_UNIT ( $, .STERADIAN. ) SOLID_ANGLE_UNIT ( ) );
#191 = UNCERTAINTY_MEASURE_WITH_UNIT (LENGTH_MEASURE( 1.000000000000000082E-05 ), #143, 'distance_accuracy_value', 'NONE');
#192 = PRESENTATION_STYLE_ASSIGNMENT (( #93 ) ) ;
#193 = AXIS2_PLACEMENT_3D ( 'NONE', #284, #8, #275 ) ;
#194 = PRODUCT_DEFINITION ( 'UNKNOWN', '', #199, #120 ) ;
#195 = ORIENTED_EDGE ( 'NONE', *, *, #126, .F. ) ;
#196 = PRESENTATION_STYLE_ASSIGNMENT (( #216 ) ) ;
#197 = VERTEX_POINT ( 'NONE', #164 ) ;
#198 = LINE ( 'NONE', #292, #112 ) ;
#199 = PRODUCT_DEFINITION_FORMATION_WITH_SPECIFIED_SOURCE ( 'ANY', '', #41, .NOT_KNOWN. ) ;
#200 = CARTESIAN_POINT ( 'NONE',  ( 0.000000000000000000, 0.000000000000000000, 0.000000000000000000 ) ) ;
#201 = EDGE_CURVE ( 'NONE', #3, #106, #220, .T. ) ;
#202 = DIRECTION ( 'NONE',  ( 1.000000000000000000, 5.156407575357275916E-17, 0.000000000000000000 ) ) ;
#203 = AXIS2_PLACEMENT_3D ( 'NONE', #34, #13, #12 ) ;
#204 = FILL_AREA_STYLE ('',( #111 ) ) ;
#205 =( NAMED_UNIT ( * ) PLANE_ANGLE_UNIT ( ) SI_UNIT ( $, .RADIAN. ) );
#206 = ADVANCED_FACE ( 'NONE', ( #243 ), #1, .T. ) ;
#207 = EDGE_CURVE ( 'NONE', #225, #42, #264, .T. ) ;
#208 = FACE_OUTER_BOUND ( 'NONE', #252, .T. ) ;
#209 = SURFACE_STYLE_FILL_AREA ( #66 ) ;
#210 = STYLED_ITEM ( 'NONE', ( #137 ), #206 ) ;
#211 = DIRECTION ( 'NONE',  ( -0.000000000000000000, -1.000000000000000000, -0.000000000000000000 ) ) ;
#212 = DIRECTION ( 'NONE',  ( 1.000000000000000000, 0.000000000000000000, 0.000000000000000000 ) ) ;
#213 = SURFACE_STYLE_USAGE ( .BOTH. , #267 ) ;
#214 = PLANE ( 'NONE',  #168 ) ;
#215 = EDGE_CURVE ( 'NONE', #106, #3, #274, .T. ) ;
#216 = SURFACE_STYLE_USAGE ( .BOTH. , #131 ) ;
#217 = UNCERTAINTY_MEASURE_WITH_UNIT (LENGTH_MEASURE( 1.000000000000000082E-05 ), #257, 'distance_accuracy_value', 'NONE');
#218 = CARTESIAN_POINT ( 'NONE',  ( 4.592425496802575451E-17, 0.000000000000000000, 0.3750000000000000555 ) ) ;
#219 = CARTESIAN_POINT ( 'NONE',  ( 0.000000000000000000, 1.625000000000000000, -0.3750000000000000555 ) ) ;
#220 = CIRCLE ( 'NONE', #193, 0.3750000000000000555 ) ;
#221 = ORIENTED_EDGE ( 'NONE', *, *, #201, .T. ) ;
#222 =( LENGTH_UNIT ( ) NAMED_UNIT ( * ) SI_UNIT ( $, .METRE. ) );
#223 = DIRECTION ( 'NONE',  ( 0.000000000000000000, 0.000000000000000000, -1.000000000000000000 ) ) ;
#224 = CIRCLE ( 'NONE', #47, 0.3750000000000001665 ) ;
#225 = VERTEX_POINT ( 'NONE', #4 ) ;
#226 = ADVANCED_FACE ( 'NONE', ( #108 ), #293, .F. ) ;
#227 =( NAMED_UNIT ( * ) PLANE_ANGLE_UNIT ( ) SI_UNIT ( $, .RADIAN. ) );
#228 = MECHANICAL_DESIGN_GEOMETRIC_PRESENTATION_REPRESENTATION (  '', ( #186 ), #17 ) ;
#229 = CIRCLE ( 'NONE', #203, 0.3750000000000000555 ) ;
#230 = PRESENTATION_STYLE_ASSIGNMENT (( #181 ) ) ;
#231 = DIRECTION ( 'NONE',  ( -1.000000000000000000, 0.000000000000000000, 0.000000000000000000 ) ) ;
#232 = LINE ( 'NONE', #278, #30 ) ;
#233 = APPLICATION_CONTEXT ( 'automotive_design' ) ;
#234 = DIRECTION ( 'NONE',  ( -0.000000000000000000, -1.000000000000000000, -0.000000000000000000 ) ) ;
#235 = AXIS2_PLACEMENT_3D ( 'NONE', #7, #290, #48 ) ;
#236 = EDGE_CURVE ( 'NONE', #130, #153, #129, .T. ) ;
#237 = APPLICATION_PROTOCOL_DEFINITION ( 'draft international standard', 'automotive_design', 1998, #233 ) ;
#238 = PRESENTATION_STYLE_ASSIGNMENT (( #213 ) ) ;
#239 = FACE_OUTER_BOUND ( 'NONE', #152, .T. ) ;
#240 = CIRCLE ( 'NONE', #262, 0.3750000000000000555 ) ;
#241 = PRESENTATION_LAYER_ASSIGNMENT (  '', '', ( #258 ) ) ;
#242 = LENGTH_MEASURE_WITH_UNIT ( LENGTH_MEASURE( 0.02539999999999999897 ), #301 );
#243 = FACE_OUTER_BOUND ( 'NONE', #124, .T. ) ;
#244 = LENGTH_MEASURE_WITH_UNIT ( LENGTH_MEASURE( 0.02539999999999999897 ), #283 );
#245 = ORIENTED_EDGE ( 'NONE', *, *, #136, .T. ) ;
#246 = CARTESIAN_POINT ( 'NONE',  ( 0.000000000000000000, 1.625000000000000000, 0.000000000000000000 ) ) ;
#247 = UNCERTAINTY_MEASURE_WITH_UNIT (LENGTH_MEASURE( 1.000000000000000082E-05 ), #116, 'distance_accuracy_value', 'NONE');
#248 = ORIENTED_EDGE ( 'NONE', *, *, #201, .F. ) ;
#249 = CLOSED_SHELL ( 'NONE', ( #179, #80, #110, #226 ) ) ;
#250 = DIRECTION ( 'NONE',  ( -5.156407575357275916E-17, 1.000000000000000000, 0.000000000000000000 ) ) ;
#251 = MECHANICAL_DESIGN_GEOMETRIC_PRESENTATION_REPRESENTATION (  '', ( #258 ), #173 ) ;
#252 = EDGE_LOOP ( 'NONE', ( #245, #253, #2, #305 ) ) ;
#253 = ORIENTED_EDGE ( 'NONE', *, *, #31, .T. ) ;
#254 = AXIS2_PLACEMENT_3D ( 'NONE', #139, #234, #114 ) ;
#255 = MECHANICAL_DESIGN_GEOMETRIC_PRESENTATION_REPRESENTATION (  '', ( #151 ), #97 ) ;
#256 = DIRECTION ( 'NONE',  ( -0.000000000000000000, -1.000000000000000000, -0.000000000000000000 ) ) ;
#257 =( CONVERSION_BASED_UNIT ( 'INCH', #60 ) LENGTH_UNIT ( ) NAMED_UNIT ( #105 ) );
#258 = STYLED_ITEM ( 'NONE', ( #192 ), #121 ) ;
#259 =( CONVERSION_BASED_UNIT ( 'INCH', #244 ) LENGTH_UNIT ( ) NAMED_UNIT ( #52 ) );
#260 =( NAMED_UNIT ( * ) SI_UNIT ( $, .STERADIAN. ) SOLID_ANGLE_UNIT ( ) );
#261 = DIRECTION ( 'NONE',  ( -0.000000000000000000, -1.000000000000000000, -0.000000000000000000 ) ) ;
#262 = AXIS2_PLACEMENT_3D ( 'NONE', #246, #261, #223 ) ;
#263 = SURFACE_STYLE_FILL_AREA ( #163 ) ;
#264 = CIRCLE ( 'NONE', #235, 0.3750000000000001665 ) ;
#265 = FACE_OUTER_BOUND ( 'NONE', #268, .T. ) ;
#266 = ORIENTED_EDGE ( 'NONE', *, *, #126, .T. ) ;
#267 = SURFACE_SIDE_STYLE ('',( #36 ) ) ;
#268 = EDGE_LOOP ( 'NONE', ( #99, #221 ) ) ;
#269 = CARTESIAN_POINT ( 'NONE',  ( 4.985351078100356093E-34, 1.625000000000000000, 0.000000000000000000 ) ) ;
#270 = ORIENTED_EDGE ( 'NONE', *, *, #207, .F. ) ;
#271 = ORIENTED_EDGE ( 'NONE', *, *, #122, .T. ) ;
#272 = DIRECTION ( 'NONE',  ( -5.156407575357275299E-17, 1.000000000000000000, -0.000000000000000000 ) ) ;
#273 = LENGTH_MEASURE_WITH_UNIT ( LENGTH_MEASURE( 0.02539999999999999897 ), #11 );
#274 = CIRCLE ( 'NONE', #306, 0.3750000000000000555 ) ;
#275 = DIRECTION ( 'NONE',  ( 0.000000000000000000, 0.000000000000000000, -1.000000000000000000 ) ) ;
#276 =( NAMED_UNIT ( * ) SI_UNIT ( $, .STERADIAN. ) SOLID_ANGLE_UNIT ( ) );
#277 = COLOUR_RGB ( '',1.000000000000000000, 0.000000000000000000, 0.000000000000000000 ) ;
#278 = CARTESIAN_POINT ( 'NONE',  ( 4.592425496802575451E-17, 0.000000000000000000, 0.3750000000000000555 ) ) ;
#279 = COLOUR_RGB ( '',0.7921568627450980005, 0.8196078431372548767, 0.9333333333333333481 ) ;
#280 =( GEOMETRIC_REPRESENTATION_CONTEXT ( 3 ) GLOBAL_UNCERTAINTY_ASSIGNED_CONTEXT ( ( #71 ) ) GLOBAL_UNIT_ASSIGNED_CONTEXT ( ( #6, #160, #156 ) ) REPRESENTATION_CONTEXT ( 'NONE', 'WORKASPACE' ) );
#281 = AXIS2_PLACEMENT_3D ( 'NONE', #184, #162, #212 ) ;
#282 = PLANE ( 'NONE',  #35 ) ;
#283 =( LENGTH_UNIT ( ) NAMED_UNIT ( * ) SI_UNIT ( $, .METRE. ) );
#284 = CARTESIAN_POINT ( 'NONE',  ( 0.000000000000000000, 0.000000000000000000, 0.000000000000000000 ) ) ;
#285 = COLOUR_RGB ( '',1.000000000000000000, 0.000000000000000000, 0.000000000000000000 ) ;
#286 = DIRECTION ( 'NONE',  ( -5.156407575357275299E-17, 1.000000000000000000, -0.000000000000000000 ) ) ;
#287 = LINE ( 'NONE', #166, #57 ) ;
#288 =( CONVERSION_BASED_UNIT ( 'INCH', #242 ) LENGTH_UNIT ( ) NAMED_UNIT ( #82 ) );
#289 = EDGE_LOOP ( 'NONE', ( #51, #309 ) ) ;
#290 = DIRECTION ( 'NONE',  ( -5.156407575357275299E-17, 1.000000000000000000, -0.000000000000000000 ) ) ;
#291 = DIMENSIONAL_EXPONENTS ( 1.000000000000000000, 0.000000000000000000, 0.000000000000000000, 0.000000000000000000, 0.000000000000000000, 0.000000000000000000, 0.000000000000000000 ) ;
#292 = CARTESIAN_POINT ( 'NONE',  ( 0.000000000000000000, 0.000000000000000000, -0.3750000000000000555 ) ) ;
#293 = PLANE ( 'NONE',  #85 ) ;
#294 = FILL_AREA_STYLE_COLOUR ( '', #33 ) ;
#295 = SURFACE_STYLE_FILL_AREA ( #204 ) ;
#296 = AXIS2_PLACEMENT_3D ( 'NONE', #69, #286, #145 ) ;
#297 = CYLINDRICAL_SURFACE ( 'NONE', #59, 0.3750000000000001110 ) ;
#298 = DIRECTION ( 'NONE',  ( 0.000000000000000000, 0.000000000000000000, -1.000000000000000000 ) ) ;
#299 = SHAPE_DEFINITION_REPRESENTATION ( #49, #104 ) ;
#300 = FILL_AREA_STYLE_COLOUR ( '', #128 ) ;
#301 =( LENGTH_UNIT ( ) NAMED_UNIT ( * ) SI_UNIT ( $, .METRE. ) );
#302 = FILL_AREA_STYLE_COLOUR ( '', #279 ) ;
#303 = UNCERTAINTY_MEASURE_WITH_UNIT (LENGTH_MEASURE( 1.000000000000000082E-05 ), #259, 'distance_accuracy_value', 'NONE');
#304 = SURFACE_SIDE_STYLE ('',( #263 ) ) ;
#305 = ORIENTED_EDGE ( 'NONE', *, *, #83, .F. ) ;
#306 = AXIS2_PLACEMENT_3D ( 'NONE', #200, #50, #133 ) ;
#307 = DIRECTION ( 'NONE',  ( 0.000000000000000000, 0.000000000000000000, -1.000000000000000000 ) ) ;
#308 = UNCERTAINTY_MEASURE_WITH_UNIT (LENGTH_MEASURE( 1.000000000000000082E-05 ), #288, 'distance_accuracy_value', 'NONE');
#309 = ORIENTED_EDGE ( 'NONE', *, *, #236, .F. ) ;
ENDSEC;
END-ISO-10303-21;
