ISO-10303-21;
HEADER;
FILE_DESCRIPTION (( 'STEP AP214' ),
    '1' );
FILE_NAME ('Micro_SFL-187-33.STEP',
    '2021-09-02T04:46:42',
    ( '' ),
    ( '' ),
    'SwSTEP 2.0',
    'SolidWorks 2020',
    '' );
FILE_SCHEMA (( 'AUTOMOTIVE_DESIGN' ));
ENDSEC;

DATA;
#1 = DIRECTION ( 'NONE',  ( -1.224646799147353207E-16, -0.0000000000000000000, -1.000000000000000000 ) ) ;
#2 = DIRECTION ( 'NONE',  ( -1.000000000000000000, 0.0000000000000000000, 0.0000000000000000000 ) ) ;
#3 = CARTESIAN_POINT ( 'NONE',  ( -0.09375000000000001388, 0.0000000000000000000, 2.000000000000000000 ) ) ;
#4 = CARTESIAN_POINT ( 'NONE',  ( 0.0000000000000000000, 0.0000000000000000000, 2.000000000000000000 ) ) ;
#5 = ORIENTED_EDGE ( 'NONE', *, *, #144, .T. ) ;
#6 = ORIENTED_EDGE ( 'NONE', *, *, #231, .T. ) ;
#7 = EDGE_CURVE ( 'NONE', #214, #147, #91, .T. ) ;
#8 = FACE_OUTER_BOUND ( 'NONE', #73, .T. ) ;
#9 = CARTESIAN_POINT ( 'NONE',  ( 0.0000000000000000000, 0.0000000000000000000, 1.984999999999999654 ) ) ;
#10 = ORIENTED_EDGE ( 'NONE', *, *, #60, .T. ) ;
#11 = DIRECTION ( 'NONE',  ( -1.224646799147353207E-16, -0.0000000000000000000, -1.000000000000000000 ) ) ;
#12 = CARTESIAN_POINT ( 'NONE',  ( 0.0000000000000000000, 0.0000000000000000000, 1.984999999999999654 ) ) ;
#13 = CARTESIAN_POINT ( 'NONE',  ( 0.0000000000000000000, 0.0000000000000000000, 2.000000000000000000 ) ) ;
#14 = VECTOR ( 'NONE', #11, 39.37007874015748143 ) ;
#15 = APPLICATION_CONTEXT ( 'automotive_design' ) ;
#16 = EDGE_CURVE ( 'NONE', #233, #67, #230, .T. ) ;
#17 = ORIENTED_EDGE ( 'NONE', *, *, #134, .F. ) ;
#18 =( NAMED_UNIT ( * ) SI_UNIT ( $, .STERADIAN. ) SOLID_ANGLE_UNIT ( ) );
#19 = COLOUR_RGB ( '',0.7921568627450980005, 0.8196078431372548767, 0.9333333333333333481 ) ;
#20 = LINE ( 'NONE', #69, #84 ) ;
#21 = DIRECTION ( 'NONE',  ( 1.000000000000000000, 0.0000000000000000000, 0.0000000000000000000 ) ) ;
#22 = CARTESIAN_POINT ( 'NONE',  ( 0.0000000000000000000, 0.0000000000000000000, 2.000000000000000000 ) ) ;
#23 = DIRECTION ( 'NONE',  ( -0.0000000000000000000, -0.0000000000000000000, -1.000000000000000000 ) ) ;
#24 = DIMENSIONAL_EXPONENTS ( 1.000000000000000000, 0.0000000000000000000, 0.0000000000000000000, 0.0000000000000000000, 0.0000000000000000000, 0.0000000000000000000, 0.0000000000000000000 ) ;
#25 = CLOSED_SHELL ( 'NONE', ( #135, #137, #125, #204, #63, #176, #257, #294, #113, #111 ) ) ;
#26 = CARTESIAN_POINT ( 'NONE',  ( 0.0000000000000000000, 0.0000000000000000000, 2.000000000000000000 ) ) ;
#27 = ORIENTED_EDGE ( 'NONE', *, *, #271, .T. ) ;
#28 = AXIS2_PLACEMENT_3D ( 'NONE', #32, #128, #37 ) ;
#29 = EDGE_CURVE ( 'NONE', #161, #44, #228, .T. ) ;
#30 = LINE ( 'NONE', #165, #295 ) ;
#31 = APPLICATION_PROTOCOL_DEFINITION ( 'draft international standard', 'automotive_design', 1998, #15 ) ;
#32 = CARTESIAN_POINT ( 'NONE',  ( 0.0000000000000000000, 0.0000000000000000000, 0.0000000000000000000 ) ) ;
#33 = CARTESIAN_POINT ( 'NONE',  ( 6.123233995736766036E-17, 0.0000000000000000000, 0.5000000000000000000 ) ) ;
#34 = CIRCLE ( 'NONE', #251, 0.09365624999999999645 ) ;
#35 = AXIS2_PLACEMENT_3D ( 'NONE', #22, #95, #142 ) ;
#36 = DIRECTION ( 'NONE',  ( -1.224646799147353207E-16, -0.0000000000000000000, -1.000000000000000000 ) ) ;
#37 = DIRECTION ( 'NONE',  ( -1.000000000000000000, 0.0000000000000000000, 1.224646799147352961E-16 ) ) ;
#38 = UNCERTAINTY_MEASURE_WITH_UNIT (LENGTH_MEASURE( 1.000000000000000082E-05 ), #208, 'distance_accuracy_value', 'NONE');
#39 = VERTEX_POINT ( 'NONE', #117 ) ;
#40 = PRODUCT_DEFINITION ( 'UNKNOWN', '', #236, #222 ) ;
#41 = ORIENTED_EDGE ( 'NONE', *, *, #184, .F. ) ;
#42 = ORIENTED_EDGE ( 'NONE', *, *, #29, .T. ) ;
#43 = DIMENSIONAL_EXPONENTS ( 1.000000000000000000, 0.0000000000000000000, 0.0000000000000000000, 0.0000000000000000000, 0.0000000000000000000, 0.0000000000000000000, 0.0000000000000000000 ) ;
#44 = VERTEX_POINT ( 'NONE', #115 ) ;
#45 = VECTOR ( 'NONE', #237, 39.37007874015747433 ) ;
#46 = EDGE_LOOP ( 'NONE', ( #41, #102, #17, #112 ) ) ;
#47 = DIRECTION ( 'NONE',  ( 1.000000000000000000, 0.0000000000000000000, 0.0000000000000000000 ) ) ;
#48 = DIRECTION ( 'NONE',  ( 0.0000000000000000000, 0.0000000000000000000, 1.000000000000000000 ) ) ;
#49 = VERTEX_POINT ( 'NONE', #76 ) ;
#50 = DIRECTION ( 'NONE',  ( -0.0000000000000000000, -0.0000000000000000000, -1.000000000000000000 ) ) ;
#51 = CIRCLE ( 'NONE', #212, 0.09375000000000001388 ) ;
#52 = FILL_AREA_STYLE_COLOUR ( '', #62 ) ;
#53 = CARTESIAN_POINT ( 'NONE',  ( 0.07874999999999980627, 1.056257864264590573E-17, 2.000000000000000000 ) ) ;
#54 = ORIENTED_EDGE ( 'NONE', *, *, #64, .F. ) ;
#55 = DIRECTION ( 'NONE',  ( 0.7071067811865463515, 8.659560562354916834E-17, -0.7071067811865486830 ) ) ;
#56 = DIRECTION ( 'NONE',  ( 1.000000000000000000, 0.0000000000000000000, 0.0000000000000000000 ) ) ;
#57 = DIRECTION ( 'NONE',  ( 0.0000000000000000000, 0.0000000000000000000, 1.000000000000000000 ) ) ;
#58 = SURFACE_STYLE_USAGE ( .BOTH. , #193 ) ;
#59 = DIRECTION ( 'NONE',  ( 0.0000000000000000000, 0.0000000000000000000, -1.000000000000000000 ) ) ;
#60 = EDGE_CURVE ( 'NONE', #233, #49, #20, .T. ) ;
#61 = AXIS2_PLACEMENT_3D ( 'NONE', #281, #78, #47 ) ;
#62 = COLOUR_RGB ( '',0.7921568627450980005, 0.8196078431372548767, 0.9333333333333333481 ) ;
#63 = ADVANCED_FACE ( 'NONE', ( #170 ), #121, .T. ) ;
#64 = EDGE_CURVE ( 'NONE', #39, #233, #34, .T. ) ;
#65 = CONICAL_SURFACE ( 'NONE', #235, 0.09365624999999999645, 0.1745329251994338915 ) ;
#66 = MECHANICAL_DESIGN_GEOMETRIC_PRESENTATION_REPRESENTATION (  '', ( #202 ), #104 ) ;
#67 = VERTEX_POINT ( 'NONE', #168 ) ;
#68 = DIMENSIONAL_EXPONENTS ( 1.000000000000000000, 0.0000000000000000000, 0.0000000000000000000, 0.0000000000000000000, 0.0000000000000000000, 0.0000000000000000000, 0.0000000000000000000 ) ;
#69 = CARTESIAN_POINT ( 'NONE',  ( -0.09365624999999999645, 0.0000000000000000000, 1.146958267826442798E-17 ) ) ;
#70 = DIRECTION ( 'NONE',  ( -1.224646799147353207E-16, -0.0000000000000000000, -1.000000000000000000 ) ) ;
#71 = ORIENTED_EDGE ( 'NONE', *, *, #97, .T. ) ;
#72 = CARTESIAN_POINT ( 'NONE',  ( 1.404618771449245766E-33, 0.0000000000000000000, 1.146958267826442798E-17 ) ) ;
#73 = EDGE_LOOP ( 'NONE', ( #182, #209, #250, #185 ) ) ;
#74 = DIRECTION ( 'NONE',  ( 1.000000000000000000, 0.0000000000000000000, 0.0000000000000000000 ) ) ;
#75 = CYLINDRICAL_SURFACE ( 'NONE', #35, 0.09375000000000001388 ) ;
#76 = CARTESIAN_POINT ( 'NONE',  ( -0.09365624999999999645, 0.0000000000000000000, 2.293916535652885596E-17 ) ) ;
#77 = AXIS2_PLACEMENT_3D ( 'NONE', #188, #256, #96 ) ;
#78 = DIRECTION ( 'NONE',  ( 1.224646799147353207E-16, 0.0000000000000000000, 1.000000000000000000 ) ) ;
#79 = DIRECTION ( 'NONE',  ( 0.0000000000000000000, 0.0000000000000000000, -1.000000000000000000 ) ) ;
#80 = EDGE_CURVE ( 'NONE', #214, #86, #30, .T. ) ;
#81 = LINE ( 'NONE', #218, #291 ) ;
#82 = DIRECTION ( 'NONE',  ( 0.0000000000000000000, 0.0000000000000000000, -1.000000000000000000 ) ) ;
#83 = EDGE_CURVE ( 'NONE', #67, #44, #163, .T. ) ;
#84 = VECTOR ( 'NONE', #1, 39.37007874015748143 ) ;
#85 = AXIS2_PLACEMENT_3D ( 'NONE', #26, #278, #2 ) ;
#86 = VERTEX_POINT ( 'NONE', #191 ) ;
#87 = AXIS2_PLACEMENT_3D ( 'NONE', #72, #70, #284 ) ;
#88 = DIRECTION ( 'NONE',  ( -1.224646799147353207E-16, -0.0000000000000000000, -1.000000000000000000 ) ) ;
#89 = FACE_OUTER_BOUND ( 'NONE', #141, .T. ) ;
#90 = ADVANCED_BREP_SHAPE_REPRESENTATION ( 'Micro_SFL-187-33', ( #201, #270 ), #200 ) ;
#91 = CIRCLE ( 'NONE', #171, 0.07874999999999980627 ) ;
#92 = CARTESIAN_POINT ( 'NONE',  ( 0.0000000000000000000, 0.0000000000000000000, 2.000000000000000000 ) ) ;
#93 =( NAMED_UNIT ( * ) SI_UNIT ( $, .STERADIAN. ) SOLID_ANGLE_UNIT ( ) );
#94 = FACE_OUTER_BOUND ( 'NONE', #245, .T. ) ;
#95 = DIRECTION ( 'NONE',  ( -0.0000000000000000000, -0.0000000000000000000, -1.000000000000000000 ) ) ;
#96 = DIRECTION ( 'NONE',  ( 1.000000000000000000, 0.0000000000000000000, -0.0000000000000000000 ) ) ;
#97 = EDGE_CURVE ( 'NONE', #86, #67, #299, .T. ) ;
#98 = ORIENTED_EDGE ( 'NONE', *, *, #157, .T. ) ;
#99 =( NAMED_UNIT ( * ) SI_UNIT ( $, .STERADIAN. ) SOLID_ANGLE_UNIT ( ) );
#100 = DIRECTION ( 'NONE',  ( -0.0000000000000000000, -0.0000000000000000000, -1.000000000000000000 ) ) ;
#101 = UNCERTAINTY_MEASURE_WITH_UNIT (LENGTH_MEASURE( 1.000000000000000082E-05 ), #126, 'distance_accuracy_value', 'NONE');
#102 = ORIENTED_EDGE ( 'NONE', *, *, #203, .T. ) ;
#103 = LINE ( 'NONE', #107, #14 ) ;
#104 =( GEOMETRIC_REPRESENTATION_CONTEXT ( 3 ) GLOBAL_UNCERTAINTY_ASSIGNED_CONTEXT ( ( #293 ) ) GLOBAL_UNIT_ASSIGNED_CONTEXT ( ( #162, #140, #18 ) ) REPRESENTATION_CONTEXT ( 'NONE', 'WORKASPACE' ) );
#105 = CARTESIAN_POINT ( 'NONE',  ( 0.09375000000000001388, 1.148106374200643863E-17, 1.984999999999999654 ) ) ;
#106 = PRODUCT_DEFINITION_SHAPE ( 'NONE', 'NONE',  #40 ) ;
#107 = CARTESIAN_POINT ( 'NONE',  ( 0.09365624999999999645, 1.146958267826442798E-17, -1.146958267826442798E-17 ) ) ;
#108 = DIRECTION ( 'NONE',  ( 1.000000000000000000, 0.0000000000000000000, 0.0000000000000000000 ) ) ;
#109 = CIRCLE ( 'NONE', #273, 0.09375000000000001388 ) ;
#110 = AXIS2_PLACEMENT_3D ( 'NONE', #232, #124, #146 ) ;
#111 = ADVANCED_FACE ( 'NONE', ( #94 ), #119, .F. ) ;
#112 = ORIENTED_EDGE ( 'NONE', *, *, #80, .F. ) ;
#113 = ADVANCED_FACE ( 'NONE', ( #190 ), #179, .T. ) ;
#114 = VECTOR ( 'NONE', #50, 39.37007874015748143 ) ;
#115 = CARTESIAN_POINT ( 'NONE',  ( 0.09375000000000006939, 1.148106374200644633E-17, 0.5005316826705892286 ) ) ;
#116 = APPLICATION_PROTOCOL_DEFINITION ( 'draft international standard', 'automotive_design', 1998, #239 ) ;
#117 = CARTESIAN_POINT ( 'NONE',  ( 0.09365625000000006584, 0.0000000000000000000, 0.5000000000000000000 ) ) ;
#118 = DIRECTION ( 'NONE',  ( -1.224646799147353207E-16, -0.0000000000000000000, -1.000000000000000000 ) ) ;
#119 = PLANE ( 'NONE',  #77 ) ;
#120 = EDGE_CURVE ( 'NONE', #39, #44, #81, .T. ) ;
#121 = CYLINDRICAL_SURFACE ( 'NONE', #298, 0.09375000000000001388 ) ;
#122 = AXIS2_PLACEMENT_3D ( 'NONE', #152, #243, #175 ) ;
#123 = LENGTH_MEASURE_WITH_UNIT ( LENGTH_MEASURE( 0.02539999999999999897 ), #145 );
#124 = DIRECTION ( 'NONE',  ( -1.224646799147353207E-16, -0.0000000000000000000, -1.000000000000000000 ) ) ;
#125 = ADVANCED_FACE ( 'NONE', ( #287 ), #155, .T. ) ;
#126 =( CONVERSION_BASED_UNIT ( 'INCH', #148 ) LENGTH_UNIT ( ) NAMED_UNIT ( #43 ) );
#127 = SURFACE_STYLE_FILL_AREA ( #268 ) ;
#128 = DIRECTION ( 'NONE',  ( -1.224646799147353207E-16, -0.0000000000000000000, -1.000000000000000000 ) ) ;
#129 = AXIS2_PLACEMENT_3D ( 'NONE', #189, #167, #255 ) ;
#130 = CYLINDRICAL_SURFACE ( 'NONE', #28, 0.09365624999999999645 ) ;
#131 = FACE_OUTER_BOUND ( 'NONE', #205, .T. ) ;
#132 = CONICAL_SURFACE ( 'NONE', #61, 0.09365624999999999645, 0.1745329251994338915 ) ;
#133 = VERTEX_POINT ( 'NONE', #269 ) ;
#134 = EDGE_CURVE ( 'NONE', #86, #161, #51, .T. ) ;
#135 = ADVANCED_FACE ( 'NONE', ( #219 ), #130, .T. ) ;
#136 = VECTOR ( 'NONE', #23, 39.37007874015748143 ) ;
#137 = ADVANCED_FACE ( 'NONE', ( #154 ), #65, .T. ) ;
#138 = ORIENTED_EDGE ( 'NONE', *, *, #83, .F. ) ;
#139 = CARTESIAN_POINT ( 'NONE',  ( 6.123233995736766036E-17, 0.0000000000000000000, 0.5000000000000000000 ) ) ;
#140 =( NAMED_UNIT ( * ) PLANE_ANGLE_UNIT ( ) SI_UNIT ( $, .RADIAN. ) );
#141 = EDGE_LOOP ( 'NONE', ( #274, #54, #225, #248 ) ) ;
#142 = DIRECTION ( 'NONE',  ( -1.000000000000000000, 0.0000000000000000000, 0.0000000000000000000 ) ) ;
#143 = DIRECTION ( 'NONE',  ( -0.7071067811865463515, 0.0000000000000000000, -0.7071067811865486830 ) ) ;
#144 = EDGE_CURVE ( 'NONE', #161, #86, #109, .T. ) ;
#145 =( LENGTH_UNIT ( ) NAMED_UNIT ( * ) SI_UNIT ( $, .METRE. ) );
#146 = DIRECTION ( 'NONE',  ( 1.000000000000000000, 0.0000000000000000000, 0.0000000000000000000 ) ) ;
#147 = VERTEX_POINT ( 'NONE', #53 ) ;
#148 = LENGTH_MEASURE_WITH_UNIT ( LENGTH_MEASURE( 0.02539999999999999897 ), #267 );
#149 = ORIENTED_EDGE ( 'NONE', *, *, #120, .F. ) ;
#150 = PRESENTATION_STYLE_ASSIGNMENT (( #275 ) ) ;
#151 = FILL_AREA_STYLE ('',( #52 ) ) ;
#152 = CARTESIAN_POINT ( 'NONE',  ( 6.129745230543758501E-17, 0.0000000000000000000, 0.5005316826705892286 ) ) ;
#153 = DIRECTION ( 'NONE',  ( 1.000000000000000000, 0.0000000000000000000, 0.0000000000000000000 ) ) ;
#154 = FACE_OUTER_BOUND ( 'NONE', #180, .T. ) ;
#155 = CONICAL_SURFACE ( 'NONE', #177, 0.07874999999999980627, 0.7853981633974466137 ) ;
#156 = DIRECTION ( 'NONE',  ( 0.1736481776669313859, 0.0000000000000000000, 0.9848077530122077983 ) ) ;
#157 = EDGE_CURVE ( 'NONE', #39, #133, #103, .T. ) ;
#158 = CIRCLE ( 'NONE', #223, 0.07874999999999980627 ) ;
#159 = PRESENTATION_LAYER_ASSIGNMENT (  '', '', ( #286 ) ) ;
#160 = DIRECTION ( 'NONE',  ( 0.0000000000000000000, 0.0000000000000000000, 1.000000000000000000 ) ) ;
#161 = VERTEX_POINT ( 'NONE', #105 ) ;
#162 =( CONVERSION_BASED_UNIT ( 'INCH', #186 ) LENGTH_UNIT ( ) NAMED_UNIT ( #24 ) );
#163 = CIRCLE ( 'NONE', #110, 0.09375000000000001388 ) ;
#164 =( GEOMETRIC_REPRESENTATION_CONTEXT ( 3 ) GLOBAL_UNCERTAINTY_ASSIGNED_CONTEXT ( ( #101 ) ) GLOBAL_UNIT_ASSIGNED_CONTEXT ( ( #126, #262, #93 ) ) REPRESENTATION_CONTEXT ( 'NONE', 'WORKASPACE' ) );
#165 = CARTESIAN_POINT ( 'NONE',  ( -0.07874999999999980627, 0.0000000000000000000, 2.000000000000000000 ) ) ;
#166 = PRODUCT ( 'Micro_SFL-187-33', 'Micro_SFL-187-33', '', ( #249 ) ) ;
#167 = DIRECTION ( 'NONE',  ( -1.224646799147353207E-16, -0.0000000000000000000, -1.000000000000000000 ) ) ;
#168 = CARTESIAN_POINT ( 'NONE',  ( -0.09374999999999994449, 0.0000000000000000000, 0.5005316826705892286 ) ) ;
#169 = ORIENTED_EDGE ( 'NONE', *, *, #16, .T. ) ;
#170 = FACE_OUTER_BOUND ( 'NONE', #259, .T. ) ;
#171 = AXIS2_PLACEMENT_3D ( 'NONE', #4, #48, #74 ) ;
#172 = CARTESIAN_POINT ( 'NONE',  ( -0.07874999999999980627, 0.0000000000000000000, 2.000000000000000000 ) ) ;
#173 = DIRECTION ( 'NONE',  ( 1.000000000000000000, 0.0000000000000000000, -0.0000000000000000000 ) ) ;
#174 = DIRECTION ( 'NONE',  ( -1.000000000000000000, 0.0000000000000000000, 1.224646799147352961E-16 ) ) ;
#175 = DIRECTION ( 'NONE',  ( 1.000000000000000000, 0.0000000000000000000, 0.0000000000000000000 ) ) ;
#176 = ADVANCED_FACE ( 'NONE', ( #131 ), #196, .T. ) ;
#177 = AXIS2_PLACEMENT_3D ( 'NONE', #290, #79, #198 ) ;
#178 = CIRCLE ( 'NONE', #129, 0.09365624999999999645 ) ;
#179 = CYLINDRICAL_SURFACE ( 'NONE', #285, 0.09365624999999999645 ) ;
#180 = EDGE_LOOP ( 'NONE', ( #263, #169, #246, #149 ) ) ;
#181 = AXIS2_PLACEMENT_3D ( 'NONE', #265, #221, #173 ) ;
#182 = ORIENTED_EDGE ( 'NONE', *, *, #203, .F. ) ;
#183 = ORIENTED_EDGE ( 'NONE', *, *, #97, .F. ) ;
#184 = EDGE_CURVE ( 'NONE', #147, #214, #158, .T. ) ;
#185 = ORIENTED_EDGE ( 'NONE', *, *, #144, .F. ) ;
#186 = LENGTH_MEASURE_WITH_UNIT ( LENGTH_MEASURE( 0.02539999999999999897 ), #216 );
#187 = LINE ( 'NONE', #192, #252 ) ;
#188 = CARTESIAN_POINT ( 'NONE',  ( 0.0000000000000000000, 0.0000000000000000000, 0.0000000000000000000 ) ) ;
#189 = CARTESIAN_POINT ( 'NONE',  ( 1.404618771449245766E-33, 0.0000000000000000000, 1.146958267826442798E-17 ) ) ;
#190 = FACE_OUTER_BOUND ( 'NONE', #277, .T. ) ;
#191 = CARTESIAN_POINT ( 'NONE',  ( -0.09375000000000001388, 0.0000000000000000000, 1.984999999999999654 ) ) ;
#192 = CARTESIAN_POINT ( 'NONE',  ( 0.07874999999999980627, 9.644093543285380530E-18, 2.000000000000000000 ) ) ;
#193 = SURFACE_SIDE_STYLE ('',( #127 ) ) ;
#194 = CONICAL_SURFACE ( 'NONE', #85, 0.07874999999999980627, 0.7853981633974466137 ) ;
#195 = AXIS2_PLACEMENT_3D ( 'NONE', #210, #118, #253 ) ;
#196 = PLANE ( 'NONE',  #181 ) ;
#197 = EDGE_CURVE ( 'NONE', #44, #67, #247, .T. ) ;
#198 = DIRECTION ( 'NONE',  ( -1.000000000000000000, 0.0000000000000000000, 0.0000000000000000000 ) ) ;
#199 = FILL_AREA_STYLE_COLOUR ( '', #19 ) ;
#200 =( GEOMETRIC_REPRESENTATION_CONTEXT ( 3 ) GLOBAL_UNCERTAINTY_ASSIGNED_CONTEXT ( ( #38 ) ) GLOBAL_UNIT_ASSIGNED_CONTEXT ( ( #208, #276, #99 ) ) REPRESENTATION_CONTEXT ( 'NONE', 'WORKASPACE' ) );
#201 = MANIFOLD_SOLID_BREP ( 'Cut-Revolve1', #25 ) ;
#202 = STYLED_ITEM ( 'NONE', ( #150 ), #90 ) ;
#203 = EDGE_CURVE ( 'NONE', #147, #161, #187, .T. ) ;
#204 = ADVANCED_FACE ( 'NONE', ( #240 ), #75, .T. ) ;
#205 = EDGE_LOOP ( 'NONE', ( #241, #227 ) ) ;
#206 = DIRECTION ( 'NONE',  ( -1.000000000000000000, 0.0000000000000000000, 0.0000000000000000000 ) ) ;
#207 = PRODUCT_RELATED_PRODUCT_CATEGORY ( 'part', '', ( #166 ) ) ;
#208 =( CONVERSION_BASED_UNIT ( 'INCH', #123 ) LENGTH_UNIT ( ) NAMED_UNIT ( #68 ) );
#209 = ORIENTED_EDGE ( 'NONE', *, *, #7, .F. ) ;
#210 = CARTESIAN_POINT ( 'NONE',  ( 6.123233995736766036E-17, 0.0000000000000000000, 0.5000000000000000000 ) ) ;
#211 = CARTESIAN_POINT ( 'NONE',  ( 0.09375000000000001388, 1.148106374200643863E-17, 2.000000000000000000 ) ) ;
#212 = AXIS2_PLACEMENT_3D ( 'NONE', #9, #59, #242 ) ;
#213 = ORIENTED_EDGE ( 'NONE', *, *, #288, .T. ) ;
#214 = VERTEX_POINT ( 'NONE', #172 ) ;
#215 = DIRECTION ( 'NONE',  ( -1.000000000000000000, 0.0000000000000000000, 0.0000000000000000000 ) ) ;
#216 =( LENGTH_UNIT ( ) NAMED_UNIT ( * ) SI_UNIT ( $, .METRE. ) );
#217 = ORIENTED_EDGE ( 'NONE', *, *, #60, .F. ) ;
#218 = CARTESIAN_POINT ( 'NONE',  ( 0.09365625000000006584, 0.0000000000000000000, 0.5000000000000000000 ) ) ;
#219 = FACE_OUTER_BOUND ( 'NONE', #264, .T. ) ;
#220 = DIRECTION ( 'NONE',  ( 1.224646799147353207E-16, 0.0000000000000000000, 1.000000000000000000 ) ) ;
#221 = DIRECTION ( 'NONE',  ( 0.0000000000000000000, 0.0000000000000000000, 1.000000000000000000 ) ) ;
#222 = PRODUCT_DEFINITION_CONTEXT ( 'detailed design', #239, 'design' ) ;
#223 = AXIS2_PLACEMENT_3D ( 'NONE', #13, #57, #108 ) ;
#224 = CIRCLE ( 'NONE', #87, 0.09365624999999999645 ) ;
#225 = ORIENTED_EDGE ( 'NONE', *, *, #120, .T. ) ;
#226 = ORIENTED_EDGE ( 'NONE', *, *, #157, .F. ) ;
#227 = ORIENTED_EDGE ( 'NONE', *, *, #184, .T. ) ;
#228 = LINE ( 'NONE', #211, #114 ) ;
#229 = PRESENTATION_LAYER_ASSIGNMENT (  '', '', ( #202 ) ) ;
#230 = LINE ( 'NONE', #261, #45 ) ;
#231 = EDGE_CURVE ( 'NONE', #233, #39, #292, .T. ) ;
#232 = CARTESIAN_POINT ( 'NONE',  ( 6.129745230543758501E-17, 0.0000000000000000000, 0.5005316826705892286 ) ) ;
#233 = VERTEX_POINT ( 'NONE', #260 ) ;
#234 = SHAPE_DEFINITION_REPRESENTATION ( #106, #90 ) ;
#235 = AXIS2_PLACEMENT_3D ( 'NONE', #33, #220, #56 ) ;
#236 = PRODUCT_DEFINITION_FORMATION_WITH_SPECIFIED_SOURCE ( 'ANY', '', #166, .NOT_KNOWN. ) ;
#237 = DIRECTION ( 'NONE',  ( -0.1736481776669311916, 2.126576849575783316E-17, 0.9848077530122080203 ) ) ;
#238 = SURFACE_STYLE_FILL_AREA ( #151 ) ;
#239 = APPLICATION_CONTEXT ( 'automotive_design' ) ;
#240 = FACE_OUTER_BOUND ( 'NONE', #266, .T. ) ;
#241 = ORIENTED_EDGE ( 'NONE', *, *, #7, .T. ) ;
#242 = DIRECTION ( 'NONE',  ( 1.000000000000000000, 0.0000000000000000000, 0.0000000000000000000 ) ) ;
#243 = DIRECTION ( 'NONE',  ( -1.224646799147353207E-16, -0.0000000000000000000, -1.000000000000000000 ) ) ;
#244 = PRESENTATION_STYLE_ASSIGNMENT (( #58 ) ) ;
#245 = EDGE_LOOP ( 'NONE', ( #27, #213 ) ) ;
#246 = ORIENTED_EDGE ( 'NONE', *, *, #83, .T. ) ;
#247 = CIRCLE ( 'NONE', #122, 0.09375000000000001388 ) ;
#248 = ORIENTED_EDGE ( 'NONE', *, *, #197, .T. ) ;
#249 = PRODUCT_CONTEXT ( 'NONE', #15, 'mechanical' ) ;
#250 = ORIENTED_EDGE ( 'NONE', *, *, #80, .T. ) ;
#251 = AXIS2_PLACEMENT_3D ( 'NONE', #139, #88, #206 ) ;
#252 = VECTOR ( 'NONE', #55, 39.37007874015748143 ) ;
#253 = DIRECTION ( 'NONE',  ( -1.000000000000000000, 0.0000000000000000000, 0.0000000000000000000 ) ) ;
#254 = ORIENTED_EDGE ( 'NONE', *, *, #197, .F. ) ;
#255 = DIRECTION ( 'NONE',  ( -1.000000000000000000, 0.0000000000000000000, 1.224646799147352961E-16 ) ) ;
#256 = DIRECTION ( 'NONE',  ( 0.0000000000000000000, 0.0000000000000000000, 1.000000000000000000 ) ) ;
#257 = ADVANCED_FACE ( 'NONE', ( #8 ), #194, .T. ) ;
#258 = CARTESIAN_POINT ( 'NONE',  ( 0.0000000000000000000, 0.0000000000000000000, 0.0000000000000000000 ) ) ;
#259 = EDGE_LOOP ( 'NONE', ( #282, #5, #71, #254 ) ) ;
#260 = CARTESIAN_POINT ( 'NONE',  ( -0.09365624999999992706, 1.147532321013543253E-17, 0.5000000000000000000 ) ) ;
#261 = CARTESIAN_POINT ( 'NONE',  ( -0.09365624999999992706, 1.146958267826442798E-17, 0.5000000000000000000 ) ) ;
#262 =( NAMED_UNIT ( * ) PLANE_ANGLE_UNIT ( ) SI_UNIT ( $, .RADIAN. ) );
#263 = ORIENTED_EDGE ( 'NONE', *, *, #231, .F. ) ;
#264 = EDGE_LOOP ( 'NONE', ( #6, #98, #279, #217 ) ) ;
#265 = CARTESIAN_POINT ( 'NONE',  ( 0.0000000000000000000, 0.0000000000000000000, 2.000000000000000000 ) ) ;
#266 = EDGE_LOOP ( 'NONE', ( #297, #42, #138, #183 ) ) ;
#267 =( LENGTH_UNIT ( ) NAMED_UNIT ( * ) SI_UNIT ( $, .METRE. ) );
#268 = FILL_AREA_STYLE ('',( #199 ) ) ;
#269 = CARTESIAN_POINT ( 'NONE',  ( 0.09365624999999999645, 1.146958267826442798E-17, 0.0000000000000000000 ) ) ;
#270 = AXIS2_PLACEMENT_3D ( 'NONE', #258, #160, #21 ) ;
#271 = EDGE_CURVE ( 'NONE', #49, #133, #224, .T. ) ;
#272 = SURFACE_SIDE_STYLE ('',( #238 ) ) ;
#273 = AXIS2_PLACEMENT_3D ( 'NONE', #12, #82, #153 ) ;
#274 = ORIENTED_EDGE ( 'NONE', *, *, #16, .F. ) ;
#275 = SURFACE_STYLE_USAGE ( .BOTH. , #272 ) ;
#276 =( NAMED_UNIT ( * ) PLANE_ANGLE_UNIT ( ) SI_UNIT ( $, .RADIAN. ) );
#277 = EDGE_LOOP ( 'NONE', ( #226, #280, #10, #283 ) ) ;
#278 = DIRECTION ( 'NONE',  ( 0.0000000000000000000, 0.0000000000000000000, -1.000000000000000000 ) ) ;
#279 = ORIENTED_EDGE ( 'NONE', *, *, #271, .F. ) ;
#280 = ORIENTED_EDGE ( 'NONE', *, *, #64, .T. ) ;
#281 = CARTESIAN_POINT ( 'NONE',  ( 6.123233995736766036E-17, 0.0000000000000000000, 0.5000000000000000000 ) ) ;
#282 = ORIENTED_EDGE ( 'NONE', *, *, #29, .F. ) ;
#283 = ORIENTED_EDGE ( 'NONE', *, *, #288, .F. ) ;
#284 = DIRECTION ( 'NONE',  ( -1.000000000000000000, 0.0000000000000000000, 1.224646799147352961E-16 ) ) ;
#285 = AXIS2_PLACEMENT_3D ( 'NONE', #289, #36, #174 ) ;
#286 = STYLED_ITEM ( 'NONE', ( #244 ), #201 ) ;
#287 = FACE_OUTER_BOUND ( 'NONE', #46, .T. ) ;
#288 = EDGE_CURVE ( 'NONE', #133, #49, #178, .T. ) ;
#289 = CARTESIAN_POINT ( 'NONE',  ( 0.0000000000000000000, 0.0000000000000000000, 0.0000000000000000000 ) ) ;
#290 = CARTESIAN_POINT ( 'NONE',  ( 0.0000000000000000000, 0.0000000000000000000, 2.000000000000000000 ) ) ;
#291 = VECTOR ( 'NONE', #156, 39.37007874015748143 ) ;
#292 = CIRCLE ( 'NONE', #195, 0.09365624999999999645 ) ;
#293 = UNCERTAINTY_MEASURE_WITH_UNIT (LENGTH_MEASURE( 1.000000000000000082E-05 ), #162, 'distance_accuracy_value', 'NONE');
#294 = ADVANCED_FACE ( 'NONE', ( #89 ), #132, .T. ) ;
#295 = VECTOR ( 'NONE', #143, 39.37007874015748143 ) ;
#296 = MECHANICAL_DESIGN_GEOMETRIC_PRESENTATION_REPRESENTATION (  '', ( #286 ), #164 ) ;
#297 = ORIENTED_EDGE ( 'NONE', *, *, #134, .T. ) ;
#298 = AXIS2_PLACEMENT_3D ( 'NONE', #92, #100, #215 ) ;
#299 = LINE ( 'NONE', #3, #136 ) ;
ENDSEC;
END-ISO-10303-21;
