ISO-10303-21;
HEADER;
FILE_DESCRIPTION (( 'STEP AP214' ),
    '1' );
FILE_NAME ('83190.STEP',
    '2023-06-23T08:06:49',
    ( '' ),
    ( '' ),
    'SwSTEP 2.0',
    'SolidWorks 2023',
    '' );
FILE_SCHEMA (( 'AUTOMOTIVE_DESIGN' ));
ENDSEC;

DATA;
#1 = ORIENTED_EDGE ( 'NONE', *, *, #146, .F. ) ;
#2 = FACE_OUTER_BOUND ( 'NONE', #181, .T. ) ;
#3 = VERTEX_POINT ( 'NONE', #125 ) ;
#4 = ORIENTED_EDGE ( 'NONE', *, *, #162, .F. ) ;
#5 = COLOUR_RGB ( '',1.000000000000000000, 0.000000000000000000, 0.000000000000000000 ) ;
#6 = DIMENSIONAL_EXPONENTS ( 1.000000000000000000, 0.000000000000000000, 0.000000000000000000, 0.000000000000000000, 0.000000000000000000, 0.000000000000000000, 0.000000000000000000 ) ;
#7 = ADVANCED_FACE ( 'NONE', ( #281 ), #145, .F. ) ;
#8 = DIRECTION ( 'NONE',  ( -3.160378836509298460E-17, 1.000000000000000000, -0.000000000000000000 ) ) ;
#9 = CARTESIAN_POINT ( 'NONE',  ( -0.07810000000000000275, 0.5625000000000001110, 0.000000000000000000 ) ) ;
#10 = DIRECTION ( 'NONE',  ( -1.000000000000000000, 0.000000000000000000, 0.000000000000000000 ) ) ;
#11 = FACE_OUTER_BOUND ( 'NONE', #359, .T. ) ;
#12 = SURFACE_STYLE_FILL_AREA ( #99 ) ;
#13 = CARTESIAN_POINT ( 'NONE',  ( 0.000000000000000000, 0.000000000000000000, 0.000000000000000000 ) ) ;
#14 =( NAMED_UNIT ( * ) PLANE_ANGLE_UNIT ( ) SI_UNIT ( $, .RADIAN. ) );
#15 = EDGE_CURVE ( 'NONE', #29, #224, #212, .T. ) ;
#16 = DIRECTION ( 'NONE',  ( -0.3420201433256693790, 0.9396926207859080948, 0.000000000000000000 ) ) ;
#17 =( LENGTH_UNIT ( ) NAMED_UNIT ( * ) SI_UNIT ( $, .METRE. ) );
#18 = AXIS2_PLACEMENT_3D ( 'NONE', #56, #54, #220 ) ;
#19 = AXIS2_PLACEMENT_3D ( 'NONE', #13, #310, #64 ) ;
#20 =( NAMED_UNIT ( * ) PLANE_ANGLE_UNIT ( ) SI_UNIT ( $, .RADIAN. ) );
#21 = CARTESIAN_POINT ( 'NONE',  ( -6.123233995736766036E-17, 2.500000000000000000, 0.000000000000000000 ) ) ;
#22 = ADVANCED_FACE ( 'NONE', ( #11 ), #240, .T. ) ;
#23 = DIRECTION ( 'NONE',  ( -1.000000000000000000, 0.000000000000000000, 0.000000000000000000 ) ) ;
#24 =( GEOMETRIC_REPRESENTATION_CONTEXT ( 3 ) GLOBAL_UNCERTAINTY_ASSIGNED_CONTEXT ( ( #117 ) ) GLOBAL_UNIT_ASSIGNED_CONTEXT ( ( #70, #140, #354 ) ) REPRESENTATION_CONTEXT ( 'NONE', 'WORKASPACE' ) );
#25 = PRESENTATION_LAYER_ASSIGNMENT (  '', '', ( #227 ) ) ;
#26 = EDGE_CURVE ( 'NONE', #3, #147, #259, .T. ) ;
#27 = DIMENSIONAL_EXPONENTS ( 1.000000000000000000, 0.000000000000000000, 0.000000000000000000, 0.000000000000000000, 0.000000000000000000, 0.000000000000000000, 0.000000000000000000 ) ;
#28 = LENGTH_MEASURE_WITH_UNIT ( LENGTH_MEASURE( 0.02539999999999999897 ), #326 );
#29 = VERTEX_POINT ( 'NONE', #84 ) ;
#30 = STYLED_ITEM ( 'NONE', ( #321 ), #137 ) ;
#31 = AXIS2_PLACEMENT_3D ( 'NONE', #95, #128, #313 ) ;
#32 = ORIENTED_EDGE ( 'NONE', *, *, #15, .T. ) ;
#33 = CARTESIAN_POINT ( 'NONE',  ( -1.358900375221237887E-18, 0.6054980216144648653, 0.000000000000000000 ) ) ;
#34 = ORIENTED_EDGE ( 'NONE', *, *, #352, .T. ) ;
#35 = DIRECTION ( 'NONE',  ( -1.000000000000000000, 0.000000000000000000, 0.000000000000000000 ) ) ;
#36 = PRODUCT_DEFINITION_CONTEXT ( 'detailed design', #291, 'design' ) ;
#37 = CARTESIAN_POINT ( 'NONE',  ( 0.000000000000000000, 0.000000000000000000, -0.07810000000000000275 ) ) ;
#38 = ORIENTED_EDGE ( 'NONE', *, *, #87, .T. ) ;
#39 = AXIS2_PLACEMENT_3D ( 'NONE', #91, #248, #299 ) ;
#40 = DIRECTION ( 'NONE',  ( -1.000000000000000000, 0.000000000000000000, 0.000000000000000000 ) ) ;
#41 = CARTESIAN_POINT ( 'NONE',  ( 9.564491501340828324E-18, 0.000000000000000000, 0.07810000000000000275 ) ) ;
#42 = AXIS2_PLACEMENT_3D ( 'NONE', #21, #182, #10 ) ;
#43 = SURFACE_STYLE_FILL_AREA ( #156 ) ;
#44 = FACE_OUTER_BOUND ( 'NONE', #250, .T. ) ;
#45 = FILL_AREA_STYLE_COLOUR ( '', #244 ) ;
#46 = CARTESIAN_POINT ( 'NONE',  ( -0.07810000000000000275, 0.5625000000000001110, 0.000000000000000000 ) ) ;
#47 = ADVANCED_FACE ( 'NONE', ( #209 ), #292, .F. ) ;
#48 = CARTESIAN_POINT ( 'NONE',  ( 0.000000000000000000, 0.000000000000000000, 0.000000000000000000 ) ) ;
#49 =( LENGTH_UNIT ( ) NAMED_UNIT ( * ) SI_UNIT ( $, .METRE. ) );
#50 =( LENGTH_UNIT ( ) NAMED_UNIT ( * ) SI_UNIT ( $, .METRE. ) );
#51 = CIRCLE ( 'NONE', #327, 0.09375000000000001388 ) ;
#52 = PRODUCT_DEFINITION_FORMATION_WITH_SPECIFIED_SOURCE ( 'ANY', '', #330, .NOT_KNOWN. ) ;
#53 = FILL_AREA_STYLE_COLOUR ( '', #171 ) ;
#54 = DIRECTION ( 'NONE',  ( -3.160378836509298460E-17, 1.000000000000000000, 0.000000000000000000 ) ) ;
#55 = EDGE_CURVE ( 'NONE', #224, #29, #51, .T. ) ;
#56 = CARTESIAN_POINT ( 'NONE',  ( 3.900311809394916198E-35, 0.5625000000000000000, 0.000000000000000000 ) ) ;
#57 = ORIENTED_EDGE ( 'NONE', *, *, #166, .T. ) ;
#58 = DIRECTION ( 'NONE',  ( -1.000000000000000000, 0.000000000000000000, 0.000000000000000000 ) ) ;
#59 = EDGE_LOOP ( 'NONE', ( #4, #231, #57, #268 ) ) ;
#60 = ORIENTED_EDGE ( 'NONE', *, *, #133, .F. ) ;
#61 = PRODUCT_CONTEXT ( 'NONE', #159, 'mechanical' ) ;
#62 = DIRECTION ( 'NONE',  ( -1.000000000000000000, 0.000000000000000000, 0.000000000000000000 ) ) ;
#63 = ORIENTED_EDGE ( 'NONE', *, *, #242, .F. ) ;
#64 = DIRECTION ( 'NONE',  ( 0.000000000000000000, 0.000000000000000000, -1.000000000000000000 ) ) ;
#65 = ADVANCED_FACE ( 'NONE', ( #228 ), #110, .T. ) ;
#66 = UNCERTAINTY_MEASURE_WITH_UNIT (LENGTH_MEASURE( 1.000000000000000082E-05 ), #277, 'distance_accuracy_value', 'NONE');
#67 = LINE ( 'NONE', #73, #261 ) ;
#68 = DIRECTION ( 'NONE',  ( 0.000000000000000000, -1.000000000000000000, -0.000000000000000000 ) ) ;
#69 = FACE_OUTER_BOUND ( 'NONE', #253, .T. ) ;
#70 =( CONVERSION_BASED_UNIT ( 'INCH', #211 ) LENGTH_UNIT ( ) NAMED_UNIT ( #355 ) );
#71 = CIRCLE ( 'NONE', #170, 0.07810000000000000275 ) ;
#72 = STYLED_ITEM ( 'NONE', ( #289 ), #173 ) ;
#73 = CARTESIAN_POINT ( 'NONE',  ( 0.07810000000000000275, 0.5625000000000001110, 9.564491501340828324E-18 ) ) ;
#74 = SURFACE_STYLE_FILL_AREA ( #318 ) ;
#75 = PRESENTATION_STYLE_ASSIGNMENT (( #315 ) ) ;
#76 = CARTESIAN_POINT ( 'NONE',  ( -6.123233995736766036E-17, 2.500000000000000000, 0.000000000000000000 ) ) ;
#77 = PRESENTATION_LAYER_ASSIGNMENT (  '', '', ( #30 ) ) ;
#78 = PRODUCT_DEFINITION ( 'UNKNOWN', '', #52, #36 ) ;
#79 = VECTOR ( 'NONE', #252, 39.37007874015748143 ) ;
#80 =( NAMED_UNIT ( * ) SI_UNIT ( $, .STERADIAN. ) SOLID_ANGLE_UNIT ( ) );
#81 = DIRECTION ( 'NONE',  ( -3.160378836509298460E-17, 1.000000000000000000, -0.000000000000000000 ) ) ;
#82 = CIRCLE ( 'NONE', #341, 0.07810000000000000275 ) ;
#83 = AXIS2_PLACEMENT_3D ( 'NONE', #232, #187, #98 ) ;
#84 = CARTESIAN_POINT ( 'NONE',  ( 0.09374999999999994449, 2.500000000000000000, 1.148106374200643863E-17 ) ) ;
#85 = EDGE_LOOP ( 'NONE', ( #306, #123, #93, #308 ) ) ;
#86 = ORIENTED_EDGE ( 'NONE', *, *, #166, .F. ) ;
#87 = EDGE_CURVE ( 'NONE', #3, #224, #112, .T. ) ;
#88 =( GEOMETRIC_REPRESENTATION_CONTEXT ( 3 ) GLOBAL_UNCERTAINTY_ASSIGNED_CONTEXT ( ( #356 ) ) GLOBAL_UNIT_ASSIGNED_CONTEXT ( ( #218, #90, #234 ) ) REPRESENTATION_CONTEXT ( 'NONE', 'WORKASPACE' ) );
#89 = ORIENTED_EDGE ( 'NONE', *, *, #26, .F. ) ;
#90 =( NAMED_UNIT ( * ) PLANE_ANGLE_UNIT ( ) SI_UNIT ( $, .RADIAN. ) );
#91 = CARTESIAN_POINT ( 'NONE',  ( 0.000000000000000000, 0.5625000000000001110, 0.000000000000000000 ) ) ;
#92 = CARTESIAN_POINT ( 'NONE',  ( 0.000000000000000000, 0.5625000000000000000, -0.07810000000000000275 ) ) ;
#93 = ORIENTED_EDGE ( 'NONE', *, *, #320, .F. ) ;
#94 = UNCERTAINTY_MEASURE_WITH_UNIT (LENGTH_MEASURE( 1.000000000000000082E-05 ), #103, 'distance_accuracy_value', 'NONE');
#95 = CARTESIAN_POINT ( 'NONE',  ( 0.000000000000000000, 0.5625000000000000000, 0.000000000000000000 ) ) ;
#96 =( NAMED_UNIT ( * ) SI_UNIT ( $, .STERADIAN. ) SOLID_ANGLE_UNIT ( ) );
#97 = ADVANCED_FACE ( 'NONE', ( #2 ), #225, .T. ) ;
#98 = DIRECTION ( 'NONE',  ( 0.000000000000000000, 0.000000000000000000, -1.000000000000000000 ) ) ;
#99 = FILL_AREA_STYLE ('',( #160 ) ) ;
#100 =( GEOMETRIC_REPRESENTATION_CONTEXT ( 3 ) GLOBAL_UNCERTAINTY_ASSIGNED_CONTEXT ( ( #94 ) ) GLOBAL_UNIT_ASSIGNED_CONTEXT ( ( #103, #348, #241 ) ) REPRESENTATION_CONTEXT ( 'NONE', 'WORKASPACE' ) );
#101 =( LENGTH_UNIT ( ) NAMED_UNIT ( * ) SI_UNIT ( $, .METRE. ) );
#102 = SURFACE_SIDE_STYLE ('',( #12 ) ) ;
#103 =( CONVERSION_BASED_UNIT ( 'INCH', #316 ) LENGTH_UNIT ( ) NAMED_UNIT ( #254 ) );
#104 = VECTOR ( 'NONE', #114, 39.37007874015748143 ) ;
#105 = CIRCLE ( 'NONE', #191, 0.07810000000000000275 ) ;
#106 = LENGTH_MEASURE_WITH_UNIT ( LENGTH_MEASURE( 0.02539999999999999897 ), #49 );
#107 = ADVANCED_FACE ( 'NONE', ( #69 ), #189, .T. ) ;
#108 =( LENGTH_UNIT ( ) NAMED_UNIT ( * ) SI_UNIT ( $, .METRE. ) );
#109 = DIRECTION ( 'NONE',  ( -0.000000000000000000, -1.000000000000000000, -0.000000000000000000 ) ) ;
#110 = CONICAL_SURFACE ( 'NONE', #39, 0.07810000000000000275, 0.3490658503988665062 ) ;
#111 = CARTESIAN_POINT ( 'NONE',  ( 0.000000000000000000, 0.5625000000000001110, 0.000000000000000000 ) ) ;
#112 = LINE ( 'NONE', #149, #104 ) ;
#113 = EDGE_CURVE ( 'NONE', #328, #152, #82, .T. ) ;
#114 = DIRECTION ( 'NONE',  ( -3.160378836509298460E-17, 1.000000000000000000, -0.000000000000000000 ) ) ;
#115 = CARTESIAN_POINT ( 'NONE',  ( -1.358900375221237887E-18, 0.6054980216144648653, 0.000000000000000000 ) ) ;
#116 = EDGE_LOOP ( 'NONE', ( #206, #60 ) ) ;
#117 = UNCERTAINTY_MEASURE_WITH_UNIT (LENGTH_MEASURE( 1.000000000000000082E-05 ), #70, 'distance_accuracy_value', 'NONE');
#118 = EDGE_LOOP ( 'NONE', ( #155, #32 ) ) ;
#119 = COLOUR_RGB ( '',1.000000000000000000, 0.000000000000000000, 0.000000000000000000 ) ;
#120 = DIRECTION ( 'NONE',  ( -3.160378836509298460E-17, 1.000000000000000000, -0.000000000000000000 ) ) ;
#121 = STYLED_ITEM ( 'NONE', ( #210 ), #293 ) ;
#122 = CARTESIAN_POINT ( 'NONE',  ( 9.564491501340828324E-18, 0.000000000000000000, 0.07810000000000000275 ) ) ;
#123 = ORIENTED_EDGE ( 'NONE', *, *, #153, .T. ) ;
#124 = EDGE_CURVE ( 'NONE', #247, #339, #196, .T. ) ;
#125 = CARTESIAN_POINT ( 'NONE',  ( -0.09375000000000001388, 0.6054980216144648653, 0.000000000000000000 ) ) ;
#126 = FACE_OUTER_BOUND ( 'NONE', #273, .T. ) ;
#127 = DIRECTION ( 'NONE',  ( 3.160378836509298460E-17, -1.000000000000000000, 0.000000000000000000 ) ) ;
#128 = DIRECTION ( 'NONE',  ( 0.000000000000000000, 1.000000000000000000, 0.000000000000000000 ) ) ;
#129 = FACE_OUTER_BOUND ( 'NONE', #85, .T. ) ;
#130 =( NAMED_UNIT ( * ) SI_UNIT ( $, .STERADIAN. ) SOLID_ANGLE_UNIT ( ) );
#131 =( GEOMETRIC_REPRESENTATION_CONTEXT ( 3 ) GLOBAL_UNCERTAINTY_ASSIGNED_CONTEXT ( ( #246 ) ) GLOBAL_UNIT_ASSIGNED_CONTEXT ( ( #141, #142, #213 ) ) REPRESENTATION_CONTEXT ( 'NONE', 'WORKASPACE' ) );
#132 = DIRECTION ( 'NONE',  ( -3.160378836509298460E-17, 1.000000000000000000, -0.000000000000000000 ) ) ;
#133 = EDGE_CURVE ( 'NONE', #331, #336, #71, .T. ) ;
#134 = AXIS2_PLACEMENT_3D ( 'NONE', #184, #343, #40 ) ;
#135 = PRESENTATION_LAYER_ASSIGNMENT (  '', '', ( #72 ) ) ;
#136 = DIRECTION ( 'NONE',  ( 0.000000000000000000, 0.000000000000000000, -1.000000000000000000 ) ) ;
#137 = ADVANCED_FACE ( 'NONE', ( #296 ), #264, .T. ) ;
#138 = ADVANCED_BREP_SHAPE_REPRESENTATION ( '83190', ( #175, #173, #208 ), #358 ) ;
#139 = STYLED_ITEM ( 'NONE', ( #280 ), #107 ) ;
#140 =( NAMED_UNIT ( * ) PLANE_ANGLE_UNIT ( ) SI_UNIT ( $, .RADIAN. ) );
#141 =( CONVERSION_BASED_UNIT ( 'INCH', #322 ) LENGTH_UNIT ( ) NAMED_UNIT ( #6 ) );
#142 =( NAMED_UNIT ( * ) PLANE_ANGLE_UNIT ( ) SI_UNIT ( $, .RADIAN. ) );
#143 = UNCERTAINTY_MEASURE_WITH_UNIT (LENGTH_MEASURE( 1.000000000000000082E-05 ), #314, 'distance_accuracy_value', 'NONE');
#144 = ORIENTED_EDGE ( 'NONE', *, *, #257, .T. ) ;
#145 = PLANE ( 'NONE',  #174 ) ;
#146 = EDGE_CURVE ( 'NONE', #339, #247, #186, .T. ) ;
#147 = VERTEX_POINT ( 'NONE', #340 ) ;
#148 = ORIENTED_EDGE ( 'NONE', *, *, #153, .F. ) ;
#149 = CARTESIAN_POINT ( 'NONE',  ( -0.09375000000000006939, 2.500000000000000000, 0.000000000000000000 ) ) ;
#150 = DIRECTION ( 'NONE',  ( 0.000000000000000000, 0.000000000000000000, 1.000000000000000000 ) ) ;
#151 = DIRECTION ( 'NONE',  ( -0.000000000000000000, -1.000000000000000000, -0.000000000000000000 ) ) ;
#152 = VERTEX_POINT ( 'NONE', #207 ) ;
#153 = EDGE_CURVE ( 'NONE', #339, #328, #278, .T. ) ;
#154 = VECTOR ( 'NONE', #16, 39.37007874015748143 ) ;
#155 = ORIENTED_EDGE ( 'NONE', *, *, #55, .T. ) ;
#156 = FILL_AREA_STYLE ('',( #45 ) ) ;
#157 = UNCERTAINTY_MEASURE_WITH_UNIT (LENGTH_MEASURE( 1.000000000000000082E-05 ), #300, 'distance_accuracy_value', 'NONE');
#158 = DIRECTION ( 'NONE',  ( -0.000000000000000000, -1.000000000000000000, -0.000000000000000000 ) ) ;
#159 = APPLICATION_CONTEXT ( 'automotive_design' ) ;
#160 = FILL_AREA_STYLE_COLOUR ( '', #266 ) ;
#161 = FILL_AREA_STYLE ('',( #262 ) ) ;
#162 = EDGE_CURVE ( 'NONE', #331, #147, #67, .T. ) ;
#163 = AXIS2_PLACEMENT_3D ( 'NONE', #188, #325, #58 ) ;
#164 = SURFACE_SIDE_STYLE ('',( #219 ) ) ;
#165 = SURFACE_STYLE_USAGE ( .BOTH. , #337 ) ;
#166 = EDGE_CURVE ( 'NONE', #336, #3, #287, .T. ) ;
#167 = CLOSED_SHELL ( 'NONE', ( #97, #22, #47, #65, #346, #7 ) ) ;
#168 = DIRECTION ( 'NONE',  ( -0.000000000000000000, -1.000000000000000000, -0.000000000000000000 ) ) ;
#169 = DIRECTION ( 'NONE',  ( 0.000000000000000000, 0.000000000000000000, -1.000000000000000000 ) ) ;
#170 = AXIS2_PLACEMENT_3D ( 'NONE', #111, #81, #198 ) ;
#171 = COLOUR_RGB ( '',0.7921568627450980005, 0.8196078431372548767, 0.9333333333333333481 ) ;
#172 = SURFACE_STYLE_USAGE ( .BOTH. , #290 ) ;
#173 = MANIFOLD_SOLID_BREP ( 'Revolve - Tool Body (Reduced Cut Diameter)', #167 ) ;
#174 = AXIS2_PLACEMENT_3D ( 'NONE', #338, #127, #353 ) ;
#175 = MANIFOLD_SOLID_BREP ( 'Revolve - Cutting Edge', #311 ) ;
#176 = VECTOR ( 'NONE', #158, 39.37007874015748143 ) ;
#177 = PRODUCT_DEFINITION_SHAPE ( 'NONE', 'NONE',  #78 ) ;
#178 = ORIENTED_EDGE ( 'NONE', *, *, #55, .F. ) ;
#179 = CARTESIAN_POINT ( 'NONE',  ( 0.000000000000000000, 0.000000000000000000, 0.000000000000000000 ) ) ;
#180 = DIRECTION ( 'NONE',  ( -3.160378836509298460E-17, 1.000000000000000000, -0.000000000000000000 ) ) ;
#181 = EDGE_LOOP ( 'NONE', ( #332, #204, #178, #309 ) ) ;
#182 = DIRECTION ( 'NONE',  ( -3.160378836509298460E-17, 1.000000000000000000, -0.000000000000000000 ) ) ;
#183 = PLANE ( 'NONE',  #298 ) ;
#184 = CARTESIAN_POINT ( 'NONE',  ( -6.123233995736766036E-17, 2.500000000000000000, 0.000000000000000000 ) ) ;
#185 = MECHANICAL_DESIGN_GEOMETRIC_PRESENTATION_REPRESENTATION (  '', ( #139 ), #100 ) ;
#186 = CIRCLE ( 'NONE', #83, 0.07810000000000000275 ) ;
#187 = DIRECTION ( 'NONE',  ( -0.000000000000000000, -1.000000000000000000, -0.000000000000000000 ) ) ;
#188 = CARTESIAN_POINT ( 'NONE',  ( -6.123233995736766036E-17, 2.500000000000000000, 0.000000000000000000 ) ) ;
#189 = CYLINDRICAL_SURFACE ( 'NONE', #294, 0.07810000000000000275 ) ;
#190 = DIRECTION ( 'NONE',  ( -1.000000000000000000, 0.000000000000000000, 0.000000000000000000 ) ) ;
#191 = AXIS2_PLACEMENT_3D ( 'NONE', #305, #120, #62 ) ;
#192 = DIRECTION ( 'NONE',  ( 0.3420201433256692680, 0.9396926207859080948, 4.188538737676999160E-17 ) ) ;
#193 = SURFACE_STYLE_FILL_AREA ( #344 ) ;
#194 = SURFACE_SIDE_STYLE ('',( #74 ) ) ;
#195 = SURFACE_STYLE_FILL_AREA ( #161 ) ;
#196 = CIRCLE ( 'NONE', #270, 0.07810000000000000275 ) ;
#197 = PRESENTATION_STYLE_ASSIGNMENT (( #172 ) ) ;
#198 = DIRECTION ( 'NONE',  ( -1.000000000000000000, 0.000000000000000000, 0.000000000000000000 ) ) ;
#199 = DIRECTION ( 'NONE',  ( -3.160378836509298460E-17, 1.000000000000000000, -0.000000000000000000 ) ) ;
#200 = ORIENTED_EDGE ( 'NONE', *, *, #233, .T. ) ;
#201 = PRESENTATION_LAYER_ASSIGNMENT (  '', '', ( #345 ) ) ;
#202 = ORIENTED_EDGE ( 'NONE', *, *, #162, .T. ) ;
#203 = LINE ( 'NONE', #37, #79 ) ;
#204 = ORIENTED_EDGE ( 'NONE', *, *, #242, .T. ) ;
#205 = CYLINDRICAL_SURFACE ( 'NONE', #19, 0.07810000000000000275 ) ;
#206 = ORIENTED_EDGE ( 'NONE', *, *, #233, .F. ) ;
#207 = CARTESIAN_POINT ( 'NONE',  ( 0.000000000000000000, 0.000000000000000000, -0.07810000000000000275 ) ) ;
#208 = AXIS2_PLACEMENT_3D ( 'NONE', #304, #150, #265 ) ;
#209 = FACE_OUTER_BOUND ( 'NONE', #116, .T. ) ;
#210 = PRESENTATION_STYLE_ASSIGNMENT (( #263 ) ) ;
#211 = LENGTH_MEASURE_WITH_UNIT ( LENGTH_MEASURE( 0.02539999999999999897 ), #101 );
#212 = CIRCLE ( 'NONE', #42, 0.09375000000000001388 ) ;
#213 =( NAMED_UNIT ( * ) SI_UNIT ( $, .STERADIAN. ) SOLID_ANGLE_UNIT ( ) );
#214 =( GEOMETRIC_REPRESENTATION_CONTEXT ( 3 ) GLOBAL_UNCERTAINTY_ASSIGNED_CONTEXT ( ( #66 ) ) GLOBAL_UNIT_ASSIGNED_CONTEXT ( ( #277, #20, #96 ) ) REPRESENTATION_CONTEXT ( 'NONE', 'WORKASPACE' ) );
#215 = CARTESIAN_POINT ( 'NONE',  ( 0.000000000000000000, 0.5625000000000000000, 0.000000000000000000 ) ) ;
#216 = APPLICATION_PROTOCOL_DEFINITION ( 'draft international standard', 'automotive_design', 1998, #291 ) ;
#217 = DIRECTION ( 'NONE',  ( 0.000000000000000000, 0.000000000000000000, -1.000000000000000000 ) ) ;
#218 =( CONVERSION_BASED_UNIT ( 'INCH', #28 ) LENGTH_UNIT ( ) NAMED_UNIT ( #27 ) );
#219 = SURFACE_STYLE_FILL_AREA ( #267 ) ;
#220 = DIRECTION ( 'NONE',  ( -1.000000000000000000, -3.160378836509298460E-17, 0.000000000000000000 ) ) ;
#221 = CIRCLE ( 'NONE', #323, 0.07810000000000000275 ) ;
#222 = ORIENTED_EDGE ( 'NONE', *, *, #320, .T. ) ;
#223 = DIMENSIONAL_EXPONENTS ( 1.000000000000000000, 0.000000000000000000, 0.000000000000000000, 0.000000000000000000, 0.000000000000000000, 0.000000000000000000, 0.000000000000000000 ) ;
#224 = VERTEX_POINT ( 'NONE', #307 ) ;
#225 = CYLINDRICAL_SURFACE ( 'NONE', #134, 0.09375000000000001388 ) ;
#226 = ORIENTED_EDGE ( 'NONE', *, *, #113, .F. ) ;
#227 = STYLED_ITEM ( 'NONE', ( #75 ), #175 ) ;
#228 = FACE_OUTER_BOUND ( 'NONE', #59, .T. ) ;
#229 = MECHANICAL_DESIGN_GEOMETRIC_PRESENTATION_REPRESENTATION (  '', ( #72 ), #251 ) ;
#230 = ORIENTED_EDGE ( 'NONE', *, *, #124, .F. ) ;
#231 = ORIENTED_EDGE ( 'NONE', *, *, #133, .T. ) ;
#232 = CARTESIAN_POINT ( 'NONE',  ( 0.000000000000000000, 0.5625000000000000000, 0.000000000000000000 ) ) ;
#233 = EDGE_CURVE ( 'NONE', #336, #331, #105, .T. ) ;
#234 =( NAMED_UNIT ( * ) SI_UNIT ( $, .STERADIAN. ) SOLID_ANGLE_UNIT ( ) );
#235 = COLOUR_RGB ( '',0.7921568627450980005, 0.8196078431372548767, 0.9333333333333333481 ) ;
#236 = SURFACE_SIDE_STYLE ('',( #195 ) ) ;
#237 = LENGTH_MEASURE_WITH_UNIT ( LENGTH_MEASURE( 0.02539999999999999897 ), #17 );
#238 = FILL_AREA_STYLE_COLOUR ( '', #119 ) ;
#239 = DIRECTION ( 'NONE',  ( -1.000000000000000000, 0.000000000000000000, 0.000000000000000000 ) ) ;
#240 = CONICAL_SURFACE ( 'NONE', #283, 0.07810000000000000275, 0.3490658503988665062 ) ;
#241 =( NAMED_UNIT ( * ) SI_UNIT ( $, .STERADIAN. ) SOLID_ANGLE_UNIT ( ) );
#242 = EDGE_CURVE ( 'NONE', #147, #29, #249, .T. ) ;
#243 = ORIENTED_EDGE ( 'NONE', *, *, #15, .F. ) ;
#244 = COLOUR_RGB ( '',1.000000000000000000, 0.000000000000000000, 0.000000000000000000 ) ;
#245 = DIMENSIONAL_EXPONENTS ( 1.000000000000000000, 0.000000000000000000, 0.000000000000000000, 0.000000000000000000, 0.000000000000000000, 0.000000000000000000, 0.000000000000000000 ) ;
#246 = UNCERTAINTY_MEASURE_WITH_UNIT (LENGTH_MEASURE( 1.000000000000000082E-05 ), #141, 'distance_accuracy_value', 'NONE');
#247 = VERTEX_POINT ( 'NONE', #92 ) ;
#248 = DIRECTION ( 'NONE',  ( -3.160378836509298460E-17, 1.000000000000000000, -0.000000000000000000 ) ) ;
#249 = LINE ( 'NONE', #272, #317 ) ;
#250 = EDGE_LOOP ( 'NONE', ( #222, #269 ) ) ;
#251 =( GEOMETRIC_REPRESENTATION_CONTEXT ( 3 ) GLOBAL_UNCERTAINTY_ASSIGNED_CONTEXT ( ( #143 ) ) GLOBAL_UNIT_ASSIGNED_CONTEXT ( ( #314, #288, #130 ) ) REPRESENTATION_CONTEXT ( 'NONE', 'WORKASPACE' ) );
#252 = DIRECTION ( 'NONE',  ( -0.000000000000000000, -1.000000000000000000, -0.000000000000000000 ) ) ;
#253 = EDGE_LOOP ( 'NONE', ( #148, #301, #144, #226 ) ) ;
#254 = DIMENSIONAL_EXPONENTS ( 1.000000000000000000, 0.000000000000000000, 0.000000000000000000, 0.000000000000000000, 0.000000000000000000, 0.000000000000000000, 0.000000000000000000 ) ;
#255 = DIRECTION ( 'NONE',  ( 0.000000000000000000, 0.000000000000000000, -1.000000000000000000 ) ) ;
#256 =( LENGTH_UNIT ( ) NAMED_UNIT ( * ) SI_UNIT ( $, .METRE. ) );
#257 = EDGE_CURVE ( 'NONE', #247, #152, #203, .T. ) ;
#258 = CARTESIAN_POINT ( 'NONE',  ( 9.564491501340828324E-18, 0.5625000000000000000, 0.07810000000000000275 ) ) ;
#259 = CIRCLE ( 'NONE', #333, 0.09375000000000001388 ) ;
#260 = APPLICATION_PROTOCOL_DEFINITION ( 'draft international standard', 'automotive_design', 1998, #159 ) ;
#261 = VECTOR ( 'NONE', #192, 39.37007874015748143 ) ;
#262 = FILL_AREA_STYLE_COLOUR ( '', #235 ) ;
#263 = SURFACE_STYLE_USAGE ( .BOTH. , #102 ) ;
#264 = PLANE ( 'NONE',  #31 ) ;
#265 = DIRECTION ( 'NONE',  ( 1.000000000000000000, 0.000000000000000000, 0.000000000000000000 ) ) ;
#266 = COLOUR_RGB ( '',1.000000000000000000, 0.000000000000000000, 0.000000000000000000 ) ;
#267 = FILL_AREA_STYLE ('',( #53 ) ) ;
#268 = ORIENTED_EDGE ( 'NONE', *, *, #352, .F. ) ;
#269 = ORIENTED_EDGE ( 'NONE', *, *, #113, .T. ) ;
#270 = AXIS2_PLACEMENT_3D ( 'NONE', #215, #109, #217 ) ;
#271 = MECHANICAL_DESIGN_GEOMETRIC_PRESENTATION_REPRESENTATION (  '', ( #227 ), #24 ) ;
#272 = CARTESIAN_POINT ( 'NONE',  ( 0.09374999999999994449, 2.500000000000000000, 1.148106374200643863E-17 ) ) ;
#273 = EDGE_LOOP ( 'NONE', ( #63, #34, #38, #243 ) ) ;
#274 = EDGE_LOOP ( 'NONE', ( #230, #1 ) ) ;
#275 = CARTESIAN_POINT ( 'NONE',  ( 0.000000000000000000, 0.000000000000000000, 0.000000000000000000 ) ) ;
#276 = MECHANICAL_DESIGN_GEOMETRIC_PRESENTATION_REPRESENTATION (  '', ( #121 ), #214 ) ;
#277 =( CONVERSION_BASED_UNIT ( 'INCH', #237 ) LENGTH_UNIT ( ) NAMED_UNIT ( #302 ) );
#278 = LINE ( 'NONE', #41, #176 ) ;
#279 = CYLINDRICAL_SURFACE ( 'NONE', #163, 0.09375000000000001388 ) ;
#280 = PRESENTATION_STYLE_ASSIGNMENT (( #165 ) ) ;
#281 = FACE_OUTER_BOUND ( 'NONE', #118, .T. ) ;
#282 = DIRECTION ( 'NONE',  ( 0.000000000000000000, 0.000000000000000000, -1.000000000000000000 ) ) ;
#283 = AXIS2_PLACEMENT_3D ( 'NONE', #286, #132, #35 ) ;
#284 = AXIS2_PLACEMENT_3D ( 'NONE', #115, #199, #190 ) ;
#285 = SURFACE_STYLE_USAGE ( .BOTH. , #164 ) ;
#286 = CARTESIAN_POINT ( 'NONE',  ( 0.000000000000000000, 0.5625000000000001110, 0.000000000000000000 ) ) ;
#287 = LINE ( 'NONE', #46, #154 ) ;
#288 =( NAMED_UNIT ( * ) PLANE_ANGLE_UNIT ( ) SI_UNIT ( $, .RADIAN. ) );
#289 = PRESENTATION_STYLE_ASSIGNMENT (( #285 ) ) ;
#290 = SURFACE_SIDE_STYLE ('',( #193 ) ) ;
#291 = APPLICATION_CONTEXT ( 'automotive_design' ) ;
#292 = PLANE ( 'NONE',  #18 ) ;
#293 = ADVANCED_FACE ( 'NONE', ( #129 ), #205, .T. ) ;
#294 = AXIS2_PLACEMENT_3D ( 'NONE', #48, #324, #169 ) ;
#295 = SHAPE_DEFINITION_REPRESENTATION ( #177, #138 ) ;
#296 = FACE_OUTER_BOUND ( 'NONE', #274, .T. ) ;
#297 = MECHANICAL_DESIGN_GEOMETRIC_PRESENTATION_REPRESENTATION (  '', ( #30 ), #131 ) ;
#298 = AXIS2_PLACEMENT_3D ( 'NONE', #275, #68, #255 ) ;
#299 = DIRECTION ( 'NONE',  ( -1.000000000000000000, 0.000000000000000000, 0.000000000000000000 ) ) ;
#300 =( CONVERSION_BASED_UNIT ( 'INCH', #335 ) LENGTH_UNIT ( ) NAMED_UNIT ( #223 ) );
#301 = ORIENTED_EDGE ( 'NONE', *, *, #146, .T. ) ;
#302 = DIMENSIONAL_EXPONENTS ( 1.000000000000000000, 0.000000000000000000, 0.000000000000000000, 0.000000000000000000, 0.000000000000000000, 0.000000000000000000, 0.000000000000000000 ) ;
#303 = PRODUCT_RELATED_PRODUCT_CATEGORY ( 'part', '', ( #330 ) ) ;
#304 = CARTESIAN_POINT ( 'NONE',  ( 0.000000000000000000, 0.000000000000000000, 0.000000000000000000 ) ) ;
#305 = CARTESIAN_POINT ( 'NONE',  ( 0.000000000000000000, 0.5625000000000001110, 0.000000000000000000 ) ) ;
#306 = ORIENTED_EDGE ( 'NONE', *, *, #124, .T. ) ;
#307 = CARTESIAN_POINT ( 'NONE',  ( -0.09375000000000006939, 2.500000000000000000, 0.000000000000000000 ) ) ;
#308 = ORIENTED_EDGE ( 'NONE', *, *, #257, .F. ) ;
#309 = ORIENTED_EDGE ( 'NONE', *, *, #87, .F. ) ;
#310 = DIRECTION ( 'NONE',  ( -0.000000000000000000, -1.000000000000000000, -0.000000000000000000 ) ) ;
#311 = CLOSED_SHELL ( 'NONE', ( #293, #137, #107, #329 ) ) ;
#312 = MECHANICAL_DESIGN_GEOMETRIC_PRESENTATION_REPRESENTATION (  '', ( #345 ), #88 ) ;
#313 = DIRECTION ( 'NONE',  ( 0.000000000000000000, -0.000000000000000000, 1.000000000000000000 ) ) ;
#314 =( CONVERSION_BASED_UNIT ( 'INCH', #106 ) LENGTH_UNIT ( ) NAMED_UNIT ( #245 ) );
#315 = SURFACE_STYLE_USAGE ( .BOTH. , #236 ) ;
#316 = LENGTH_MEASURE_WITH_UNIT ( LENGTH_MEASURE( 0.02539999999999999897 ), #256 );
#317 = VECTOR ( 'NONE', #180, 39.37007874015748143 ) ;
#318 = FILL_AREA_STYLE ('',( #238 ) ) ;
#319 = FILL_AREA_STYLE_COLOUR ( '', #5 ) ;
#320 = EDGE_CURVE ( 'NONE', #152, #328, #221, .T. ) ;
#321 = PRESENTATION_STYLE_ASSIGNMENT (( #347 ) ) ;
#322 = LENGTH_MEASURE_WITH_UNIT ( LENGTH_MEASURE( 0.02539999999999999897 ), #50 );
#323 = AXIS2_PLACEMENT_3D ( 'NONE', #179, #151, #282 ) ;
#324 = DIRECTION ( 'NONE',  ( -0.000000000000000000, -1.000000000000000000, -0.000000000000000000 ) ) ;
#325 = DIRECTION ( 'NONE',  ( -3.160378836509298460E-17, 1.000000000000000000, -0.000000000000000000 ) ) ;
#326 =( LENGTH_UNIT ( ) NAMED_UNIT ( * ) SI_UNIT ( $, .METRE. ) );
#327 = AXIS2_PLACEMENT_3D ( 'NONE', #76, #349, #23 ) ;
#328 = VERTEX_POINT ( 'NONE', #122 ) ;
#329 = ADVANCED_FACE ( 'NONE', ( #44 ), #183, .T. ) ;
#330 = PRODUCT ( '83190', '83190', '', ( #61 ) ) ;
#331 = VERTEX_POINT ( 'NONE', #342 ) ;
#332 = ORIENTED_EDGE ( 'NONE', *, *, #26, .T. ) ;
#333 = AXIS2_PLACEMENT_3D ( 'NONE', #33, #8, #239 ) ;
#334 = PRESENTATION_LAYER_ASSIGNMENT (  '', '', ( #121 ) ) ;
#335 = LENGTH_MEASURE_WITH_UNIT ( LENGTH_MEASURE( 0.02539999999999999897 ), #108 );
#336 = VERTEX_POINT ( 'NONE', #9 ) ;
#337 = SURFACE_SIDE_STYLE ('',( #43 ) ) ;
#338 = CARTESIAN_POINT ( 'NONE',  ( 0.09374999999999994449, 2.500000000000000000, 0.000000000000000000 ) ) ;
#339 = VERTEX_POINT ( 'NONE', #258 ) ;
#340 = CARTESIAN_POINT ( 'NONE',  ( 0.09375000000000001388, 0.6054980216144648653, 1.148106374200643555E-17 ) ) ;
#341 = AXIS2_PLACEMENT_3D ( 'NONE', #351, #168, #136 ) ;
#342 = CARTESIAN_POINT ( 'NONE',  ( 0.07810000000000000275, 0.5625000000000001110, 1.052277762167363502E-17 ) ) ;
#343 = DIRECTION ( 'NONE',  ( -3.160378836509298460E-17, 1.000000000000000000, -0.000000000000000000 ) ) ;
#344 = FILL_AREA_STYLE ('',( #319 ) ) ;
#345 = STYLED_ITEM ( 'NONE', ( #197 ), #329 ) ;
#346 = ADVANCED_FACE ( 'NONE', ( #126 ), #279, .T. ) ;
#347 = SURFACE_STYLE_USAGE ( .BOTH. , #194 ) ;
#348 =( NAMED_UNIT ( * ) PLANE_ANGLE_UNIT ( ) SI_UNIT ( $, .RADIAN. ) );
#349 = DIRECTION ( 'NONE',  ( -3.160378836509298460E-17, 1.000000000000000000, -0.000000000000000000 ) ) ;
#350 = CIRCLE ( 'NONE', #284, 0.09375000000000001388 ) ;
#351 = CARTESIAN_POINT ( 'NONE',  ( 0.000000000000000000, 0.000000000000000000, 0.000000000000000000 ) ) ;
#352 = EDGE_CURVE ( 'NONE', #147, #3, #350, .T. ) ;
#353 = DIRECTION ( 'NONE',  ( 1.000000000000000000, 3.160378836509298460E-17, 0.000000000000000000 ) ) ;
#354 =( NAMED_UNIT ( * ) SI_UNIT ( $, .STERADIAN. ) SOLID_ANGLE_UNIT ( ) );
#355 = DIMENSIONAL_EXPONENTS ( 1.000000000000000000, 0.000000000000000000, 0.000000000000000000, 0.000000000000000000, 0.000000000000000000, 0.000000000000000000, 0.000000000000000000 ) ;
#356 = UNCERTAINTY_MEASURE_WITH_UNIT (LENGTH_MEASURE( 1.000000000000000082E-05 ), #218, 'distance_accuracy_value', 'NONE');
#357 = PRESENTATION_LAYER_ASSIGNMENT (  '', '', ( #139 ) ) ;
#358 =( GEOMETRIC_REPRESENTATION_CONTEXT ( 3 ) GLOBAL_UNCERTAINTY_ASSIGNED_CONTEXT ( ( #157 ) ) GLOBAL_UNIT_ASSIGNED_CONTEXT ( ( #300, #14, #80 ) ) REPRESENTATION_CONTEXT ( 'NONE', 'WORKASPACE' ) );
#359 = EDGE_LOOP ( 'NONE', ( #200, #202, #89, #86 ) ) ;
ENDSEC;
END-ISO-10303-21;
