ISO-10303-21;
HEADER;
FILE_DESCRIPTION (( 'STEP AP214' ),
    '1' );
FILE_NAME ('24422.STEP',
    '2023-06-22T17:13:30',
    ( '' ),
    ( '' ),
    'SwSTEP 2.0',
    'SolidWorks 2023',
    '' );
FILE_SCHEMA (( 'AUTOMOTIVE_DESIGN' ));
ENDSEC;

DATA;
#1 =( GEOMETRIC_REPRESENTATION_CONTEXT ( 3 ) GLOBAL_UNCERTAINTY_ASSIGNED_CONTEXT ( ( #287 ) ) GLOBAL_UNIT_ASSIGNED_CONTEXT ( ( #304, #203, #268 ) ) REPRESENTATION_CONTEXT ( 'NONE', 'WORKASPACE' ) );
#2 = DIRECTION ( 'NONE',  ( 0.000000000000000000, -0.000000000000000000, 1.000000000000000000 ) ) ;
#3 = DIRECTION ( 'NONE',  ( 1.000000000000000000, 0.000000000000000000, 0.000000000000000000 ) ) ;
#4 = FACE_OUTER_BOUND ( 'NONE', #167, .T. ) ;
#5 = SURFACE_STYLE_USAGE ( .BOTH. , #44 ) ;
#6 = FILL_AREA_STYLE ('',( #239 ) ) ;
#7 = ORIENTED_EDGE ( 'NONE', *, *, #20, .F. ) ;
#8 = AXIS2_PLACEMENT_3D ( 'NONE', #185, #186, #271 ) ;
#9 = SURFACE_STYLE_USAGE ( .BOTH. , #241 ) ;
#10 = VERTEX_POINT ( 'NONE', #282 ) ;
#11 = PRODUCT_RELATED_PRODUCT_CATEGORY ( 'part', '', ( #118 ) ) ;
#12 = EDGE_LOOP ( 'NONE', ( #223, #7 ) ) ;
#13 = SURFACE_STYLE_FILL_AREA ( #6 ) ;
#14 = ORIENTED_EDGE ( 'NONE', *, *, #164, .T. ) ;
#15 = SURFACE_STYLE_USAGE ( .BOTH. , #93 ) ;
#16 = AXIS2_PLACEMENT_3D ( 'NONE', #156, #294, #220 ) ;
#17 = EDGE_LOOP ( 'NONE', ( #292, #213 ) ) ;
#18 = AXIS2_PLACEMENT_3D ( 'NONE', #283, #74, #68 ) ;
#19 = AXIS2_PLACEMENT_3D ( 'NONE', #80, #236, #3 ) ;
#20 = EDGE_CURVE ( 'NONE', #218, #295, #46, .T. ) ;
#21 = FILL_AREA_STYLE ('',( #173 ) ) ;
#22 =( LENGTH_UNIT ( ) NAMED_UNIT ( * ) SI_UNIT ( $, .METRE. ) );
#23 = DIRECTION ( 'NONE',  ( -6.123233995736763571E-17, 1.000000000000000000, -0.000000000000000000 ) ) ;
#24 = FACE_OUTER_BOUND ( 'NONE', #242, .T. ) ;
#25 = CIRCLE ( 'NONE', #244, 0.3125000000000000000 ) ;
#26 = APPLICATION_PROTOCOL_DEFINITION ( 'draft international standard', 'automotive_design', 1998, #53 ) ;
#27 = MECHANICAL_DESIGN_GEOMETRIC_PRESENTATION_REPRESENTATION (  '', ( #170 ), #39 ) ;
#28 = DIRECTION ( 'NONE',  ( -6.123233995736763571E-17, 1.000000000000000000, -0.000000000000000000 ) ) ;
#29 = DIRECTION ( 'NONE',  ( -0.000000000000000000, -1.000000000000000000, -0.000000000000000000 ) ) ;
#30 = FILL_AREA_STYLE_COLOUR ( '', #226 ) ;
#31 = CIRCLE ( 'NONE', #206, 0.3125000000000001665 ) ;
#32 = PRODUCT_DEFINITION_FORMATION_WITH_SPECIFIED_SOURCE ( 'ANY', '', #118, .NOT_KNOWN. ) ;
#33 = FILL_AREA_STYLE_COLOUR ( '', #234 ) ;
#34 = DIMENSIONAL_EXPONENTS ( 1.000000000000000000, 0.000000000000000000, 0.000000000000000000, 0.000000000000000000, 0.000000000000000000, 0.000000000000000000, 0.000000000000000000 ) ;
#35 = CARTESIAN_POINT ( 'NONE',  ( 0.000000000000000000, 0.000000000000000000, 0.000000000000000000 ) ) ;
#36 = CARTESIAN_POINT ( 'NONE',  ( 0.000000000000000000, 2.000000000000000000, -0.3125000000000000000 ) ) ;
#37 = ORIENTED_EDGE ( 'NONE', *, *, #135, .T. ) ;
#38 = VECTOR ( 'NONE', #252, 39.37007874015748143 ) ;
#39 =( GEOMETRIC_REPRESENTATION_CONTEXT ( 3 ) GLOBAL_UNCERTAINTY_ASSIGNED_CONTEXT ( ( #189 ) ) GLOBAL_UNIT_ASSIGNED_CONTEXT ( ( #199, #224, #45 ) ) REPRESENTATION_CONTEXT ( 'NONE', 'WORKASPACE' ) );
#40 = UNCERTAINTY_MEASURE_WITH_UNIT (LENGTH_MEASURE( 1.000000000000000082E-05 ), #169, 'distance_accuracy_value', 'NONE');
#41 = ORIENTED_EDGE ( 'NONE', *, *, #164, .F. ) ;
#42 = CARTESIAN_POINT ( 'NONE',  ( 0.3125000000000000000, 4.000000000000000000, 3.827021247335479543E-17 ) ) ;
#43 =( CONVERSION_BASED_UNIT ( 'INCH', #140 ) LENGTH_UNIT ( ) NAMED_UNIT ( #52 ) );
#44 = SURFACE_SIDE_STYLE ('',( #166 ) ) ;
#45 =( NAMED_UNIT ( * ) SI_UNIT ( $, .STERADIAN. ) SOLID_ANGLE_UNIT ( ) );
#46 = CIRCLE ( 'NONE', #267, 0.3125000000000000000 ) ;
#47 =( GEOMETRIC_REPRESENTATION_CONTEXT ( 3 ) GLOBAL_UNCERTAINTY_ASSIGNED_CONTEXT ( ( #143 ) ) GLOBAL_UNIT_ASSIGNED_CONTEXT ( ( #57, #209, #179 ) ) REPRESENTATION_CONTEXT ( 'NONE', 'WORKASPACE' ) );
#48 = CYLINDRICAL_SURFACE ( 'NONE', #187, 0.3125000000000000555 ) ;
#49 =( GEOMETRIC_REPRESENTATION_CONTEXT ( 3 ) GLOBAL_UNCERTAINTY_ASSIGNED_CONTEXT ( ( #104 ) ) GLOBAL_UNIT_ASSIGNED_CONTEXT ( ( #43, #161, #308 ) ) REPRESENTATION_CONTEXT ( 'NONE', 'WORKASPACE' ) );
#50 = CYLINDRICAL_SURFACE ( 'NONE', #137, 0.3125000000000000000 ) ;
#51 = CARTESIAN_POINT ( 'NONE',  ( -0.3125000000000000000, 2.000000000000000000, 0.000000000000000000 ) ) ;
#52 = DIMENSIONAL_EXPONENTS ( 1.000000000000000000, 0.000000000000000000, 0.000000000000000000, 0.000000000000000000, 0.000000000000000000, 0.000000000000000000, 0.000000000000000000 ) ;
#53 = APPLICATION_CONTEXT ( 'automotive_design' ) ;
#54 = CARTESIAN_POINT ( 'NONE',  ( 3.827021247335478926E-17, 0.000000000000000000, 0.3125000000000000000 ) ) ;
#55 = COLOUR_RGB ( '',1.000000000000000000, 0.000000000000000000, 0.000000000000000000 ) ;
#56 = DIRECTION ( 'NONE',  ( -0.000000000000000000, -1.000000000000000000, -0.000000000000000000 ) ) ;
#57 =( CONVERSION_BASED_UNIT ( 'INCH', #177 ) LENGTH_UNIT ( ) NAMED_UNIT ( #34 ) );
#58 = CARTESIAN_POINT ( 'NONE',  ( -0.3125000000000002220, 4.000000000000000000, 0.000000000000000000 ) ) ;
#59 = PRESENTATION_LAYER_ASSIGNMENT (  '', '', ( #75 ) ) ;
#60 = LENGTH_MEASURE_WITH_UNIT ( LENGTH_MEASURE( 0.02539999999999999897 ), #116 );
#61 =( LENGTH_UNIT ( ) NAMED_UNIT ( * ) SI_UNIT ( $, .METRE. ) );
#62 = EDGE_LOOP ( 'NONE', ( #146, #97, #150, #120 ) ) ;
#63 = FACE_OUTER_BOUND ( 'NONE', #17, .T. ) ;
#64 = PRODUCT_DEFINITION_SHAPE ( 'NONE', 'NONE',  #307 ) ;
#65 = STYLED_ITEM ( 'NONE', ( #196 ), #296 ) ;
#66 = EDGE_LOOP ( 'NONE', ( #277, #168, #37, #264 ) ) ;
#67 = LINE ( 'NONE', #255, #262 ) ;
#68 = DIRECTION ( 'NONE',  ( 0.000000000000000000, 0.000000000000000000, -1.000000000000000000 ) ) ;
#69 = CLOSED_SHELL ( 'NONE', ( #296, #228, #201, #178 ) ) ;
#70 = MECHANICAL_DESIGN_GEOMETRIC_PRESENTATION_REPRESENTATION (  '', ( #165 ), #126 ) ;
#71 =( NAMED_UNIT ( * ) SI_UNIT ( $, .STERADIAN. ) SOLID_ANGLE_UNIT ( ) );
#72 = DIRECTION ( 'NONE',  ( -1.000000000000000000, 0.000000000000000000, 0.000000000000000000 ) ) ;
#73 = EDGE_CURVE ( 'NONE', #240, #91, #25, .T. ) ;
#74 = DIRECTION ( 'NONE',  ( -0.000000000000000000, -1.000000000000000000, -0.000000000000000000 ) ) ;
#75 = STYLED_ITEM ( 'NONE', ( #162 ), #178 ) ;
#76 = VERTEX_POINT ( 'NONE', #249 ) ;
#77 = CARTESIAN_POINT ( 'NONE',  ( -1.224646799147352714E-16, 4.000000000000000000, 0.000000000000000000 ) ) ;
#78 = FILL_AREA_STYLE_COLOUR ( '', #222 ) ;
#79 = PRESENTATION_LAYER_ASSIGNMENT (  '', '', ( #157 ) ) ;
#80 = CARTESIAN_POINT ( 'NONE',  ( 0.000000000000000000, 0.000000000000000000, 0.000000000000000000 ) ) ;
#81 = CIRCLE ( 'NONE', #254, 0.3125000000000000000 ) ;
#82 = SURFACE_STYLE_FILL_AREA ( #202 ) ;
#83 = DIRECTION ( 'NONE',  ( 0.000000000000000000, 0.000000000000000000, -1.000000000000000000 ) ) ;
#84 = EDGE_CURVE ( 'NONE', #279, #76, #31, .T. ) ;
#85 = CARTESIAN_POINT ( 'NONE',  ( 1.516480271171051896E-32, 2.000000000000000000, 0.000000000000000000 ) ) ;
#86 = APPLICATION_PROTOCOL_DEFINITION ( 'draft international standard', 'automotive_design', 1998, #92 ) ;
#87 = DIMENSIONAL_EXPONENTS ( 1.000000000000000000, 0.000000000000000000, 0.000000000000000000, 0.000000000000000000, 0.000000000000000000, 0.000000000000000000, 0.000000000000000000 ) ;
#88 = PRESENTATION_LAYER_ASSIGNMENT (  '', '', ( #165 ) ) ;
#89 = CIRCLE ( 'NONE', #16, 0.3125000000000000000 ) ;
#90 =( CONVERSION_BASED_UNIT ( 'INCH', #243 ) LENGTH_UNIT ( ) NAMED_UNIT ( #108 ) );
#91 = VERTEX_POINT ( 'NONE', #237 ) ;
#92 = APPLICATION_CONTEXT ( 'automotive_design' ) ;
#93 = SURFACE_SIDE_STYLE ('',( #232 ) ) ;
#94 = EDGE_LOOP ( 'NONE', ( #190, #117, #14, #200 ) ) ;
#95 =( NAMED_UNIT ( * ) PLANE_ANGLE_UNIT ( ) SI_UNIT ( $, .RADIAN. ) );
#96 = EDGE_CURVE ( 'NONE', #91, #240, #253, .T. ) ;
#97 = ORIENTED_EDGE ( 'NONE', *, *, #259, .T. ) ;
#98 = LENGTH_MEASURE_WITH_UNIT ( LENGTH_MEASURE( 0.02539999999999999897 ), #194 );
#99 = DIRECTION ( 'NONE',  ( -6.123233995736763571E-17, 1.000000000000000000, -0.000000000000000000 ) ) ;
#100 = VERTEX_POINT ( 'NONE', #54 ) ;
#101 = CIRCLE ( 'NONE', #145, 0.3125000000000001665 ) ;
#102 = ADVANCED_FACE ( 'NONE', ( #4 ), #208, .F. ) ;
#103 =( GEOMETRIC_REPRESENTATION_CONTEXT ( 3 ) GLOBAL_UNCERTAINTY_ASSIGNED_CONTEXT ( ( #172 ) ) GLOBAL_UNIT_ASSIGNED_CONTEXT ( ( #119, #147, #115 ) ) REPRESENTATION_CONTEXT ( 'NONE', 'WORKASPACE' ) );
#104 = UNCERTAINTY_MEASURE_WITH_UNIT (LENGTH_MEASURE( 1.000000000000000082E-05 ), #43, 'distance_accuracy_value', 'NONE');
#105 = CARTESIAN_POINT ( 'NONE',  ( 0.000000000000000000, 2.000000000000000000, 0.000000000000000000 ) ) ;
#106 = FILL_AREA_STYLE_COLOUR ( '', #55 ) ;
#107 = PLANE ( 'NONE',  #214 ) ;
#108 = DIMENSIONAL_EXPONENTS ( 1.000000000000000000, 0.000000000000000000, 0.000000000000000000, 0.000000000000000000, 0.000000000000000000, 0.000000000000000000, 0.000000000000000000 ) ;
#109 = UNCERTAINTY_MEASURE_WITH_UNIT (LENGTH_MEASURE( 1.000000000000000082E-05 ), #90, 'distance_accuracy_value', 'NONE');
#110 = LENGTH_MEASURE_WITH_UNIT ( LENGTH_MEASURE( 0.02539999999999999897 ), #22 );
#111 = PRESENTATION_LAYER_ASSIGNMENT (  '', '', ( #65 ) ) ;
#112 = DIRECTION ( 'NONE',  ( -1.000000000000000000, 0.000000000000000000, 0.000000000000000000 ) ) ;
#113 = FILL_AREA_STYLE ('',( #30 ) ) ;
#114 = SURFACE_SIDE_STYLE ('',( #13 ) ) ;
#115 =( NAMED_UNIT ( * ) SI_UNIT ( $, .STERADIAN. ) SOLID_ANGLE_UNIT ( ) );
#116 =( LENGTH_UNIT ( ) NAMED_UNIT ( * ) SI_UNIT ( $, .METRE. ) );
#117 = ORIENTED_EDGE ( 'NONE', *, *, #96, .T. ) ;
#118 = PRODUCT ( '24422', '24422', '', ( #138 ) ) ;
#119 =( CONVERSION_BASED_UNIT ( 'INCH', #60 ) LENGTH_UNIT ( ) NAMED_UNIT ( #188 ) );
#120 = ORIENTED_EDGE ( 'NONE', *, *, #135, .F. ) ;
#121 =( NAMED_UNIT ( * ) SI_UNIT ( $, .STERADIAN. ) SOLID_ANGLE_UNIT ( ) );
#122 = ORIENTED_EDGE ( 'NONE', *, *, #134, .T. ) ;
#123 = MECHANICAL_DESIGN_GEOMETRIC_PRESENTATION_REPRESENTATION (  '', ( #157 ), #103 ) ;
#124 = SURFACE_STYLE_USAGE ( .BOTH. , #281 ) ;
#125 =( NAMED_UNIT ( * ) PLANE_ANGLE_UNIT ( ) SI_UNIT ( $, .RADIAN. ) );
#126 =( GEOMETRIC_REPRESENTATION_CONTEXT ( 3 ) GLOBAL_UNCERTAINTY_ASSIGNED_CONTEXT ( ( #40 ) ) GLOBAL_UNIT_ASSIGNED_CONTEXT ( ( #169, #125, #71 ) ) REPRESENTATION_CONTEXT ( 'NONE', 'WORKASPACE' ) );
#127 = DIRECTION ( 'NONE',  ( -6.123233995736763571E-17, 1.000000000000000000, -0.000000000000000000 ) ) ;
#128 = SURFACE_STYLE_USAGE ( .BOTH. , #154 ) ;
#129 = DIRECTION ( 'NONE',  ( -6.123233995736763571E-17, 1.000000000000000000, -0.000000000000000000 ) ) ;
#130 = AXIS2_PLACEMENT_3D ( 'NONE', #280, #127, #72 ) ;
#131 = CARTESIAN_POINT ( 'NONE',  ( 0.3125000000000000000, 4.000000000000000000, 0.000000000000000000 ) ) ;
#132 = DIRECTION ( 'NONE',  ( -1.000000000000000000, 0.000000000000000000, 0.000000000000000000 ) ) ;
#133 = DIRECTION ( 'NONE',  ( 0.000000000000000000, 0.000000000000000000, -1.000000000000000000 ) ) ;
#134 = EDGE_CURVE ( 'NONE', #76, #279, #101, .T. ) ;
#135 = EDGE_CURVE ( 'NONE', #295, #10, #230, .T. ) ;
#136 = DIRECTION ( 'NONE',  ( 6.123233995736763571E-17, -1.000000000000000000, 0.000000000000000000 ) ) ;
#137 = AXIS2_PLACEMENT_3D ( 'NONE', #306, #29, #133 ) ;
#138 = PRODUCT_CONTEXT ( 'NONE', #53, 'mechanical' ) ;
#139 = SURFACE_STYLE_FILL_AREA ( #141 ) ;
#140 = LENGTH_MEASURE_WITH_UNIT ( LENGTH_MEASURE( 0.02539999999999999897 ), #61 );
#141 = FILL_AREA_STYLE ('',( #33 ) ) ;
#142 = ORIENTED_EDGE ( 'NONE', *, *, #73, .T. ) ;
#143 = UNCERTAINTY_MEASURE_WITH_UNIT (LENGTH_MEASURE( 1.000000000000000082E-05 ), #57, 'distance_accuracy_value', 'NONE');
#144 = DIRECTION ( 'NONE',  ( -6.123233995736763571E-17, 1.000000000000000000, -0.000000000000000000 ) ) ;
#145 = AXIS2_PLACEMENT_3D ( 'NONE', #155, #129, #204 ) ;
#146 = ORIENTED_EDGE ( 'NONE', *, *, #176, .T. ) ;
#147 =( NAMED_UNIT ( * ) PLANE_ANGLE_UNIT ( ) SI_UNIT ( $, .RADIAN. ) );
#148 = ORIENTED_EDGE ( 'NONE', *, *, #73, .F. ) ;
#149 = ORIENTED_EDGE ( 'NONE', *, *, #191, .T. ) ;
#150 = ORIENTED_EDGE ( 'NONE', *, *, #251, .F. ) ;
#151 = CARTESIAN_POINT ( 'NONE',  ( 3.827021247335478926E-17, 2.000000000000000000, 0.3125000000000000000 ) ) ;
#152 = PRESENTATION_STYLE_ASSIGNMENT (( #124 ) ) ;
#153 = FACE_OUTER_BOUND ( 'NONE', #62, .T. ) ;
#154 = SURFACE_SIDE_STYLE ('',( #82 ) ) ;
#155 = CARTESIAN_POINT ( 'NONE',  ( -1.224646799147352714E-16, 4.000000000000000000, 0.000000000000000000 ) ) ;
#156 = CARTESIAN_POINT ( 'NONE',  ( 0.000000000000000000, 2.000000000000000000, 0.000000000000000000 ) ) ;
#157 = STYLED_ITEM ( 'NONE', ( #212 ), #171 ) ;
#158 = AXIS2_PLACEMENT_3D ( 'NONE', #35, #195, #278 ) ;
#159 = LINE ( 'NONE', #260, #248 ) ;
#160 = FACE_OUTER_BOUND ( 'NONE', #66, .T. ) ;
#161 =( NAMED_UNIT ( * ) PLANE_ANGLE_UNIT ( ) SI_UNIT ( $, .RADIAN. ) );
#162 = PRESENTATION_STYLE_ASSIGNMENT (( #291 ) ) ;
#163 = ORIENTED_EDGE ( 'NONE', *, *, #96, .F. ) ;
#164 = EDGE_CURVE ( 'NONE', #240, #76, #309, .T. ) ;
#165 = STYLED_ITEM ( 'NONE', ( #152 ), #270 ) ;
#166 = SURFACE_STYLE_FILL_AREA ( #113 ) ;
#167 = EDGE_LOOP ( 'NONE', ( #148, #163 ) ) ;
#168 = ORIENTED_EDGE ( 'NONE', *, *, #20, .T. ) ;
#169 =( CONVERSION_BASED_UNIT ( 'INCH', #299 ) LENGTH_UNIT ( ) NAMED_UNIT ( #205 ) );
#170 = STYLED_ITEM ( 'NONE', ( #192 ), #201 ) ;
#171 = MANIFOLD_SOLID_BREP ( 'Revolve - Tool Body (Straight Shanked)', #257 ) ;
#172 = UNCERTAINTY_MEASURE_WITH_UNIT (LENGTH_MEASURE( 1.000000000000000082E-05 ), #119, 'distance_accuracy_value', 'NONE');
#173 = FILL_AREA_STYLE_COLOUR ( '', #231 ) ;
#174 = DIRECTION ( 'NONE',  ( -1.000000000000000000, 0.000000000000000000, 0.000000000000000000 ) ) ;
#175 = DIRECTION ( 'NONE',  ( 0.000000000000000000, 0.000000000000000000, -1.000000000000000000 ) ) ;
#176 = EDGE_CURVE ( 'NONE', #295, #218, #89, .T. ) ;
#177 = LENGTH_MEASURE_WITH_UNIT ( LENGTH_MEASURE( 0.02539999999999999897 ), #286 );
#178 = ADVANCED_FACE ( 'NONE', ( #63 ), #274, .T. ) ;
#179 =( NAMED_UNIT ( * ) SI_UNIT ( $, .STERADIAN. ) SOLID_ANGLE_UNIT ( ) );
#180 = CARTESIAN_POINT ( 'NONE',  ( 0.000000000000000000, 0.000000000000000000, -0.3125000000000000000 ) ) ;
#181 = DIMENSIONAL_EXPONENTS ( 1.000000000000000000, 0.000000000000000000, 0.000000000000000000, 0.000000000000000000, 0.000000000000000000, 0.000000000000000000, 0.000000000000000000 ) ;
#182 = PRODUCT_DEFINITION_CONTEXT ( 'detailed design', #92, 'design' ) ;
#183 = MECHANICAL_DESIGN_GEOMETRIC_PRESENTATION_REPRESENTATION (  '', ( #302 ), #47 ) ;
#184 = PRESENTATION_STYLE_ASSIGNMENT (( #128 ) ) ;
#185 = CARTESIAN_POINT ( 'NONE',  ( 5.858436651022876149E-34, 2.000000000000000000, 0.000000000000000000 ) ) ;
#186 = DIRECTION ( 'NONE',  ( -6.123233995736763571E-17, 1.000000000000000000, 0.000000000000000000 ) ) ;
#187 = AXIS2_PLACEMENT_3D ( 'NONE', #225, #99, #174 ) ;
#188 = DIMENSIONAL_EXPONENTS ( 1.000000000000000000, 0.000000000000000000, 0.000000000000000000, 0.000000000000000000, 0.000000000000000000, 0.000000000000000000, 0.000000000000000000 ) ;
#189 = UNCERTAINTY_MEASURE_WITH_UNIT (LENGTH_MEASURE( 1.000000000000000082E-05 ), #199, 'distance_accuracy_value', 'NONE');
#190 = ORIENTED_EDGE ( 'NONE', *, *, #191, .F. ) ;
#191 = EDGE_CURVE ( 'NONE', #91, #279, #67, .T. ) ;
#192 = PRESENTATION_STYLE_ASSIGNMENT (( #9 ) ) ;
#193 = DIRECTION ( 'NONE',  ( -0.000000000000000000, -1.000000000000000000, -0.000000000000000000 ) ) ;
#194 =( LENGTH_UNIT ( ) NAMED_UNIT ( * ) SI_UNIT ( $, .METRE. ) );
#195 = DIRECTION ( 'NONE',  ( 0.000000000000000000, -1.000000000000000000, -0.000000000000000000 ) ) ;
#196 = PRESENTATION_STYLE_ASSIGNMENT (( #15 ) ) ;
#197 = CYLINDRICAL_SURFACE ( 'NONE', #130, 0.3125000000000000555 ) ;
#198 =( GEOMETRIC_REPRESENTATION_CONTEXT ( 3 ) GLOBAL_UNCERTAINTY_ASSIGNED_CONTEXT ( ( #109 ) ) GLOBAL_UNIT_ASSIGNED_CONTEXT ( ( #90, #95, #121 ) ) REPRESENTATION_CONTEXT ( 'NONE', 'WORKASPACE' ) );
#199 =( CONVERSION_BASED_UNIT ( 'INCH', #98 ) LENGTH_UNIT ( ) NAMED_UNIT ( #181 ) );
#200 = ORIENTED_EDGE ( 'NONE', *, *, #84, .F. ) ;
#201 = ADVANCED_FACE ( 'NONE', ( #160 ), #256, .T. ) ;
#202 = FILL_AREA_STYLE ('',( #106 ) ) ;
#203 =( NAMED_UNIT ( * ) PLANE_ANGLE_UNIT ( ) SI_UNIT ( $, .RADIAN. ) );
#204 = DIRECTION ( 'NONE',  ( -1.000000000000000000, 0.000000000000000000, 0.000000000000000000 ) ) ;
#205 = DIMENSIONAL_EXPONENTS ( 1.000000000000000000, 0.000000000000000000, 0.000000000000000000, 0.000000000000000000, 0.000000000000000000, 0.000000000000000000, 0.000000000000000000 ) ;
#206 = AXIS2_PLACEMENT_3D ( 'NONE', #77, #28, #132 ) ;
#207 = AXIS2_PLACEMENT_3D ( 'NONE', #301, #265, #83 ) ;
#208 = PLANE ( 'NONE',  #8 ) ;
#209 =( NAMED_UNIT ( * ) PLANE_ANGLE_UNIT ( ) SI_UNIT ( $, .RADIAN. ) );
#210 = ADVANCED_FACE ( 'NONE', ( #261 ), #48, .T. ) ;
#211 = CARTESIAN_POINT ( 'NONE',  ( 1.516480271171051896E-32, 2.000000000000000000, 0.000000000000000000 ) ) ;
#212 = PRESENTATION_STYLE_ASSIGNMENT (( #5 ) ) ;
#213 = ORIENTED_EDGE ( 'NONE', *, *, #288, .T. ) ;
#214 = AXIS2_PLACEMENT_3D ( 'NONE', #131, #136, #250 ) ;
#215 =( LENGTH_UNIT ( ) NAMED_UNIT ( * ) SI_UNIT ( $, .METRE. ) );
#216 = ADVANCED_FACE ( 'NONE', ( #266 ), #197, .T. ) ;
#217 = ORIENTED_EDGE ( 'NONE', *, *, #84, .T. ) ;
#218 = VERTEX_POINT ( 'NONE', #151 ) ;
#219 = SURFACE_STYLE_FILL_AREA ( #21 ) ;
#220 = DIRECTION ( 'NONE',  ( 0.000000000000000000, 0.000000000000000000, -1.000000000000000000 ) ) ;
#221 = AXIS2_PLACEMENT_3D ( 'NONE', #85, #23, #290 ) ;
#222 = COLOUR_RGB ( '',1.000000000000000000, 0.000000000000000000, 0.000000000000000000 ) ;
#223 = ORIENTED_EDGE ( 'NONE', *, *, #176, .F. ) ;
#224 =( NAMED_UNIT ( * ) PLANE_ANGLE_UNIT ( ) SI_UNIT ( $, .RADIAN. ) );
#225 = CARTESIAN_POINT ( 'NONE',  ( -1.224646799147352714E-16, 4.000000000000000000, 0.000000000000000000 ) ) ;
#226 = COLOUR_RGB ( '',0.7921568627450980005, 0.8196078431372548767, 0.9333333333333333481 ) ;
#227 = AXIS2_PLACEMENT_3D ( 'NONE', #305, #235, #2 ) ;
#228 = ADVANCED_FACE ( 'NONE', ( #245 ), #229, .T. ) ;
#229 = PLANE ( 'NONE',  #227 ) ;
#230 = LINE ( 'NONE', #180, #275 ) ;
#231 = COLOUR_RGB ( '',0.7921568627450980005, 0.8196078431372548767, 0.9333333333333333481 ) ;
#232 = SURFACE_STYLE_FILL_AREA ( #293 ) ;
#233 = DIRECTION ( 'NONE',  ( -6.123233995736763571E-17, 1.000000000000000000, -0.000000000000000000 ) ) ;
#234 = COLOUR_RGB ( '',1.000000000000000000, 0.000000000000000000, 0.000000000000000000 ) ;
#235 = DIRECTION ( 'NONE',  ( 0.000000000000000000, 1.000000000000000000, 0.000000000000000000 ) ) ;
#236 = DIRECTION ( 'NONE',  ( 0.000000000000000000, 0.000000000000000000, 1.000000000000000000 ) ) ;
#237 = CARTESIAN_POINT ( 'NONE',  ( 0.3125000000000000000, 2.000000000000000000, 3.827021247335479543E-17 ) ) ;
#238 = SHAPE_DEFINITION_REPRESENTATION ( #64, #300 ) ;
#239 = FILL_AREA_STYLE_COLOUR ( '', #285 ) ;
#240 = VERTEX_POINT ( 'NONE', #51 ) ;
#241 = SURFACE_SIDE_STYLE ('',( #139 ) ) ;
#242 = EDGE_LOOP ( 'NONE', ( #122, #217 ) ) ;
#243 = LENGTH_MEASURE_WITH_UNIT ( LENGTH_MEASURE( 0.02539999999999999897 ), #215 );
#244 = AXIS2_PLACEMENT_3D ( 'NONE', #211, #233, #112 ) ;
#245 = FACE_OUTER_BOUND ( 'NONE', #12, .T. ) ;
#246 = ADVANCED_FACE ( 'NONE', ( #24 ), #107, .F. ) ;
#247 =( LENGTH_UNIT ( ) NAMED_UNIT ( * ) SI_UNIT ( $, .METRE. ) );
#248 = VECTOR ( 'NONE', #303, 39.37007874015748143 ) ;
#249 = CARTESIAN_POINT ( 'NONE',  ( -0.3125000000000002776, 4.000000000000000000, 0.000000000000000000 ) ) ;
#250 = DIRECTION ( 'NONE',  ( 1.000000000000000000, 6.123233995736763571E-17, 0.000000000000000000 ) ) ;
#251 = EDGE_CURVE ( 'NONE', #10, #100, #81, .T. ) ;
#252 = DIRECTION ( 'NONE',  ( -6.123233995736763571E-17, 1.000000000000000000, -0.000000000000000000 ) ) ;
#253 = CIRCLE ( 'NONE', #221, 0.3125000000000000000 ) ;
#254 = AXIS2_PLACEMENT_3D ( 'NONE', #258, #193, #272 ) ;
#255 = CARTESIAN_POINT ( 'NONE',  ( 0.3124999999999999445, 4.000000000000000000, 3.827021247335479543E-17 ) ) ;
#256 = CYLINDRICAL_SURFACE ( 'NONE', #18, 0.3125000000000000000 ) ;
#257 = CLOSED_SHELL ( 'NONE', ( #216, #102, #210, #246 ) ) ;
#258 = CARTESIAN_POINT ( 'NONE',  ( 0.000000000000000000, 0.000000000000000000, 0.000000000000000000 ) ) ;
#259 = EDGE_CURVE ( 'NONE', #218, #100, #159, .T. ) ;
#260 = CARTESIAN_POINT ( 'NONE',  ( 3.827021247335478926E-17, 0.000000000000000000, 0.3125000000000000000 ) ) ;
#261 = FACE_OUTER_BOUND ( 'NONE', #94, .T. ) ;
#262 = VECTOR ( 'NONE', #144, 39.37007874015748143 ) ;
#263 = PRESENTATION_LAYER_ASSIGNMENT (  '', '', ( #302 ) ) ;
#264 = ORIENTED_EDGE ( 'NONE', *, *, #288, .F. ) ;
#265 = DIRECTION ( 'NONE',  ( -0.000000000000000000, -1.000000000000000000, -0.000000000000000000 ) ) ;
#266 = FACE_OUTER_BOUND ( 'NONE', #298, .T. ) ;
#267 = AXIS2_PLACEMENT_3D ( 'NONE', #105, #284, #175 ) ;
#268 =( NAMED_UNIT ( * ) SI_UNIT ( $, .STERADIAN. ) SOLID_ANGLE_UNIT ( ) );
#269 = PRESENTATION_LAYER_ASSIGNMENT (  '', '', ( #170 ) ) ;
#270 = MANIFOLD_SOLID_BREP ( 'Revolve - Cutting Edge', #69 ) ;
#271 = DIRECTION ( 'NONE',  ( -1.000000000000000000, -6.123233995736763571E-17, 0.000000000000000000 ) ) ;
#272 = DIRECTION ( 'NONE',  ( 0.000000000000000000, 0.000000000000000000, -1.000000000000000000 ) ) ;
#273 = MECHANICAL_DESIGN_GEOMETRIC_PRESENTATION_REPRESENTATION (  '', ( #75 ), #198 ) ;
#274 = PLANE ( 'NONE',  #158 ) ;
#275 = VECTOR ( 'NONE', #56, 39.37007874015748143 ) ;
#276 = MECHANICAL_DESIGN_GEOMETRIC_PRESENTATION_REPRESENTATION (  '', ( #65 ), #49 ) ;
#277 = ORIENTED_EDGE ( 'NONE', *, *, #259, .F. ) ;
#278 = DIRECTION ( 'NONE',  ( 0.000000000000000000, 0.000000000000000000, -1.000000000000000000 ) ) ;
#279 = VERTEX_POINT ( 'NONE', #42 ) ;
#280 = CARTESIAN_POINT ( 'NONE',  ( -1.224646799147352714E-16, 4.000000000000000000, 0.000000000000000000 ) ) ;
#281 = SURFACE_SIDE_STYLE ('',( #219 ) ) ;
#282 = CARTESIAN_POINT ( 'NONE',  ( 0.000000000000000000, 0.000000000000000000, -0.3125000000000000000 ) ) ;
#283 = CARTESIAN_POINT ( 'NONE',  ( 0.000000000000000000, 0.000000000000000000, 0.000000000000000000 ) ) ;
#284 = DIRECTION ( 'NONE',  ( -0.000000000000000000, -1.000000000000000000, -0.000000000000000000 ) ) ;
#285 = COLOUR_RGB ( '',1.000000000000000000, 0.000000000000000000, 0.000000000000000000 ) ;
#286 =( LENGTH_UNIT ( ) NAMED_UNIT ( * ) SI_UNIT ( $, .METRE. ) );
#287 = UNCERTAINTY_MEASURE_WITH_UNIT (LENGTH_MEASURE( 1.000000000000000082E-05 ), #304, 'distance_accuracy_value', 'NONE');
#288 = EDGE_CURVE ( 'NONE', #100, #10, #289, .T. ) ;
#289 = CIRCLE ( 'NONE', #207, 0.3125000000000000000 ) ;
#290 = DIRECTION ( 'NONE',  ( -1.000000000000000000, 0.000000000000000000, 0.000000000000000000 ) ) ;
#291 = SURFACE_STYLE_USAGE ( .BOTH. , #114 ) ;
#292 = ORIENTED_EDGE ( 'NONE', *, *, #251, .T. ) ;
#293 = FILL_AREA_STYLE ('',( #78 ) ) ;
#294 = DIRECTION ( 'NONE',  ( -0.000000000000000000, -1.000000000000000000, -0.000000000000000000 ) ) ;
#295 = VERTEX_POINT ( 'NONE', #36 ) ;
#296 = ADVANCED_FACE ( 'NONE', ( #153 ), #50, .T. ) ;
#297 = ORIENTED_EDGE ( 'NONE', *, *, #134, .F. ) ;
#298 = EDGE_LOOP ( 'NONE', ( #142, #149, #297, #41 ) ) ;
#299 = LENGTH_MEASURE_WITH_UNIT ( LENGTH_MEASURE( 0.02539999999999999897 ), #247 );
#300 = ADVANCED_BREP_SHAPE_REPRESENTATION ( '24422', ( #270, #171, #19 ), #1 ) ;
#301 = CARTESIAN_POINT ( 'NONE',  ( 0.000000000000000000, 0.000000000000000000, 0.000000000000000000 ) ) ;
#302 = STYLED_ITEM ( 'NONE', ( #184 ), #228 ) ;
#303 = DIRECTION ( 'NONE',  ( -0.000000000000000000, -1.000000000000000000, -0.000000000000000000 ) ) ;
#304 =( CONVERSION_BASED_UNIT ( 'INCH', #110 ) LENGTH_UNIT ( ) NAMED_UNIT ( #87 ) );
#305 = CARTESIAN_POINT ( 'NONE',  ( 0.000000000000000000, 2.000000000000000000, 0.000000000000000000 ) ) ;
#306 = CARTESIAN_POINT ( 'NONE',  ( 0.000000000000000000, 0.000000000000000000, 0.000000000000000000 ) ) ;
#307 = PRODUCT_DEFINITION ( 'UNKNOWN', '', #32, #182 ) ;
#308 =( NAMED_UNIT ( * ) SI_UNIT ( $, .STERADIAN. ) SOLID_ANGLE_UNIT ( ) );
#309 = LINE ( 'NONE', #58, #38 ) ;
ENDSEC;
END-ISO-10303-21;
