ISO-10303-21;
HEADER;
FILE_DESCRIPTION (( 'STEP AP214' ),
    '1' );
FILE_NAME ('00210.STEP',
    '2023-06-22T14:04:23',
    ( '' ),
    ( '' ),
    'SwSTEP 2.0',
    'SolidWorks 2023',
    '' );
FILE_SCHEMA (( 'AUTOMOTIVE_DESIGN' ));
ENDSEC;

DATA;
#1 = EDGE_CURVE ( 'NONE', #301, #177, #277, .T. ) ;
#2 =( LENGTH_UNIT ( ) NAMED_UNIT ( * ) SI_UNIT ( $, .METRE. ) );
#3 = CARTESIAN_POINT ( 'NONE',  ( 0.000000000000000000, 1.750000000000000000, 0.000000000000000000 ) ) ;
#4 = DIMENSIONAL_EXPONENTS ( 1.000000000000000000, 0.000000000000000000, 0.000000000000000000, 0.000000000000000000, 0.000000000000000000, 0.000000000000000000, 0.000000000000000000 ) ;
#5 = SURFACE_STYLE_USAGE ( .BOTH. , #142 ) ;
#6 = AXIS2_PLACEMENT_3D ( 'NONE', #247, #84, #77 ) ;
#7 = ORIENTED_EDGE ( 'NONE', *, *, #73, .T. ) ;
#8 = CIRCLE ( 'NONE', #210, 0.1250000000000000000 ) ;
#9 = FACE_OUTER_BOUND ( 'NONE', #209, .T. ) ;
#10 = PLANE ( 'NONE',  #253 ) ;
#11 = EDGE_CURVE ( 'NONE', #82, #37, #304, .T. ) ;
#12 = CYLINDRICAL_SURFACE ( 'NONE', #136, 0.1250000000000000000 ) ;
#13 = FILL_AREA_STYLE_COLOUR ( '', #241 ) ;
#14 = DIRECTION ( 'NONE',  ( -5.442874662877122626E-17, 1.000000000000000000, -0.000000000000000000 ) ) ;
#15 =( GEOMETRIC_REPRESENTATION_CONTEXT ( 3 ) GLOBAL_UNCERTAINTY_ASSIGNED_CONTEXT ( ( #291 ) ) GLOBAL_UNIT_ASSIGNED_CONTEXT ( ( #161, #261, #197 ) ) REPRESENTATION_CONTEXT ( 'NONE', 'WORKASPACE' ) );
#16 =( NAMED_UNIT ( * ) SI_UNIT ( $, .STERADIAN. ) SOLID_ANGLE_UNIT ( ) );
#17 = SHAPE_DEFINITION_REPRESENTATION ( #168, #63 ) ;
#18 = FACE_OUTER_BOUND ( 'NONE', #272, .T. ) ;
#19 = VECTOR ( 'NONE', #66, 39.37007874015748143 ) ;
#20 =( GEOMETRIC_REPRESENTATION_CONTEXT ( 3 ) GLOBAL_UNCERTAINTY_ASSIGNED_CONTEXT ( ( #216 ) ) GLOBAL_UNIT_ASSIGNED_CONTEXT ( ( #228, #250, #16 ) ) REPRESENTATION_CONTEXT ( 'NONE', 'WORKASPACE' ) );
#21 = FACE_OUTER_BOUND ( 'NONE', #303, .T. ) ;
#22 = CARTESIAN_POINT ( 'NONE',  ( -0.1250000000000001943, 4.000000000000000000, 0.000000000000000000 ) ) ;
#23 = MECHANICAL_DESIGN_GEOMETRIC_PRESENTATION_REPRESENTATION (  '', ( #294 ), #194 ) ;
#24 = SURFACE_STYLE_USAGE ( .BOTH. , #269 ) ;
#25 = CARTESIAN_POINT ( 'NONE',  ( 0.000000000000000000, 0.000000000000000000, 0.000000000000000000 ) ) ;
#26 = PRESENTATION_STYLE_ASSIGNMENT (( #5 ) ) ;
#27 = STYLED_ITEM ( 'NONE', ( #26 ), #248 ) ;
#28 = CARTESIAN_POINT ( 'NONE',  ( -1.224646799147352714E-16, 4.000000000000000000, 0.000000000000000000 ) ) ;
#29 = ORIENTED_EDGE ( 'NONE', *, *, #288, .F. ) ;
#30 = FACE_OUTER_BOUND ( 'NONE', #270, .T. ) ;
#31 = DIMENSIONAL_EXPONENTS ( 1.000000000000000000, 0.000000000000000000, 0.000000000000000000, 0.000000000000000000, 0.000000000000000000, 0.000000000000000000, 0.000000000000000000 ) ;
#32 = AXIS2_PLACEMENT_3D ( 'NONE', #214, #280, #287 ) ;
#33 = FILL_AREA_STYLE ('',( #200 ) ) ;
#34 = FILL_AREA_STYLE_COLOUR ( '', #68 ) ;
#35 = FILL_AREA_STYLE ('',( #13 ) ) ;
#36 =( NAMED_UNIT ( * ) SI_UNIT ( $, .STERADIAN. ) SOLID_ANGLE_UNIT ( ) );
#37 = VERTEX_POINT ( 'NONE', #223 ) ;
#38 = ADVANCED_FACE ( 'NONE', ( #101 ), #10, .T. ) ;
#39 =( NAMED_UNIT ( * ) SI_UNIT ( $, .STERADIAN. ) SOLID_ANGLE_UNIT ( ) );
#40 = DIRECTION ( 'NONE',  ( 0.000000000000000000, 0.000000000000000000, -1.000000000000000000 ) ) ;
#41 =( NAMED_UNIT ( * ) SI_UNIT ( $, .STERADIAN. ) SOLID_ANGLE_UNIT ( ) );
#42 = ADVANCED_FACE ( 'NONE', ( #60 ), #184, .T. ) ;
#43 = CARTESIAN_POINT ( 'NONE',  ( -1.224646799147352714E-16, 4.000000000000000000, 0.000000000000000000 ) ) ;
#44 =( GEOMETRIC_REPRESENTATION_CONTEXT ( 3 ) GLOBAL_UNCERTAINTY_ASSIGNED_CONTEXT ( ( #134 ) ) GLOBAL_UNIT_ASSIGNED_CONTEXT ( ( #204, #183, #36 ) ) REPRESENTATION_CONTEXT ( 'NONE', 'WORKASPACE' ) );
#45 = STYLED_ITEM ( 'NONE', ( #251 ), #42 ) ;
#46 = ADVANCED_FACE ( 'NONE', ( #71 ), #91, .T. ) ;
#47 = LENGTH_MEASURE_WITH_UNIT ( LENGTH_MEASURE( 0.02539999999999999897 ), #229 );
#48 = MECHANICAL_DESIGN_GEOMETRIC_PRESENTATION_REPRESENTATION (  '', ( #27 ), #87 ) ;
#49 = CARTESIAN_POINT ( 'NONE',  ( 0.000000000000000000, 1.750000000000000000, 0.000000000000000000 ) ) ;
#50 = CARTESIAN_POINT ( 'NONE',  ( -0.1250000000000000000, 1.750000000000000000, 0.000000000000000000 ) ) ;
#51 = SURFACE_STYLE_FILL_AREA ( #266 ) ;
#52 = COLOUR_RGB ( '',0.7921568627450980005, 0.8196078431372548767, 0.9333333333333333481 ) ;
#53 = UNCERTAINTY_MEASURE_WITH_UNIT (LENGTH_MEASURE( 1.000000000000000082E-05 ), #171, 'distance_accuracy_value', 'NONE');
#54 = LENGTH_MEASURE_WITH_UNIT ( LENGTH_MEASURE( 0.02539999999999999897 ), #219 );
#55 = VERTEX_POINT ( 'NONE', #232 ) ;
#56 = ORIENTED_EDGE ( 'NONE', *, *, #86, .T. ) ;
#57 =( GEOMETRIC_REPRESENTATION_CONTEXT ( 3 ) GLOBAL_UNCERTAINTY_ASSIGNED_CONTEXT ( ( #128 ) ) GLOBAL_UNIT_ASSIGNED_CONTEXT ( ( #275, #59, #39 ) ) REPRESENTATION_CONTEXT ( 'NONE', 'WORKASPACE' ) );
#58 = PRODUCT_DEFINITION_FORMATION_WITH_SPECIFIED_SOURCE ( 'ANY', '', #163, .NOT_KNOWN. ) ;
#59 =( NAMED_UNIT ( * ) PLANE_ANGLE_UNIT ( ) SI_UNIT ( $, .RADIAN. ) );
#60 = FACE_OUTER_BOUND ( 'NONE', #245, .T. ) ;
#61 = UNCERTAINTY_MEASURE_WITH_UNIT (LENGTH_MEASURE( 1.000000000000000082E-05 ), #137, 'distance_accuracy_value', 'NONE');
#62 = ORIENTED_EDGE ( 'NONE', *, *, #164, .F. ) ;
#63 = ADVANCED_BREP_SHAPE_REPRESENTATION ( '00210', ( #248, #146, #182 ), #44 ) ;
#64 = EDGE_CURVE ( 'NONE', #242, #55, #99, .T. ) ;
#65 = PRODUCT_CONTEXT ( 'NONE', #180, 'mechanical' ) ;
#66 = DIRECTION ( 'NONE',  ( -0.000000000000000000, -1.000000000000000000, -0.000000000000000000 ) ) ;
#67 = FILL_AREA_STYLE_COLOUR ( '', #306 ) ;
#68 = COLOUR_RGB ( '',1.000000000000000000, 0.000000000000000000, 0.000000000000000000 ) ;
#69 = PLANE ( 'NONE',  #191 ) ;
#70 = DIRECTION ( 'NONE',  ( -5.442874662877122010E-17, 1.000000000000000000, -0.000000000000000000 ) ) ;
#71 = FACE_OUTER_BOUND ( 'NONE', #85, .T. ) ;
#72 = CARTESIAN_POINT ( 'NONE',  ( 0.000000000000000000, 1.750000000000000000, -0.1250000000000000000 ) ) ;
#73 = EDGE_CURVE ( 'NONE', #153, #301, #286, .T. ) ;
#74 = FACE_OUTER_BOUND ( 'NONE', #186, .T. ) ;
#75 = DIRECTION ( 'NONE',  ( 0.000000000000000000, 0.000000000000000000, -1.000000000000000000 ) ) ;
#76 = FILL_AREA_STYLE_COLOUR ( '', #284 ) ;
#77 = DIRECTION ( 'NONE',  ( -1.000000000000000000, 0.000000000000000000, 0.000000000000000000 ) ) ;
#78 =( LENGTH_UNIT ( ) NAMED_UNIT ( * ) SI_UNIT ( $, .METRE. ) );
#79 = SURFACE_STYLE_FILL_AREA ( #225 ) ;
#80 = AXIS2_PLACEMENT_3D ( 'NONE', #107, #100, #207 ) ;
#81 = ADVANCED_FACE ( 'NONE', ( #18 ), #88, .F. ) ;
#82 = VERTEX_POINT ( 'NONE', #190 ) ;
#83 = SURFACE_SIDE_STYLE ('',( #156 ) ) ;
#84 = DIRECTION ( 'NONE',  ( -5.442874662877122626E-17, 1.000000000000000000, -0.000000000000000000 ) ) ;
#85 = EDGE_LOOP ( 'NONE', ( #222, #201, #7, #103 ) ) ;
#86 = EDGE_CURVE ( 'NONE', #55, #37, #113, .T. ) ;
#87 =( GEOMETRIC_REPRESENTATION_CONTEXT ( 3 ) GLOBAL_UNCERTAINTY_ASSIGNED_CONTEXT ( ( #244 ) ) GLOBAL_UNIT_ASSIGNED_CONTEXT ( ( #149, #147, #124 ) ) REPRESENTATION_CONTEXT ( 'NONE', 'WORKASPACE' ) );
#88 = PLANE ( 'NONE',  #32 ) ;
#89 =( NAMED_UNIT ( * ) PLANE_ANGLE_UNIT ( ) SI_UNIT ( $, .RADIAN. ) );
#90 = STYLED_ITEM ( 'NONE', ( #116 ), #130 ) ;
#91 = CYLINDRICAL_SURFACE ( 'NONE', #252, 0.1250000000000000555 ) ;
#92 = DIRECTION ( 'NONE',  ( -5.442874662877122626E-17, 1.000000000000000000, -0.000000000000000000 ) ) ;
#93 = DIRECTION ( 'NONE',  ( -5.442874662877122010E-17, 1.000000000000000000, -0.000000000000000000 ) ) ;
#94 = AXIS2_PLACEMENT_3D ( 'NONE', #220, #170, #295 ) ;
#95 = DIRECTION ( 'NONE',  ( -0.000000000000000000, -1.000000000000000000, -0.000000000000000000 ) ) ;
#96 = ORIENTED_EDGE ( 'NONE', *, *, #288, .T. ) ;
#97 = DIRECTION ( 'NONE',  ( 0.000000000000000000, 0.000000000000000000, -1.000000000000000000 ) ) ;
#98 = ORIENTED_EDGE ( 'NONE', *, *, #189, .T. ) ;
#99 = CIRCLE ( 'NONE', #268, 0.1250000000000000000 ) ;
#100 = DIRECTION ( 'NONE',  ( -5.442874662877122626E-17, 1.000000000000000000, -0.000000000000000000 ) ) ;
#101 = FACE_OUTER_BOUND ( 'NONE', #151, .T. ) ;
#102 = DIRECTION ( 'NONE',  ( -1.000000000000000000, 0.000000000000000000, 0.000000000000000000 ) ) ;
#103 = ORIENTED_EDGE ( 'NONE', *, *, #115, .F. ) ;
#104 = LENGTH_MEASURE_WITH_UNIT ( LENGTH_MEASURE( 0.02539999999999999897 ), #78 );
#105 = SURFACE_SIDE_STYLE ('',( #79 ) ) ;
#106 = VECTOR ( 'NONE', #93, 39.37007874015748143 ) ;
#107 = CARTESIAN_POINT ( 'NONE',  ( 0.000000000000000000, 1.750000000000000000, 0.000000000000000000 ) ) ;
#108 = PRESENTATION_LAYER_ASSIGNMENT (  '', '', ( #45 ) ) ;
#109 = ORIENTED_EDGE ( 'NONE', *, *, #11, .F. ) ;
#110 = ORIENTED_EDGE ( 'NONE', *, *, #164, .T. ) ;
#111 = CARTESIAN_POINT ( 'NONE',  ( -1.224646799147352714E-16, 4.000000000000000000, 0.000000000000000000 ) ) ;
#112 = CIRCLE ( 'NONE', #166, 0.1250000000000000000 ) ;
#113 = LINE ( 'NONE', #282, #19 ) ;
#114 = SURFACE_SIDE_STYLE ('',( #162 ) ) ;
#115 = EDGE_CURVE ( 'NONE', #177, #301, #152, .T. ) ;
#116 = PRESENTATION_STYLE_ASSIGNMENT (( #165 ) ) ;
#117 = STYLED_ITEM ( 'NONE', ( #185 ), #298 ) ;
#118 =( NAMED_UNIT ( * ) SI_UNIT ( $, .STERADIAN. ) SOLID_ANGLE_UNIT ( ) );
#119 = CLOSED_SHELL ( 'NONE', ( #208, #81, #46, #221 ) ) ;
#120 = ORIENTED_EDGE ( 'NONE', *, *, #86, .F. ) ;
#121 = VECTOR ( 'NONE', #70, 39.37007874015748143 ) ;
#122 = ORIENTED_EDGE ( 'NONE', *, *, #73, .F. ) ;
#123 = PLANE ( 'NONE',  #94 ) ;
#124 =( NAMED_UNIT ( * ) SI_UNIT ( $, .STERADIAN. ) SOLID_ANGLE_UNIT ( ) );
#125 = AXIS2_PLACEMENT_3D ( 'NONE', #218, #14, #102 ) ;
#126 = VERTEX_POINT ( 'NONE', #135 ) ;
#127 = DIRECTION ( 'NONE',  ( -0.000000000000000000, -1.000000000000000000, -0.000000000000000000 ) ) ;
#128 = UNCERTAINTY_MEASURE_WITH_UNIT (LENGTH_MEASURE( 1.000000000000000082E-05 ), #275, 'distance_accuracy_value', 'NONE');
#129 = COLOUR_RGB ( '',1.000000000000000000, 0.000000000000000000, 0.000000000000000000 ) ;
#130 = ADVANCED_FACE ( 'NONE', ( #21 ), #69, .T. ) ;
#131 = DIRECTION ( 'NONE',  ( -0.000000000000000000, -1.000000000000000000, -0.000000000000000000 ) ) ;
#132 = ORIENTED_EDGE ( 'NONE', *, *, #64, .T. ) ;
#133 = SURFACE_STYLE_USAGE ( .BOTH. , #105 ) ;
#134 = UNCERTAINTY_MEASURE_WITH_UNIT (LENGTH_MEASURE( 1.000000000000000082E-05 ), #204, 'distance_accuracy_value', 'NONE');
#135 = CARTESIAN_POINT ( 'NONE',  ( 0.1250000000000000000, 1.750000000000000000, 1.530808498934192742E-17 ) ) ;
#136 = AXIS2_PLACEMENT_3D ( 'NONE', #249, #131, #202 ) ;
#137 =( CONVERSION_BASED_UNIT ( 'INCH', #47 ) LENGTH_UNIT ( ) NAMED_UNIT ( #255 ) );
#138 = EDGE_CURVE ( 'NONE', #37, #82, #112, .T. ) ;
#139 = APPLICATION_PROTOCOL_DEFINITION ( 'draft international standard', 'automotive_design', 1998, #180 ) ;
#140 = PRESENTATION_LAYER_ASSIGNMENT (  '', '', ( #117 ) ) ;
#141 = DIRECTION ( 'NONE',  ( 0.000000000000000000, 1.000000000000000000, 0.000000000000000000 ) ) ;
#142 = SURFACE_SIDE_STYLE ('',( #51 ) ) ;
#143 = ORIENTED_EDGE ( 'NONE', *, *, #1, .T. ) ;
#144 = VECTOR ( 'NONE', #240, 39.37007874015748143 ) ;
#145 =( NAMED_UNIT ( * ) PLANE_ANGLE_UNIT ( ) SI_UNIT ( $, .RADIAN. ) );
#146 = MANIFOLD_SOLID_BREP ( 'Revolve - Tool Body (Straight Shanked)', #119 ) ;
#147 =( NAMED_UNIT ( * ) PLANE_ANGLE_UNIT ( ) SI_UNIT ( $, .RADIAN. ) );
#148 = ORIENTED_EDGE ( 'NONE', *, *, #1, .F. ) ;
#149 =( CONVERSION_BASED_UNIT ( 'INCH', #54 ) LENGTH_UNIT ( ) NAMED_UNIT ( #31 ) );
#150 = PRODUCT_DEFINITION ( 'UNKNOWN', '', #58, #159 ) ;
#151 = EDGE_LOOP ( 'NONE', ( #238, #224 ) ) ;
#152 = CIRCLE ( 'NONE', #239, 0.1250000000000001110 ) ;
#153 = VERTEX_POINT ( 'NONE', #50 ) ;
#154 = LENGTH_MEASURE_WITH_UNIT ( LENGTH_MEASURE( 0.02539999999999999897 ), #302 );
#155 = SURFACE_STYLE_USAGE ( .BOTH. , #274 ) ;
#156 = SURFACE_STYLE_FILL_AREA ( #33 ) ;
#157 = PRESENTATION_STYLE_ASSIGNMENT (( #133 ) ) ;
#158 = DIRECTION ( 'NONE',  ( -5.442874662877122626E-17, 1.000000000000000000, -0.000000000000000000 ) ) ;
#159 = PRODUCT_DEFINITION_CONTEXT ( 'detailed design', #211, 'design' ) ;
#160 = CARTESIAN_POINT ( 'NONE',  ( 0.000000000000000000, 0.000000000000000000, 0.000000000000000000 ) ) ;
#161 =( CONVERSION_BASED_UNIT ( 'INCH', #307 ) LENGTH_UNIT ( ) NAMED_UNIT ( #293 ) );
#162 = SURFACE_STYLE_FILL_AREA ( #233 ) ;
#163 = PRODUCT ( '00210', '00210', '', ( #65 ) ) ;
#164 = EDGE_CURVE ( 'NONE', #55, #242, #8, .T. ) ;
#165 = SURFACE_STYLE_USAGE ( .BOTH. , #114 ) ;
#166 = AXIS2_PLACEMENT_3D ( 'NONE', #25, #243, #97 ) ;
#167 = FILL_AREA_STYLE_COLOUR ( '', #52 ) ;
#168 = PRODUCT_DEFINITION_SHAPE ( 'NONE', 'NONE',  #150 ) ;
#169 = ORIENTED_EDGE ( 'NONE', *, *, #264, .F. ) ;
#170 = DIRECTION ( 'NONE',  ( 5.442874662877122010E-17, -1.000000000000000000, 0.000000000000000000 ) ) ;
#171 =( CONVERSION_BASED_UNIT ( 'INCH', #215 ) LENGTH_UNIT ( ) NAMED_UNIT ( #4 ) );
#172 = DIMENSIONAL_EXPONENTS ( 1.000000000000000000, 0.000000000000000000, 0.000000000000000000, 0.000000000000000000, 0.000000000000000000, 0.000000000000000000, 0.000000000000000000 ) ;
#173 = EDGE_CURVE ( 'NONE', #126, #177, #237, .T. ) ;
#174 = CARTESIAN_POINT ( 'NONE',  ( 0.000000000000000000, 0.000000000000000000, -0.1250000000000000000 ) ) ;
#175 = CIRCLE ( 'NONE', #80, 0.1250000000000000000 ) ;
#176 = FILL_AREA_STYLE ('',( #76 ) ) ;
#177 = VERTEX_POINT ( 'NONE', #196 ) ;
#178 = DIMENSIONAL_EXPONENTS ( 1.000000000000000000, 0.000000000000000000, 0.000000000000000000, 0.000000000000000000, 0.000000000000000000, 0.000000000000000000, 0.000000000000000000 ) ;
#179 = CARTESIAN_POINT ( 'NONE',  ( 0.000000000000000000, 0.000000000000000000, 0.000000000000000000 ) ) ;
#180 = APPLICATION_CONTEXT ( 'automotive_design' ) ;
#181 = DIRECTION ( 'NONE',  ( 0.000000000000000000, 0.000000000000000000, -1.000000000000000000 ) ) ;
#182 = AXIS2_PLACEMENT_3D ( 'NONE', #279, #256, #308 ) ;
#183 =( NAMED_UNIT ( * ) PLANE_ANGLE_UNIT ( ) SI_UNIT ( $, .RADIAN. ) );
#184 = CYLINDRICAL_SURFACE ( 'NONE', #309, 0.1250000000000000000 ) ;
#185 = PRESENTATION_STYLE_ASSIGNMENT (( #296 ) ) ;
#186 = EDGE_LOOP ( 'NONE', ( #143, #199 ) ) ;
#187 = AXIS2_PLACEMENT_3D ( 'NONE', #28, #92, #195 ) ;
#188 = DIRECTION ( 'NONE',  ( 0.000000000000000000, 0.000000000000000000, -1.000000000000000000 ) ) ;
#189 = EDGE_CURVE ( 'NONE', #242, #82, #267, .T. ) ;
#190 = CARTESIAN_POINT ( 'NONE',  ( 0.000000000000000000, 0.000000000000000000, -0.1250000000000000000 ) ) ;
#191 = AXIS2_PLACEMENT_3D ( 'NONE', #3, #141, #235 ) ;
#192 = DIRECTION ( 'NONE',  ( 0.000000000000000000, 0.000000000000000000, -1.000000000000000000 ) ) ;
#193 = SURFACE_STYLE_FILL_AREA ( #176 ) ;
#194 =( GEOMETRIC_REPRESENTATION_CONTEXT ( 3 ) GLOBAL_UNCERTAINTY_ASSIGNED_CONTEXT ( ( #53 ) ) GLOBAL_UNIT_ASSIGNED_CONTEXT ( ( #171, #145, #118 ) ) REPRESENTATION_CONTEXT ( 'NONE', 'WORKASPACE' ) );
#195 = DIRECTION ( 'NONE',  ( -1.000000000000000000, 0.000000000000000000, 0.000000000000000000 ) ) ;
#196 = CARTESIAN_POINT ( 'NONE',  ( 0.1250000000000000000, 4.000000000000000000, 1.530808498934192742E-17 ) ) ;
#197 =( NAMED_UNIT ( * ) SI_UNIT ( $, .STERADIAN. ) SOLID_ANGLE_UNIT ( ) );
#198 = STYLED_ITEM ( 'NONE', ( #157 ), #38 ) ;
#199 = ORIENTED_EDGE ( 'NONE', *, *, #115, .T. ) ;
#200 = FILL_AREA_STYLE_COLOUR ( '', #129 ) ;
#201 = ORIENTED_EDGE ( 'NONE', *, *, #264, .T. ) ;
#202 = DIRECTION ( 'NONE',  ( 0.000000000000000000, 0.000000000000000000, -1.000000000000000000 ) ) ;
#203 = ORIENTED_EDGE ( 'NONE', *, *, #173, .T. ) ;
#204 =( CONVERSION_BASED_UNIT ( 'INCH', #104 ) LENGTH_UNIT ( ) NAMED_UNIT ( #178 ) );
#205 = SURFACE_STYLE_FILL_AREA ( #35 ) ;
#206 = MECHANICAL_DESIGN_GEOMETRIC_PRESENTATION_REPRESENTATION (  '', ( #90 ), #15 ) ;
#207 = DIRECTION ( 'NONE',  ( -1.000000000000000000, 0.000000000000000000, 0.000000000000000000 ) ) ;
#208 = ADVANCED_FACE ( 'NONE', ( #30 ), #292, .T. ) ;
#209 = EDGE_LOOP ( 'NONE', ( #132, #56, #109, #254 ) ) ;
#210 = AXIS2_PLACEMENT_3D ( 'NONE', #49, #95, #75 ) ;
#211 = APPLICATION_CONTEXT ( 'automotive_design' ) ;
#212 =( LENGTH_UNIT ( ) NAMED_UNIT ( * ) SI_UNIT ( $, .METRE. ) );
#213 = DIRECTION ( 'NONE',  ( -0.000000000000000000, -1.000000000000000000, -0.000000000000000000 ) ) ;
#214 = CARTESIAN_POINT ( 'NONE',  ( 1.851555287236859431E-34, 1.750000000000000000, 0.000000000000000000 ) ) ;
#215 = LENGTH_MEASURE_WITH_UNIT ( LENGTH_MEASURE( 0.02539999999999999897 ), #2 );
#216 = UNCERTAINTY_MEASURE_WITH_UNIT (LENGTH_MEASURE( 1.000000000000000082E-05 ), #228, 'distance_accuracy_value', 'NONE');
#217 = MECHANICAL_DESIGN_GEOMETRIC_PRESENTATION_REPRESENTATION (  '', ( #117 ), #57 ) ;
#218 = CARTESIAN_POINT ( 'NONE',  ( 0.000000000000000000, 1.750000000000000000, 0.000000000000000000 ) ) ;
#219 =( LENGTH_UNIT ( ) NAMED_UNIT ( * ) SI_UNIT ( $, .METRE. ) );
#220 = CARTESIAN_POINT ( 'NONE',  ( 0.1250000000000000000, 4.000000000000000000, 0.000000000000000000 ) ) ;
#221 = ADVANCED_FACE ( 'NONE', ( #74 ), #123, .F. ) ;
#222 = ORIENTED_EDGE ( 'NONE', *, *, #173, .F. ) ;
#223 = CARTESIAN_POINT ( 'NONE',  ( 1.530808498934191509E-17, 0.000000000000000000, 0.1250000000000000000 ) ) ;
#224 = ORIENTED_EDGE ( 'NONE', *, *, #138, .T. ) ;
#225 = FILL_AREA_STYLE ('',( #34 ) ) ;
#226 = PRESENTATION_LAYER_ASSIGNMENT (  '', '', ( #27 ) ) ;
#227 = PRESENTATION_LAYER_ASSIGNMENT (  '', '', ( #198 ) ) ;
#228 =( CONVERSION_BASED_UNIT ( 'INCH', #300 ) LENGTH_UNIT ( ) NAMED_UNIT ( #230 ) );
#229 =( LENGTH_UNIT ( ) NAMED_UNIT ( * ) SI_UNIT ( $, .METRE. ) );
#230 = DIMENSIONAL_EXPONENTS ( 1.000000000000000000, 0.000000000000000000, 0.000000000000000000, 0.000000000000000000, 0.000000000000000000, 0.000000000000000000, 0.000000000000000000 ) ;
#231 = APPLICATION_PROTOCOL_DEFINITION ( 'draft international standard', 'automotive_design', 1998, #211 ) ;
#232 = CARTESIAN_POINT ( 'NONE',  ( 1.530808498934191509E-17, 1.750000000000000000, 0.1250000000000000000 ) ) ;
#233 = FILL_AREA_STYLE ('',( #67 ) ) ;
#234 = DIRECTION ( 'NONE',  ( -5.442874662877122626E-17, 1.000000000000000000, -0.000000000000000000 ) ) ;
#235 = DIRECTION ( 'NONE',  ( 0.000000000000000000, -0.000000000000000000, 1.000000000000000000 ) ) ;
#236 = ORIENTED_EDGE ( 'NONE', *, *, #64, .F. ) ;
#237 = LINE ( 'NONE', #290, #106 ) ;
#238 = ORIENTED_EDGE ( 'NONE', *, *, #11, .T. ) ;
#239 = AXIS2_PLACEMENT_3D ( 'NONE', #43, #158, #257 ) ;
#240 = DIRECTION ( 'NONE',  ( -0.000000000000000000, -1.000000000000000000, -0.000000000000000000 ) ) ;
#241 = COLOUR_RGB ( '',1.000000000000000000, 0.000000000000000000, 0.000000000000000000 ) ;
#242 = VERTEX_POINT ( 'NONE', #72 ) ;
#243 = DIRECTION ( 'NONE',  ( -0.000000000000000000, -1.000000000000000000, -0.000000000000000000 ) ) ;
#244 = UNCERTAINTY_MEASURE_WITH_UNIT (LENGTH_MEASURE( 1.000000000000000082E-05 ), #149, 'distance_accuracy_value', 'NONE');
#245 = EDGE_LOOP ( 'NONE', ( #120, #110, #98, #265 ) ) ;
#246 = CIRCLE ( 'NONE', #125, 0.1250000000000000000 ) ;
#247 = CARTESIAN_POINT ( 'NONE',  ( -1.224646799147352714E-16, 4.000000000000000000, 0.000000000000000000 ) ) ;
#248 = MANIFOLD_SOLID_BREP ( 'Revolve - Cutting Edge', #258 ) ;
#249 = CARTESIAN_POINT ( 'NONE',  ( 0.000000000000000000, 0.000000000000000000, 0.000000000000000000 ) ) ;
#250 =( NAMED_UNIT ( * ) PLANE_ANGLE_UNIT ( ) SI_UNIT ( $, .RADIAN. ) );
#251 = PRESENTATION_STYLE_ASSIGNMENT (( #155 ) ) ;
#252 = AXIS2_PLACEMENT_3D ( 'NONE', #111, #234, #281 ) ;
#253 = AXIS2_PLACEMENT_3D ( 'NONE', #179, #271, #181 ) ;
#254 = ORIENTED_EDGE ( 'NONE', *, *, #189, .F. ) ;
#255 = DIMENSIONAL_EXPONENTS ( 1.000000000000000000, 0.000000000000000000, 0.000000000000000000, 0.000000000000000000, 0.000000000000000000, 0.000000000000000000, 0.000000000000000000 ) ;
#256 = DIRECTION ( 'NONE',  ( 0.000000000000000000, 0.000000000000000000, 1.000000000000000000 ) ) ;
#257 = DIRECTION ( 'NONE',  ( -1.000000000000000000, 0.000000000000000000, 0.000000000000000000 ) ) ;
#258 = CLOSED_SHELL ( 'NONE', ( #298, #130, #42, #38 ) ) ;
#259 = DIRECTION ( 'NONE',  ( -0.000000000000000000, -1.000000000000000000, -0.000000000000000000 ) ) ;
#260 = PRESENTATION_LAYER_ASSIGNMENT (  '', '', ( #90 ) ) ;
#261 =( NAMED_UNIT ( * ) PLANE_ANGLE_UNIT ( ) SI_UNIT ( $, .RADIAN. ) );
#262 = AXIS2_PLACEMENT_3D ( 'NONE', #276, #127, #40 ) ;
#263 =( GEOMETRIC_REPRESENTATION_CONTEXT ( 3 ) GLOBAL_UNCERTAINTY_ASSIGNED_CONTEXT ( ( #61 ) ) GLOBAL_UNIT_ASSIGNED_CONTEXT ( ( #137, #89, #41 ) ) REPRESENTATION_CONTEXT ( 'NONE', 'WORKASPACE' ) );
#264 = EDGE_CURVE ( 'NONE', #126, #153, #246, .T. ) ;
#265 = ORIENTED_EDGE ( 'NONE', *, *, #138, .F. ) ;
#266 = FILL_AREA_STYLE ('',( #167 ) ) ;
#267 = LINE ( 'NONE', #174, #144 ) ;
#268 = AXIS2_PLACEMENT_3D ( 'NONE', #305, #213, #192 ) ;
#269 = SURFACE_SIDE_STYLE ('',( #193 ) ) ;
#270 = EDGE_LOOP ( 'NONE', ( #96, #203, #148, #122 ) ) ;
#271 = DIRECTION ( 'NONE',  ( 0.000000000000000000, -1.000000000000000000, -0.000000000000000000 ) ) ;
#272 = EDGE_LOOP ( 'NONE', ( #29, #169 ) ) ;
#273 = MECHANICAL_DESIGN_GEOMETRIC_PRESENTATION_REPRESENTATION (  '', ( #198 ), #20 ) ;
#274 = SURFACE_SIDE_STYLE ('',( #205 ) ) ;
#275 =( CONVERSION_BASED_UNIT ( 'INCH', #154 ) LENGTH_UNIT ( ) NAMED_UNIT ( #172 ) );
#276 = CARTESIAN_POINT ( 'NONE',  ( 0.000000000000000000, 0.000000000000000000, 0.000000000000000000 ) ) ;
#277 = CIRCLE ( 'NONE', #6, 0.1250000000000001110 ) ;
#278 = PRESENTATION_LAYER_ASSIGNMENT (  '', '', ( #294 ) ) ;
#279 = CARTESIAN_POINT ( 'NONE',  ( 0.000000000000000000, 0.000000000000000000, 0.000000000000000000 ) ) ;
#280 = DIRECTION ( 'NONE',  ( -5.442874662877122010E-17, 1.000000000000000000, 0.000000000000000000 ) ) ;
#281 = DIRECTION ( 'NONE',  ( -1.000000000000000000, 0.000000000000000000, 0.000000000000000000 ) ) ;
#282 = CARTESIAN_POINT ( 'NONE',  ( 1.530808498934191509E-17, 0.000000000000000000, 0.1250000000000000000 ) ) ;
#283 = PRODUCT_RELATED_PRODUCT_CATEGORY ( 'part', '', ( #163 ) ) ;
#284 = COLOUR_RGB ( '',0.7921568627450980005, 0.8196078431372548767, 0.9333333333333333481 ) ;
#285 = MECHANICAL_DESIGN_GEOMETRIC_PRESENTATION_REPRESENTATION (  '', ( #45 ), #263 ) ;
#286 = LINE ( 'NONE', #22, #121 ) ;
#287 = DIRECTION ( 'NONE',  ( -1.000000000000000000, -5.442874662877122010E-17, 0.000000000000000000 ) ) ;
#288 = EDGE_CURVE ( 'NONE', #153, #126, #175, .T. ) ;
#289 = PRESENTATION_STYLE_ASSIGNMENT (( #24 ) ) ;
#290 = CARTESIAN_POINT ( 'NONE',  ( 0.1249999999999999445, 4.000000000000000000, 1.530808498934192125E-17 ) ) ;
#291 = UNCERTAINTY_MEASURE_WITH_UNIT (LENGTH_MEASURE( 1.000000000000000082E-05 ), #161, 'distance_accuracy_value', 'NONE');
#292 = CYLINDRICAL_SURFACE ( 'NONE', #187, 0.1250000000000000555 ) ;
#293 = DIMENSIONAL_EXPONENTS ( 1.000000000000000000, 0.000000000000000000, 0.000000000000000000, 0.000000000000000000, 0.000000000000000000, 0.000000000000000000, 0.000000000000000000 ) ;
#294 = STYLED_ITEM ( 'NONE', ( #289 ), #146 ) ;
#295 = DIRECTION ( 'NONE',  ( 1.000000000000000000, 5.442874662877122010E-17, 0.000000000000000000 ) ) ;
#296 = SURFACE_STYLE_USAGE ( .BOTH. , #83 ) ;
#297 =( LENGTH_UNIT ( ) NAMED_UNIT ( * ) SI_UNIT ( $, .METRE. ) );
#298 = ADVANCED_FACE ( 'NONE', ( #9 ), #12, .T. ) ;
#299 = CARTESIAN_POINT ( 'NONE',  ( -0.1250000000000002498, 4.000000000000000000, 0.000000000000000000 ) ) ;
#300 = LENGTH_MEASURE_WITH_UNIT ( LENGTH_MEASURE( 0.02539999999999999897 ), #297 );
#301 = VERTEX_POINT ( 'NONE', #299 ) ;
#302 =( LENGTH_UNIT ( ) NAMED_UNIT ( * ) SI_UNIT ( $, .METRE. ) );
#303 = EDGE_LOOP ( 'NONE', ( #236, #62 ) ) ;
#304 = CIRCLE ( 'NONE', #262, 0.1250000000000000000 ) ;
#305 = CARTESIAN_POINT ( 'NONE',  ( 0.000000000000000000, 1.750000000000000000, 0.000000000000000000 ) ) ;
#306 = COLOUR_RGB ( '',1.000000000000000000, 0.000000000000000000, 0.000000000000000000 ) ;
#307 = LENGTH_MEASURE_WITH_UNIT ( LENGTH_MEASURE( 0.02539999999999999897 ), #212 );
#308 = DIRECTION ( 'NONE',  ( 1.000000000000000000, 0.000000000000000000, 0.000000000000000000 ) ) ;
#309 = AXIS2_PLACEMENT_3D ( 'NONE', #160, #259, #188 ) ;
ENDSEC;
END-ISO-10303-21;
