ISO-10303-21;
HEADER;
FILE_DESCRIPTION (( 'STEP AP214' ),
    '1' );
FILE_NAME ('49301.STEP',
    '2023-06-30T22:00:25',
    ( '' ),
    ( '' ),
    'SwSTEP 2.0',
    'SolidWorks 2023',
    '' );
FILE_SCHEMA (( 'AUTOMOTIVE_DESIGN' ));
ENDSEC;

DATA;
#1 = DIRECTION ( 'NONE',  ( -1.000000000000000000, 0.000000000000000000, 0.000000000000000000 ) ) ;
#2 = STYLED_ITEM ( 'NONE', ( #196 ), #274 ) ;
#3 = AXIS2_PLACEMENT_3D ( 'NONE', #77, #300, #305 ) ;
#4 = CARTESIAN_POINT ( 'NONE',  ( -3.061616997868383018E-17, 0.2500000000000000000, 0.000000000000000000 ) ) ;
#5 = SPHERICAL_SURFACE ( 'NONE', #243, 0.2500000000000000000 ) ;
#6 = PRESENTATION_LAYER_ASSIGNMENT (  '', '', ( #263 ) ) ;
#7 =( CONVERSION_BASED_UNIT ( 'INCH', #10 ) LENGTH_UNIT ( ) NAMED_UNIT ( #164 ) );
#8 = EDGE_CURVE ( 'NONE', #367, #31, #44, .T. ) ;
#9 = ORIENTED_EDGE ( 'NONE', *, *, #287, .T. ) ;
#10 = LENGTH_MEASURE_WITH_UNIT ( LENGTH_MEASURE( 0.02539999999999999897 ), #350 );
#11 = ORIENTED_EDGE ( 'NONE', *, *, #176, .F. ) ;
#12 = CARTESIAN_POINT ( 'NONE',  ( -1.224646799147352714E-16, 4.000000000000000000, 0.000000000000000000 ) ) ;
#13 = SURFACE_STYLE_USAGE ( .BOTH. , #210 ) ;
#14 = FACE_OUTER_BOUND ( 'NONE', #140, .T. ) ;
#15 = DIMENSIONAL_EXPONENTS ( 1.000000000000000000, 0.000000000000000000, 0.000000000000000000, 0.000000000000000000, 0.000000000000000000, 0.000000000000000000, 0.000000000000000000 ) ;
#16 = FILL_AREA_STYLE ('',( #21 ) ) ;
#17 = DIRECTION ( 'NONE',  ( 0.000000000000000000, 1.000000000000000000, 0.000000000000000000 ) ) ;
#18 = DIRECTION ( 'NONE',  ( -0.000000000000000000, -1.000000000000000000, -0.000000000000000000 ) ) ;
#19 = APPLICATION_PROTOCOL_DEFINITION ( 'draft international standard', 'automotive_design', 1998, #354 ) ;
#20 = EDGE_CURVE ( 'NONE', #312, #114, #308, .T. ) ;
#21 = FILL_AREA_STYLE_COLOUR ( '', #289 ) ;
#22 =( GEOMETRIC_REPRESENTATION_CONTEXT ( 3 ) GLOBAL_UNCERTAINTY_ASSIGNED_CONTEXT ( ( #314 ) ) GLOBAL_UNIT_ASSIGNED_CONTEXT ( ( #349, #269, #327 ) ) REPRESENTATION_CONTEXT ( 'NONE', 'WORKASPACE' ) );
#23 = CARTESIAN_POINT ( 'NONE',  ( 0.000000000000000000, 0.000000000000000000, 0.000000000000000000 ) ) ;
#24 = SURFACE_STYLE_USAGE ( .BOTH. , #290 ) ;
#25 = ORIENTED_EDGE ( 'NONE', *, *, #176, .T. ) ;
#26 = DIMENSIONAL_EXPONENTS ( 1.000000000000000000, 0.000000000000000000, 0.000000000000000000, 0.000000000000000000, 0.000000000000000000, 0.000000000000000000, 0.000000000000000000 ) ;
#27 = ORIENTED_EDGE ( 'NONE', *, *, #365, .T. ) ;
#28 = COLOUR_RGB ( '',1.000000000000000000, 0.000000000000000000, 0.000000000000000000 ) ;
#29 = DIRECTION ( 'NONE',  ( -0.000000000000000000, -1.000000000000000000, -0.000000000000000000 ) ) ;
#30 = VERTEX_POINT ( 'NONE', #209 ) ;
#31 = VERTEX_POINT ( 'NONE', #270 ) ;
#32 = LINE ( 'NONE', #372, #92 ) ;
#33 = ORIENTED_EDGE ( 'NONE', *, *, #137, .T. ) ;
#34 = STYLED_ITEM ( 'NONE', ( #331 ), #212 ) ;
#35 = PRESENTATION_LAYER_ASSIGNMENT (  '', '', ( #40 ) ) ;
#36 = SURFACE_STYLE_FILL_AREA ( #38 ) ;
#37 =( NAMED_UNIT ( * ) PLANE_ANGLE_UNIT ( ) SI_UNIT ( $, .RADIAN. ) );
#38 = FILL_AREA_STYLE ('',( #95 ) ) ;
#39 = COLOUR_RGB ( '',1.000000000000000000, 0.000000000000000000, 0.000000000000000000 ) ;
#40 = STYLED_ITEM ( 'NONE', ( #276 ), #357 ) ;
#41 = SURFACE_STYLE_FILL_AREA ( #299 ) ;
#42 = CIRCLE ( 'NONE', #154, 0.2499999999999998335 ) ;
#43 = CARTESIAN_POINT ( 'NONE',  ( 0.000000000000000000, 1.625000000000000000, -0.2499999999999998335 ) ) ;
#44 = CIRCLE ( 'NONE', #79, 0.2499999999999996669 ) ;
#45 = CARTESIAN_POINT ( 'NONE',  ( -1.530808498934191509E-17, 0.000000000000000000, 0.000000000000000000 ) ) ;
#46 = EDGE_CURVE ( 'NONE', #114, #261, #48, .T. ) ;
#47 = SURFACE_SIDE_STYLE ('',( #41 ) ) ;
#48 = CIRCLE ( 'NONE', #167, 0.2500000000000000000 ) ;
#49 = PRODUCT_DEFINITION_CONTEXT ( 'detailed design', #59, 'design' ) ;
#50 = CARTESIAN_POINT ( 'NONE',  ( 0.000000000000000000, 1.625000000000000000, 0.000000000000000000 ) ) ;
#51 = CARTESIAN_POINT ( 'NONE',  ( 0.000000000000000000, 0.000000000000000000, 0.000000000000000000 ) ) ;
#52 = ORIENTED_EDGE ( 'NONE', *, *, #315, .F. ) ;
#53 = STYLED_ITEM ( 'NONE', ( #116 ), #328 ) ;
#54 = EDGE_LOOP ( 'NONE', ( #199, #33, #52, #341 ) ) ;
#55 = SPHERICAL_SURFACE ( 'NONE', #61, 0.2500000000000000000 ) ;
#56 = ORIENTED_EDGE ( 'NONE', *, *, #315, .T. ) ;
#57 = DIRECTION ( 'NONE',  ( -1.000000000000000000, 0.000000000000000000, 0.000000000000000000 ) ) ;
#58 = MANIFOLD_SOLID_BREP ( 'Revolve - Cutting Edge', #106 ) ;
#59 = APPLICATION_CONTEXT ( 'automotive_design' ) ;
#60 = ADVANCED_FACE ( 'NONE', ( #152 ), #326, .T. ) ;
#61 = AXIS2_PLACEMENT_3D ( 'NONE', #343, #369, #260 ) ;
#62 = MECHANICAL_DESIGN_GEOMETRIC_PRESENTATION_REPRESENTATION (  '', ( #40 ), #330 ) ;
#63 = CARTESIAN_POINT ( 'NONE',  ( -1.224646799147352714E-16, 4.000000000000000000, 0.000000000000000000 ) ) ;
#64 = FILL_AREA_STYLE ('',( #207 ) ) ;
#65 = CARTESIAN_POINT ( 'NONE',  ( 0.000000000000000000, 0.2500000000000000555, -0.2500000000000000000 ) ) ;
#66 = AXIS2_PLACEMENT_3D ( 'NONE', #345, #29, #163 ) ;
#67 = COLOUR_RGB ( '',0.7921568627450980005, 0.8196078431372548767, 0.9333333333333333481 ) ;
#68 = SURFACE_SIDE_STYLE ('',( #36 ) ) ;
#69 =( NAMED_UNIT ( * ) PLANE_ANGLE_UNIT ( ) SI_UNIT ( $, .RADIAN. ) );
#70 =( CONVERSION_BASED_UNIT ( 'INCH', #186 ) LENGTH_UNIT ( ) NAMED_UNIT ( #361 ) );
#71 = DIRECTION ( 'NONE',  ( -1.224646799147353207E-16, 1.000000000000000000, 0.000000000000000000 ) ) ;
#72 = DIMENSIONAL_EXPONENTS ( 1.000000000000000000, 0.000000000000000000, 0.000000000000000000, 0.000000000000000000, 0.000000000000000000, 0.000000000000000000, 0.000000000000000000 ) ;
#73 =( GEOMETRIC_REPRESENTATION_CONTEXT ( 3 ) GLOBAL_UNCERTAINTY_ASSIGNED_CONTEXT ( ( #165 ) ) GLOBAL_UNIT_ASSIGNED_CONTEXT ( ( #131, #189, #283 ) ) REPRESENTATION_CONTEXT ( 'NONE', 'WORKASPACE' ) );
#74 = MECHANICAL_DESIGN_GEOMETRIC_PRESENTATION_REPRESENTATION (  '', ( #53 ), #180 ) ;
#75 = CYLINDRICAL_SURFACE ( 'NONE', #266, 0.2499999999999998057 ) ;
#76 = CARTESIAN_POINT ( 'NONE',  ( 1.683889348827610752E-16, 1.625000000000000000, 0.000000000000000000 ) ) ;
#77 = CARTESIAN_POINT ( 'NONE',  ( 1.683889348827610999E-16, 1.625000000000000000, 0.000000000000000000 ) ) ;
#78 = CARTESIAN_POINT ( 'NONE',  ( 3.061616997868383018E-17, 0.2500000000000000555, 0.2500000000000000000 ) ) ;
#79 = AXIS2_PLACEMENT_3D ( 'NONE', #88, #241, #1 ) ;
#80 = ORIENTED_EDGE ( 'NONE', *, *, #303, .T. ) ;
#81 = ADVANCED_FACE ( 'NONE', ( #175 ), #292, .F. ) ;
#82 =( LENGTH_UNIT ( ) NAMED_UNIT ( * ) SI_UNIT ( $, .METRE. ) );
#83 = VERTEX_POINT ( 'NONE', #153 ) ;
#84 = DIRECTION ( 'NONE',  ( -0.000000000000000000, -1.000000000000000000, -0.000000000000000000 ) ) ;
#85 = CARTESIAN_POINT ( 'NONE',  ( 0.000000000000000000, 0.2500000000000000555, 0.000000000000000000 ) ) ;
#86 = ORIENTED_EDGE ( 'NONE', *, *, #219, .F. ) ;
#87 = MECHANICAL_DESIGN_GEOMETRIC_PRESENTATION_REPRESENTATION (  '', ( #248 ), #256 ) ;
#88 = CARTESIAN_POINT ( 'NONE',  ( 1.683889348827610999E-16, 1.625000000000000000, 0.000000000000000000 ) ) ;
#89 = CARTESIAN_POINT ( 'NONE',  ( -3.061616997868383018E-17, 0.2500000000000000000, 0.000000000000000000 ) ) ;
#90 = ORIENTED_EDGE ( 'NONE', *, *, #321, .F. ) ;
#91 =( LENGTH_UNIT ( ) NAMED_UNIT ( * ) SI_UNIT ( $, .METRE. ) );
#92 = VECTOR ( 'NONE', #228, 39.37007874015748143 ) ;
#93 = PLANE ( 'NONE',  #236 ) ;
#94 = DIRECTION ( 'NONE',  ( 0.000000000000000000, 0.000000000000000000, -1.000000000000000000 ) ) ;
#95 = FILL_AREA_STYLE_COLOUR ( '', #67 ) ;
#96 = CARTESIAN_POINT ( 'NONE',  ( 0.000000000000000000, 0.2500000000000000555, 0.000000000000000000 ) ) ;
#97 = CARTESIAN_POINT ( 'NONE',  ( -0.2499999999999994726, 1.625000000000000000, 0.000000000000000000 ) ) ;
#98 = PRODUCT ( '49301', '49301', '', ( #157 ) ) ;
#99 = DIRECTION ( 'NONE',  ( -0.000000000000000000, -1.000000000000000000, -0.000000000000000000 ) ) ;
#100 = DIRECTION ( 'NONE',  ( 1.000000000000000000, 0.000000000000000000, 0.000000000000000000 ) ) ;
#101 = PRESENTATION_STYLE_ASSIGNMENT (( #362 ) ) ;
#102 = DIRECTION ( 'NONE',  ( -1.224646799147353207E-16, 1.000000000000000000, -0.000000000000000000 ) ) ;
#103 = ORIENTED_EDGE ( 'NONE', *, *, #46, .T. ) ;
#104 =( GEOMETRIC_REPRESENTATION_CONTEXT ( 3 ) GLOBAL_UNCERTAINTY_ASSIGNED_CONTEXT ( ( #188 ) ) GLOBAL_UNIT_ASSIGNED_CONTEXT ( ( #168, #318, #311 ) ) REPRESENTATION_CONTEXT ( 'NONE', 'WORKASPACE' ) );
#105 = PRESENTATION_LAYER_ASSIGNMENT (  '', '', ( #347 ) ) ;
#106 = CLOSED_SHELL ( 'NONE', ( #328, #212, #357, #214, #274 ) ) ;
#107 = UNCERTAINTY_MEASURE_WITH_UNIT (LENGTH_MEASURE( 1.000000000000000082E-05 ), #150, 'distance_accuracy_value', 'NONE');
#108 = DIMENSIONAL_EXPONENTS ( 1.000000000000000000, 0.000000000000000000, 0.000000000000000000, 0.000000000000000000, 0.000000000000000000, 0.000000000000000000, 0.000000000000000000 ) ;
#109 = ORIENTED_EDGE ( 'NONE', *, *, #234, .F. ) ;
#110 = EDGE_LOOP ( 'NONE', ( #109, #218 ) ) ;
#111 = EDGE_CURVE ( 'NONE', #367, #291, #336, .T. ) ;
#112 = ORIENTED_EDGE ( 'NONE', *, *, #217, .T. ) ;
#113 = FACE_OUTER_BOUND ( 'NONE', #205, .T. ) ;
#114 = VERTEX_POINT ( 'NONE', #332 ) ;
#115 = PRESENTATION_STYLE_ASSIGNMENT (( #178 ) ) ;
#116 = PRESENTATION_STYLE_ASSIGNMENT (( #323 ) ) ;
#117 = AXIS2_PLACEMENT_3D ( 'NONE', #89, #201, #322 ) ;
#118 = MECHANICAL_DESIGN_GEOMETRIC_PRESENTATION_REPRESENTATION (  '', ( #2 ), #104 ) ;
#119 = SURFACE_SIDE_STYLE ('',( #145 ) ) ;
#120 = VERTEX_POINT ( 'NONE', #43 ) ;
#121 =( LENGTH_UNIT ( ) NAMED_UNIT ( * ) SI_UNIT ( $, .METRE. ) );
#122 = SHAPE_DEFINITION_REPRESENTATION ( #245, #259 ) ;
#123 = PLANE ( 'NONE',  #179 ) ;
#124 = EDGE_CURVE ( 'NONE', #83, #120, #42, .T. ) ;
#125 = APPLICATION_PROTOCOL_DEFINITION ( 'draft international standard', 'automotive_design', 1998, #59 ) ;
#126 = LENGTH_MEASURE_WITH_UNIT ( LENGTH_MEASURE( 0.02539999999999999897 ), #211 );
#127 = LENGTH_MEASURE_WITH_UNIT ( LENGTH_MEASURE( 0.02539999999999999897 ), #335 );
#128 = SURFACE_STYLE_FILL_AREA ( #16 ) ;
#129 = MECHANICAL_DESIGN_GEOMETRIC_PRESENTATION_REPRESENTATION (  '', ( #34 ), #73 ) ;
#130 =( CONVERSION_BASED_UNIT ( 'INCH', #127 ) LENGTH_UNIT ( ) NAMED_UNIT ( #72 ) );
#131 =( CONVERSION_BASED_UNIT ( 'INCH', #126 ) LENGTH_UNIT ( ) NAMED_UNIT ( #222 ) );
#132 = LINE ( 'NONE', #213, #294 ) ;
#133 = ORIENTED_EDGE ( 'NONE', *, *, #287, .F. ) ;
#134 = VERTEX_POINT ( 'NONE', #45 ) ;
#135 = DIRECTION ( 'NONE',  ( 0.000000000000000000, 0.000000000000000000, -1.000000000000000000 ) ) ;
#136 = COLOUR_RGB ( '',1.000000000000000000, 0.000000000000000000, 0.000000000000000000 ) ;
#137 = EDGE_CURVE ( 'NONE', #31, #30, #132, .T. ) ;
#138 = DIRECTION ( 'NONE',  ( 0.000000000000000000, 0.000000000000000000, -1.000000000000000000 ) ) ;
#139 = ORIENTED_EDGE ( 'NONE', *, *, #321, .T. ) ;
#140 = EDGE_LOOP ( 'NONE', ( #190, #170 ) ) ;
#141 = ADVANCED_FACE ( 'NONE', ( #301 ), #75, .T. ) ;
#142 = DIRECTION ( 'NONE',  ( 0.000000000000000000, 0.000000000000000000, -1.000000000000000000 ) ) ;
#143 = AXIS2_PLACEMENT_3D ( 'NONE', #12, #147, #57 ) ;
#144 = MECHANICAL_DESIGN_GEOMETRIC_PRESENTATION_REPRESENTATION (  '', ( #347 ), #22 ) ;
#145 = SURFACE_STYLE_FILL_AREA ( #177 ) ;
#146 =( NAMED_UNIT ( * ) SI_UNIT ( $, .STERADIAN. ) SOLID_ANGLE_UNIT ( ) );
#147 = DIRECTION ( 'NONE',  ( -1.224646799147353207E-16, 1.000000000000000000, -0.000000000000000000 ) ) ;
#148 = AXIS2_PLACEMENT_3D ( 'NONE', #306, #364, #183 ) ;
#149 = DIRECTION ( 'NONE',  ( 1.224646799147353207E-16, -0.000000000000000000, 1.000000000000000000 ) ) ;
#150 =( CONVERSION_BASED_UNIT ( 'INCH', #238 ) LENGTH_UNIT ( ) NAMED_UNIT ( #26 ) );
#151 = DIRECTION ( 'NONE',  ( 0.000000000000000000, 0.000000000000000000, 1.000000000000000000 ) ) ;
#152 = FACE_OUTER_BOUND ( 'NONE', #54, .T. ) ;
#153 = CARTESIAN_POINT ( 'NONE',  ( 3.061616997868381785E-17, 1.625000000000000000, 0.2499999999999998335 ) ) ;
#154 = AXIS2_PLACEMENT_3D ( 'NONE', #216, #18, #272 ) ;
#155 = CARTESIAN_POINT ( 'NONE',  ( 0.000000000000000000, 1.625000000000000000, 0.000000000000000000 ) ) ;
#156 = CARTESIAN_POINT ( 'NONE',  ( -1.224646799147352714E-16, 4.000000000000000000, 0.000000000000000000 ) ) ;
#157 = PRODUCT_CONTEXT ( 'NONE', #354, 'mechanical' ) ;
#158 = DIRECTION ( 'NONE',  ( 0.000000000000000000, 0.000000000000000000, -1.000000000000000000 ) ) ;
#159 = DIRECTION ( 'NONE',  ( 1.000000000000000000, 1.224646799147353207E-16, 0.000000000000000000 ) ) ;
#160 = ADVANCED_FACE ( 'NONE', ( #14 ), #123, .F. ) ;
#161 = DIRECTION ( 'NONE',  ( -1.224646799147353207E-16, 1.000000000000000000, -0.000000000000000000 ) ) ;
#162 = CLOSED_SHELL ( 'NONE', ( #60, #160, #141, #81 ) ) ;
#163 = DIRECTION ( 'NONE',  ( 0.000000000000000000, 0.000000000000000000, -1.000000000000000000 ) ) ;
#164 = DIMENSIONAL_EXPONENTS ( 1.000000000000000000, 0.000000000000000000, 0.000000000000000000, 0.000000000000000000, 0.000000000000000000, 0.000000000000000000, 0.000000000000000000 ) ;
#165 = UNCERTAINTY_MEASURE_WITH_UNIT (LENGTH_MEASURE( 1.000000000000000082E-05 ), #131, 'distance_accuracy_value', 'NONE');
#166 = ORIENTED_EDGE ( 'NONE', *, *, #111, .T. ) ;
#167 = AXIS2_PLACEMENT_3D ( 'NONE', #96, #295, #320 ) ;
#168 =( CONVERSION_BASED_UNIT ( 'INCH', #313 ) LENGTH_UNIT ( ) NAMED_UNIT ( #15 ) );
#169 = AXIS2_PLACEMENT_3D ( 'NONE', #4, #149, #239 ) ;
#170 = ORIENTED_EDGE ( 'NONE', *, *, #365, .F. ) ;
#171 = LENGTH_MEASURE_WITH_UNIT ( LENGTH_MEASURE( 0.02539999999999999897 ), #82 );
#172 = EDGE_LOOP ( 'NONE', ( #90, #319, #9, #86, #371 ) ) ;
#173 = CIRCLE ( 'NONE', #282, 0.2500000000000000000 ) ;
#174 = DIRECTION ( 'NONE',  ( -1.224646799147353207E-16, 1.000000000000000000, -0.000000000000000000 ) ) ;
#175 = FACE_OUTER_BOUND ( 'NONE', #344, .T. ) ;
#176 = EDGE_CURVE ( 'NONE', #30, #291, #363, .T. ) ;
#177 = FILL_AREA_STYLE ('',( #265 ) ) ;
#178 = SURFACE_STYLE_USAGE ( .BOTH. , #355 ) ;
#179 = AXIS2_PLACEMENT_3D ( 'NONE', #76, #71, #338 ) ;
#180 =( GEOMETRIC_REPRESENTATION_CONTEXT ( 3 ) GLOBAL_UNCERTAINTY_ASSIGNED_CONTEXT ( ( #252 ) ) GLOBAL_UNIT_ASSIGNED_CONTEXT ( ( #7, #37, #146 ) ) REPRESENTATION_CONTEXT ( 'NONE', 'WORKASPACE' ) );
#181 = DIRECTION ( 'NONE',  ( -0.000000000000000000, -1.000000000000000000, -0.000000000000000000 ) ) ;
#182 = SURFACE_STYLE_FILL_AREA ( #325 ) ;
#183 = DIRECTION ( 'NONE',  ( -1.000000000000000000, 0.000000000000000000, 0.000000000000000000 ) ) ;
#184 = DIRECTION ( 'NONE',  ( 0.000000000000000000, -0.000000000000000000, 1.000000000000000000 ) ) ;
#185 = VECTOR ( 'NONE', #102, 39.37007874015748143 ) ;
#186 = LENGTH_MEASURE_WITH_UNIT ( LENGTH_MEASURE( 0.02539999999999999897 ), #215 );
#187 = SURFACE_STYLE_USAGE ( .BOTH. , #244 ) ;
#188 = UNCERTAINTY_MEASURE_WITH_UNIT (LENGTH_MEASURE( 1.000000000000000082E-05 ), #168, 'distance_accuracy_value', 'NONE');
#189 =( NAMED_UNIT ( * ) PLANE_ANGLE_UNIT ( ) SI_UNIT ( $, .RADIAN. ) );
#190 = ORIENTED_EDGE ( 'NONE', *, *, #8, .F. ) ;
#191 = MECHANICAL_DESIGN_GEOMETRIC_PRESENTATION_REPRESENTATION (  '', ( #263 ), #288 ) ;
#192 = CIRCLE ( 'NONE', #198, 0.2499999999999999722 ) ;
#193 = FILL_AREA_STYLE ('',( #194 ) ) ;
#194 = FILL_AREA_STYLE_COLOUR ( '', #136 ) ;
#195 = EDGE_LOOP ( 'NONE', ( #226, #139, #310, #254, #133 ) ) ;
#196 = PRESENTATION_STYLE_ASSIGNMENT (( #24 ) ) ;
#197 =( NAMED_UNIT ( * ) SI_UNIT ( $, .STERADIAN. ) SOLID_ANGLE_UNIT ( ) );
#198 = AXIS2_PLACEMENT_3D ( 'NONE', #63, #174, #352 ) ;
#199 = ORIENTED_EDGE ( 'NONE', *, *, #8, .T. ) ;
#200 = ORIENTED_EDGE ( 'NONE', *, *, #20, .T. ) ;
#201 = DIRECTION ( 'NONE',  ( 0.000000000000000000, 0.000000000000000000, -1.000000000000000000 ) ) ;
#202 = CARTESIAN_POINT ( 'NONE',  ( 3.061616997868382402E-17, 0.000000000000000000, 0.2499999999999999167 ) ) ;
#203 = AXIS2_PLACEMENT_3D ( 'NONE', #230, #181, #94 ) ;
#204 = FILL_AREA_STYLE_COLOUR ( '', #28 ) ;
#205 = EDGE_LOOP ( 'NONE', ( #307, #373, #200, #262 ) ) ;
#206 = LENGTH_MEASURE_WITH_UNIT ( LENGTH_MEASURE( 0.02539999999999999897 ), #91 );
#207 = FILL_AREA_STYLE_COLOUR ( '', #368 ) ;
#208 = AXIS2_PLACEMENT_3D ( 'NONE', #359, #278, #100 ) ;
#209 = CARTESIAN_POINT ( 'NONE',  ( 0.2499999999999998335, 4.000000000000000000, 3.061616997868381785E-17 ) ) ;
#210 = SURFACE_SIDE_STYLE ('',( #182 ) ) ;
#211 =( LENGTH_UNIT ( ) NAMED_UNIT ( * ) SI_UNIT ( $, .METRE. ) );
#212 = ADVANCED_FACE ( 'NONE', ( #277 ), #360, .T. ) ;
#213 = CARTESIAN_POINT ( 'NONE',  ( 0.2499999999999996669, 4.000000000000000000, 3.061616997868380553E-17 ) ) ;
#214 = ADVANCED_FACE ( 'NONE', ( #366 ), #247, .T. ) ;
#215 =( LENGTH_UNIT ( ) NAMED_UNIT ( * ) SI_UNIT ( $, .METRE. ) );
#216 = CARTESIAN_POINT ( 'NONE',  ( 0.000000000000000000, 1.625000000000000000, 0.000000000000000000 ) ) ;
#217 = EDGE_CURVE ( 'NONE', #261, #225, #227, .T. ) ;
#218 = ORIENTED_EDGE ( 'NONE', *, *, #124, .F. ) ;
#219 = EDGE_CURVE ( 'NONE', #225, #312, #173, .T. ) ;
#220 = COLOUR_RGB ( '',1.000000000000000000, 0.000000000000000000, 0.000000000000000000 ) ;
#221 =( NAMED_UNIT ( * ) PLANE_ANGLE_UNIT ( ) SI_UNIT ( $, .RADIAN. ) );
#222 = DIMENSIONAL_EXPONENTS ( 1.000000000000000000, 0.000000000000000000, 0.000000000000000000, 0.000000000000000000, 0.000000000000000000, 0.000000000000000000, 0.000000000000000000 ) ;
#223 = UNCERTAINTY_MEASURE_WITH_UNIT (LENGTH_MEASURE( 1.000000000000000082E-05 ), #70, 'distance_accuracy_value', 'NONE');
#224 = CARTESIAN_POINT ( 'NONE',  ( -0.2500000000000000000, 0.2500000000000000555, 3.061616997868382402E-17 ) ) ;
#225 = VERTEX_POINT ( 'NONE', #224 ) ;
#226 = ORIENTED_EDGE ( 'NONE', *, *, #234, .T. ) ;
#227 = CIRCLE ( 'NONE', #66, 0.2500000000000000000 ) ;
#228 = DIRECTION ( 'NONE',  ( -0.000000000000000000, -1.000000000000000000, -0.000000000000000000 ) ) ;
#229 = PRESENTATION_LAYER_ASSIGNMENT (  '', '', ( #53 ) ) ;
#230 = CARTESIAN_POINT ( 'NONE',  ( 0.000000000000000000, 0.2500000000000000555, 0.000000000000000000 ) ) ;
#231 = DIRECTION ( 'NONE',  ( 1.000000000000000000, 0.000000000000000000, 0.000000000000000000 ) ) ;
#232 = PRODUCT_RELATED_PRODUCT_CATEGORY ( 'part', '', ( #98 ) ) ;
#233 = FACE_OUTER_BOUND ( 'NONE', #110, .T. ) ;
#234 = EDGE_CURVE ( 'NONE', #120, #83, #235, .T. ) ;
#235 = CIRCLE ( 'NONE', #329, 0.2499999999999998335 ) ;
#236 = AXIS2_PLACEMENT_3D ( 'NONE', #155, #17, #184 ) ;
#237 = PRESENTATION_STYLE_ASSIGNMENT (( #293 ) ) ;
#238 = LENGTH_MEASURE_WITH_UNIT ( LENGTH_MEASURE( 0.02539999999999999897 ), #121 );
#239 = DIRECTION ( 'NONE',  ( 1.000000000000000000, 0.000000000000000000, -1.224646799147353207E-16 ) ) ;
#240 = SURFACE_STYLE_FILL_AREA ( #64 ) ;
#241 = DIRECTION ( 'NONE',  ( -1.224646799147353207E-16, 1.000000000000000000, -0.000000000000000000 ) ) ;
#242 = PRESENTATION_LAYER_ASSIGNMENT (  '', '', ( #248 ) ) ;
#243 = AXIS2_PLACEMENT_3D ( 'NONE', #296, #151, #231 ) ;
#244 = SURFACE_SIDE_STYLE ('',( #128 ) ) ;
#245 = PRODUCT_DEFINITION_SHAPE ( 'NONE', 'NONE',  #251 ) ;
#246 =( NAMED_UNIT ( * ) SI_UNIT ( $, .STERADIAN. ) SOLID_ANGLE_UNIT ( ) );
#247 = CYLINDRICAL_SURFACE ( 'NONE', #342, 0.2499999999999999167 ) ;
#248 = STYLED_ITEM ( 'NONE', ( #101 ), #214 ) ;
#249 = VECTOR ( 'NONE', #324, 39.37007874015748143 ) ;
#250 = CARTESIAN_POINT ( 'NONE',  ( -0.2499999999999999167, 4.000000000000000000, 0.000000000000000000 ) ) ;
#251 = PRODUCT_DEFINITION ( 'UNKNOWN', '', #334, #49 ) ;
#252 = UNCERTAINTY_MEASURE_WITH_UNIT (LENGTH_MEASURE( 1.000000000000000082E-05 ), #7, 'distance_accuracy_value', 'NONE');
#253 = DIRECTION ( 'NONE',  ( 1.224646799147353207E-16, -1.000000000000000000, 0.000000000000000000 ) ) ;
#254 = ORIENTED_EDGE ( 'NONE', *, *, #20, .F. ) ;
#255 = DIRECTION ( 'NONE',  ( -0.000000000000000000, -1.000000000000000000, -0.000000000000000000 ) ) ;
#256 =( GEOMETRIC_REPRESENTATION_CONTEXT ( 3 ) GLOBAL_UNCERTAINTY_ASSIGNED_CONTEXT ( ( #339 ) ) GLOBAL_UNIT_ASSIGNED_CONTEXT ( ( #309, #221, #197 ) ) REPRESENTATION_CONTEXT ( 'NONE', 'WORKASPACE' ) );
#257 = SURFACE_STYLE_FILL_AREA ( #193 ) ;
#258 = ORIENTED_EDGE ( 'NONE', *, *, #297, .F. ) ;
#259 = ADVANCED_BREP_SHAPE_REPRESENTATION ( '49301', ( #58, #317, #208 ), #267 ) ;
#260 = DIRECTION ( 'NONE',  ( 1.000000000000000000, 0.000000000000000000, 0.000000000000000000 ) ) ;
#261 = VERTEX_POINT ( 'NONE', #78 ) ;
#262 = ORIENTED_EDGE ( 'NONE', *, *, #297, .T. ) ;
#263 = STYLED_ITEM ( 'NONE', ( #115 ), #58 ) ;
#264 = LINE ( 'NONE', #202, #249 ) ;
#265 = FILL_AREA_STYLE_COLOUR ( '', #220 ) ;
#266 = AXIS2_PLACEMENT_3D ( 'NONE', #156, #161, #358 ) ;
#267 =( GEOMETRIC_REPRESENTATION_CONTEXT ( 3 ) GLOBAL_UNCERTAINTY_ASSIGNED_CONTEXT ( ( #284 ) ) GLOBAL_UNIT_ASSIGNED_CONTEXT ( ( #130, #304, #246 ) ) REPRESENTATION_CONTEXT ( 'NONE', 'WORKASPACE' ) );
#268 = CARTESIAN_POINT ( 'NONE',  ( 0.2499999999999998335, 4.000000000000000000, 0.000000000000000000 ) ) ;
#269 =( NAMED_UNIT ( * ) PLANE_ANGLE_UNIT ( ) SI_UNIT ( $, .RADIAN. ) );
#270 = CARTESIAN_POINT ( 'NONE',  ( 0.2499999999999998335, 1.625000000000000000, 3.061616997868381785E-17 ) ) ;
#271 =( NAMED_UNIT ( * ) PLANE_ANGLE_UNIT ( ) SI_UNIT ( $, .RADIAN. ) );
#272 = DIRECTION ( 'NONE',  ( 0.000000000000000000, 0.000000000000000000, -1.000000000000000000 ) ) ;
#273 = AXIS2_PLACEMENT_3D ( 'NONE', #23, #99, #158 ) ;
#274 = ADVANCED_FACE ( 'NONE', ( #113 ), #55, .T. ) ;
#275 = CIRCLE ( 'NONE', #3, 0.2499999999999996669 ) ;
#276 = PRESENTATION_STYLE_ASSIGNMENT (( #13 ) ) ;
#277 = FACE_OUTER_BOUND ( 'NONE', #195, .T. ) ;
#278 = DIRECTION ( 'NONE',  ( 0.000000000000000000, 0.000000000000000000, 1.000000000000000000 ) ) ;
#279 = FILL_AREA_STYLE_COLOUR ( '', #39 ) ;
#280 = DIMENSIONAL_EXPONENTS ( 1.000000000000000000, 0.000000000000000000, 0.000000000000000000, 0.000000000000000000, 0.000000000000000000, 0.000000000000000000, 0.000000000000000000 ) ;
#281 = DIRECTION ( 'NONE',  ( -1.224646799147353207E-16, 1.000000000000000000, -0.000000000000000000 ) ) ;
#282 = AXIS2_PLACEMENT_3D ( 'NONE', #85, #340, #135 ) ;
#283 =( NAMED_UNIT ( * ) SI_UNIT ( $, .STERADIAN. ) SOLID_ANGLE_UNIT ( ) );
#284 = UNCERTAINTY_MEASURE_WITH_UNIT (LENGTH_MEASURE( 1.000000000000000082E-05 ), #130, 'distance_accuracy_value', 'NONE');
#285 =( LENGTH_UNIT ( ) NAMED_UNIT ( * ) SI_UNIT ( $, .METRE. ) );
#286 = EDGE_LOOP ( 'NONE', ( #112, #80, #258, #103 ) ) ;
#287 = EDGE_CURVE ( 'NONE', #120, #312, #32, .T. ) ;
#288 =( GEOMETRIC_REPRESENTATION_CONTEXT ( 3 ) GLOBAL_UNCERTAINTY_ASSIGNED_CONTEXT ( ( #107 ) ) GLOBAL_UNIT_ASSIGNED_CONTEXT ( ( #150, #69, #298 ) ) REPRESENTATION_CONTEXT ( 'NONE', 'WORKASPACE' ) );
#289 = COLOUR_RGB ( '',1.000000000000000000, 0.000000000000000000, 0.000000000000000000 ) ;
#290 = SURFACE_SIDE_STYLE ('',( #257 ) ) ;
#291 = VERTEX_POINT ( 'NONE', #348 ) ;
#292 = PLANE ( 'NONE',  #356 ) ;
#293 = SURFACE_STYLE_USAGE ( .BOTH. , #68 ) ;
#294 = VECTOR ( 'NONE', #281, 39.37007874015748143 ) ;
#295 = DIRECTION ( 'NONE',  ( -0.000000000000000000, -1.000000000000000000, -0.000000000000000000 ) ) ;
#296 = CARTESIAN_POINT ( 'NONE',  ( -3.061616997868383018E-17, 0.2500000000000000000, 0.000000000000000000 ) ) ;
#297 = EDGE_CURVE ( 'NONE', #114, #134, #333, .T. ) ;
#298 =( NAMED_UNIT ( * ) SI_UNIT ( $, .STERADIAN. ) SOLID_ANGLE_UNIT ( ) );
#299 = FILL_AREA_STYLE ('',( #279 ) ) ;
#300 = DIRECTION ( 'NONE',  ( -1.224646799147353207E-16, 1.000000000000000000, -0.000000000000000000 ) ) ;
#301 = FACE_OUTER_BOUND ( 'NONE', #370, .T. ) ;
#302 = CIRCLE ( 'NONE', #169, 0.2500000000000000000 ) ;
#303 = EDGE_CURVE ( 'NONE', #225, #134, #302, .T. ) ;
#304 =( NAMED_UNIT ( * ) PLANE_ANGLE_UNIT ( ) SI_UNIT ( $, .RADIAN. ) );
#305 = DIRECTION ( 'NONE',  ( -1.000000000000000000, 0.000000000000000000, 0.000000000000000000 ) ) ;
#306 = CARTESIAN_POINT ( 'NONE',  ( -1.224646799147352714E-16, 4.000000000000000000, 0.000000000000000000 ) ) ;
#307 = ORIENTED_EDGE ( 'NONE', *, *, #303, .F. ) ;
#308 = CIRCLE ( 'NONE', #203, 0.2500000000000000000 ) ;
#309 =( CONVERSION_BASED_UNIT ( 'INCH', #171 ) LENGTH_UNIT ( ) NAMED_UNIT ( #108 ) );
#310 = ORIENTED_EDGE ( 'NONE', *, *, #46, .F. ) ;
#311 =( NAMED_UNIT ( * ) SI_UNIT ( $, .STERADIAN. ) SOLID_ANGLE_UNIT ( ) );
#312 = VERTEX_POINT ( 'NONE', #65 ) ;
#313 = LENGTH_MEASURE_WITH_UNIT ( LENGTH_MEASURE( 0.02539999999999999897 ), #285 );
#314 = UNCERTAINTY_MEASURE_WITH_UNIT (LENGTH_MEASURE( 1.000000000000000082E-05 ), #349, 'distance_accuracy_value', 'NONE');
#315 = EDGE_CURVE ( 'NONE', #291, #30, #192, .T. ) ;
#316 = PRESENTATION_LAYER_ASSIGNMENT (  '', '', ( #34 ) ) ;
#317 = MANIFOLD_SOLID_BREP ( 'Revolve - Tool Body (Straight Shanked)', #162 ) ;
#318 =( NAMED_UNIT ( * ) PLANE_ANGLE_UNIT ( ) SI_UNIT ( $, .RADIAN. ) );
#319 = ORIENTED_EDGE ( 'NONE', *, *, #124, .T. ) ;
#320 = DIRECTION ( 'NONE',  ( 0.000000000000000000, 0.000000000000000000, -1.000000000000000000 ) ) ;
#321 = EDGE_CURVE ( 'NONE', #83, #261, #264, .T. ) ;
#322 = DIRECTION ( 'NONE',  ( -1.000000000000000000, 0.000000000000000000, 0.000000000000000000 ) ) ;
#323 = SURFACE_STYLE_USAGE ( .BOTH. , #119 ) ;
#324 = DIRECTION ( 'NONE',  ( -0.000000000000000000, -1.000000000000000000, -0.000000000000000000 ) ) ;
#325 = FILL_AREA_STYLE ('',( #204 ) ) ;
#326 = CYLINDRICAL_SURFACE ( 'NONE', #143, 0.2499999999999998057 ) ;
#327 =( NAMED_UNIT ( * ) SI_UNIT ( $, .STERADIAN. ) SOLID_ANGLE_UNIT ( ) );
#328 = ADVANCED_FACE ( 'NONE', ( #353 ), #5, .T. ) ;
#329 = AXIS2_PLACEMENT_3D ( 'NONE', #50, #84, #138 ) ;
#330 =( GEOMETRIC_REPRESENTATION_CONTEXT ( 3 ) GLOBAL_UNCERTAINTY_ASSIGNED_CONTEXT ( ( #223 ) ) GLOBAL_UNIT_ASSIGNED_CONTEXT ( ( #70, #271, #337 ) ) REPRESENTATION_CONTEXT ( 'NONE', 'WORKASPACE' ) );
#331 = PRESENTATION_STYLE_ASSIGNMENT (( #187 ) ) ;
#332 = CARTESIAN_POINT ( 'NONE',  ( 0.2500000000000000000, 0.2500000000000000555, 0.000000000000000000 ) ) ;
#333 = CIRCLE ( 'NONE', #117, 0.2500000000000000000 ) ;
#334 = PRODUCT_DEFINITION_FORMATION_WITH_SPECIFIED_SOURCE ( 'ANY', '', #98, .NOT_KNOWN. ) ;
#335 =( LENGTH_UNIT ( ) NAMED_UNIT ( * ) SI_UNIT ( $, .METRE. ) );
#336 = LINE ( 'NONE', #250, #185 ) ;
#337 =( NAMED_UNIT ( * ) SI_UNIT ( $, .STERADIAN. ) SOLID_ANGLE_UNIT ( ) );
#338 = DIRECTION ( 'NONE',  ( -1.000000000000000000, -1.224646799147353207E-16, 0.000000000000000000 ) ) ;
#339 = UNCERTAINTY_MEASURE_WITH_UNIT (LENGTH_MEASURE( 1.000000000000000082E-05 ), #309, 'distance_accuracy_value', 'NONE');
#340 = DIRECTION ( 'NONE',  ( -0.000000000000000000, -1.000000000000000000, -0.000000000000000000 ) ) ;
#341 = ORIENTED_EDGE ( 'NONE', *, *, #111, .F. ) ;
#342 = AXIS2_PLACEMENT_3D ( 'NONE', #51, #255, #142 ) ;
#343 = CARTESIAN_POINT ( 'NONE',  ( -3.061616997868383018E-17, 0.2500000000000000000, 0.000000000000000000 ) ) ;
#344 = EDGE_LOOP ( 'NONE', ( #56, #25 ) ) ;
#345 = CARTESIAN_POINT ( 'NONE',  ( 0.000000000000000000, 0.2500000000000000555, 0.000000000000000000 ) ) ;
#346 = ORIENTED_EDGE ( 'NONE', *, *, #137, .F. ) ;
#347 = STYLED_ITEM ( 'NONE', ( #237 ), #317 ) ;
#348 = CARTESIAN_POINT ( 'NONE',  ( -0.2500000000000001110, 4.000000000000000000, 0.000000000000000000 ) ) ;
#349 =( CONVERSION_BASED_UNIT ( 'INCH', #206 ) LENGTH_UNIT ( ) NAMED_UNIT ( #280 ) );
#350 =( LENGTH_UNIT ( ) NAMED_UNIT ( * ) SI_UNIT ( $, .METRE. ) );
#351 = PRESENTATION_LAYER_ASSIGNMENT (  '', '', ( #2 ) ) ;
#352 = DIRECTION ( 'NONE',  ( -1.000000000000000000, 0.000000000000000000, 0.000000000000000000 ) ) ;
#353 = FACE_OUTER_BOUND ( 'NONE', #286, .T. ) ;
#354 = APPLICATION_CONTEXT ( 'automotive_design' ) ;
#355 = SURFACE_SIDE_STYLE ('',( #240 ) ) ;
#356 = AXIS2_PLACEMENT_3D ( 'NONE', #268, #253, #159 ) ;
#357 = ADVANCED_FACE ( 'NONE', ( #233 ), #93, .T. ) ;
#358 = DIRECTION ( 'NONE',  ( -1.000000000000000000, 0.000000000000000000, 0.000000000000000000 ) ) ;
#359 = CARTESIAN_POINT ( 'NONE',  ( 0.000000000000000000, 0.000000000000000000, 0.000000000000000000 ) ) ;
#360 = CYLINDRICAL_SURFACE ( 'NONE', #273, 0.2499999999999999167 ) ;
#361 = DIMENSIONAL_EXPONENTS ( 1.000000000000000000, 0.000000000000000000, 0.000000000000000000, 0.000000000000000000, 0.000000000000000000, 0.000000000000000000, 0.000000000000000000 ) ;
#362 = SURFACE_STYLE_USAGE ( .BOTH. , #47 ) ;
#363 = CIRCLE ( 'NONE', #148, 0.2499999999999999722 ) ;
#364 = DIRECTION ( 'NONE',  ( -1.224646799147353207E-16, 1.000000000000000000, -0.000000000000000000 ) ) ;
#365 = EDGE_CURVE ( 'NONE', #31, #367, #275, .T. ) ;
#366 = FACE_OUTER_BOUND ( 'NONE', #172, .T. ) ;
#367 = VERTEX_POINT ( 'NONE', #97 ) ;
#368 = COLOUR_RGB ( '',0.7921568627450980005, 0.8196078431372548767, 0.9333333333333333481 ) ;
#369 = DIRECTION ( 'NONE',  ( 0.000000000000000000, 0.000000000000000000, 1.000000000000000000 ) ) ;
#370 = EDGE_LOOP ( 'NONE', ( #346, #27, #166, #11 ) ) ;
#371 = ORIENTED_EDGE ( 'NONE', *, *, #217, .F. ) ;
#372 = CARTESIAN_POINT ( 'NONE',  ( 0.000000000000000000, 0.000000000000000000, -0.2499999999999999167 ) ) ;
#373 = ORIENTED_EDGE ( 'NONE', *, *, #219, .T. ) ;
ENDSEC;
END-ISO-10303-21;
