ISO-10303-21;
HEADER;
FILE_DESCRIPTION (( 'STEP AP214' ),
    '1' );
FILE_NAME ('44107.STEP',
    '2023-06-22T19:19:54',
    ( '' ),
    ( '' ),
    'SwSTEP 2.0',
    'SolidWorks 2023',
    '' );
FILE_SCHEMA (( 'AUTOMOTIVE_DESIGN' ));
ENDSEC;

DATA;
#1 = SURFACE_STYLE_USAGE ( .BOTH. , #209 ) ;
#2 = LINE ( 'NONE', #93, #49 ) ;
#3 = MECHANICAL_DESIGN_GEOMETRIC_PRESENTATION_REPRESENTATION (  '', ( #67 ), #24 ) ;
#4 =( NAMED_UNIT ( * ) SI_UNIT ( $, .STERADIAN. ) SOLID_ANGLE_UNIT ( ) );
#5 =( NAMED_UNIT ( * ) SI_UNIT ( $, .STERADIAN. ) SOLID_ANGLE_UNIT ( ) );
#6 =( GEOMETRIC_REPRESENTATION_CONTEXT ( 3 ) GLOBAL_UNCERTAINTY_ASSIGNED_CONTEXT ( ( #174 ) ) GLOBAL_UNIT_ASSIGNED_CONTEXT ( ( #140, #291, #5 ) ) REPRESENTATION_CONTEXT ( 'NONE', 'WORKASPACE' ) );
#7 = EDGE_CURVE ( 'NONE', #266, #136, #262, .T. ) ;
#8 = CARTESIAN_POINT ( 'NONE',  ( 1.530808498934191817E-17, 0.3749999999999999445, 0.1250000000000000278 ) ) ;
#9 =( GEOMETRIC_REPRESENTATION_CONTEXT ( 3 ) GLOBAL_UNCERTAINTY_ASSIGNED_CONTEXT ( ( #58 ) ) GLOBAL_UNIT_ASSIGNED_CONTEXT ( ( #188, #95, #4 ) ) REPRESENTATION_CONTEXT ( 'NONE', 'WORKASPACE' ) );
#10 = PRESENTATION_STYLE_ASSIGNMENT (( #151 ) ) ;
#11 = CLOSED_SHELL ( 'NONE', ( #283, #201, #173, #223 ) ) ;
#12 =( GEOMETRIC_REPRESENTATION_CONTEXT ( 3 ) GLOBAL_UNCERTAINTY_ASSIGNED_CONTEXT ( ( #29 ) ) GLOBAL_UNIT_ASSIGNED_CONTEXT ( ( #222, #126, #276 ) ) REPRESENTATION_CONTEXT ( 'NONE', 'WORKASPACE' ) );
#13 = DIRECTION ( 'NONE',  ( 0.000000000000000000, 1.000000000000000000, 0.000000000000000000 ) ) ;
#14 = VERTEX_POINT ( 'NONE', #114 ) ;
#15 = LINE ( 'NONE', #287, #122 ) ;
#16 = EDGE_LOOP ( 'NONE', ( #116, #286, #55, #289 ) ) ;
#17 = DIRECTION ( 'NONE',  ( 2.260886398425882692E-16, 1.000000000000000000, -0.000000000000000000 ) ) ;
#18 = PRESENTATION_LAYER_ASSIGNMENT (  '', '', ( #138 ) ) ;
#19 = PRESENTATION_STYLE_ASSIGNMENT (( #1 ) ) ;
#20 =( LENGTH_UNIT ( ) NAMED_UNIT ( * ) SI_UNIT ( $, .METRE. ) );
#21 = EDGE_CURVE ( 'NONE', #132, #225, #48, .T. ) ;
#22 = DIRECTION ( 'NONE',  ( -0.000000000000000000, -1.000000000000000000, -0.000000000000000000 ) ) ;
#23 = LINE ( 'NONE', #213, #87 ) ;
#24 =( GEOMETRIC_REPRESENTATION_CONTEXT ( 3 ) GLOBAL_UNCERTAINTY_ASSIGNED_CONTEXT ( ( #246 ) ) GLOBAL_UNIT_ASSIGNED_CONTEXT ( ( #191, #265, #166 ) ) REPRESENTATION_CONTEXT ( 'NONE', 'WORKASPACE' ) );
#25 = CIRCLE ( 'NONE', #117, 0.1250000000000000278 ) ;
#26 = DIRECTION ( 'NONE',  ( 2.260886398425882692E-16, 1.000000000000000000, -0.000000000000000000 ) ) ;
#27 = MANIFOLD_SOLID_BREP ( 'Revolve - Tool Body (Straight Shanked)', #11 ) ;
#28 = DIRECTION ( 'NONE',  ( 0.000000000000000000, -1.000000000000000000, -0.000000000000000000 ) ) ;
#29 = UNCERTAINTY_MEASURE_WITH_UNIT (LENGTH_MEASURE( 1.000000000000000082E-05 ), #222, 'distance_accuracy_value', 'NONE');
#30 = DIRECTION ( 'NONE',  ( -0.000000000000000000, -1.000000000000000000, -0.000000000000000000 ) ) ;
#31 =( NAMED_UNIT ( * ) SI_UNIT ( $, .STERADIAN. ) SOLID_ANGLE_UNIT ( ) );
#32 = CLOSED_SHELL ( 'NONE', ( #183, #195, #242, #56 ) ) ;
#33 = CIRCLE ( 'NONE', #218, 0.1250000000000000278 ) ;
#34 = UNCERTAINTY_MEASURE_WITH_UNIT (LENGTH_MEASURE( 1.000000000000000082E-05 ), #268, 'distance_accuracy_value', 'NONE');
#35 = DIMENSIONAL_EXPONENTS ( 1.000000000000000000, 0.000000000000000000, 0.000000000000000000, 0.000000000000000000, 0.000000000000000000, 0.000000000000000000, 0.000000000000000000 ) ;
#36 = MECHANICAL_DESIGN_GEOMETRIC_PRESENTATION_REPRESENTATION (  '', ( #199 ), #205 ) ;
#37 = SURFACE_SIDE_STYLE ('',( #200 ) ) ;
#38 = LENGTH_MEASURE_WITH_UNIT ( LENGTH_MEASURE( 0.02539999999999999897 ), #220 );
#39 = ORIENTED_EDGE ( 'NONE', *, *, #146, .F. ) ;
#40 = PRODUCT_DEFINITION ( 'UNKNOWN', '', #182, #243 ) ;
#41 = FILL_AREA_STYLE_COLOUR ( '', #92 ) ;
#42 =( CONVERSION_BASED_UNIT ( 'INCH', #257 ) LENGTH_UNIT ( ) NAMED_UNIT ( #35 ) );
#43 = CARTESIAN_POINT ( 'NONE',  ( 0.000000000000000000, 0.3749999999999999445, -0.1250000000000000278 ) ) ;
#44 = PRODUCT_DEFINITION_SHAPE ( 'NONE', 'NONE',  #40 ) ;
#45 = DIRECTION ( 'NONE',  ( -2.260886398425882692E-16, -1.000000000000000000, 0.000000000000000000 ) ) ;
#46 = EDGE_LOOP ( 'NONE', ( #39, #150, #288, #232 ) ) ;
#47 = FILL_AREA_STYLE ('',( #41 ) ) ;
#48 = CIRCLE ( 'NONE', #111, 0.1250000000000000278 ) ;
#49 = VECTOR ( 'NONE', #295, 39.37007874015748143 ) ;
#50 =( LENGTH_UNIT ( ) NAMED_UNIT ( * ) SI_UNIT ( $, .METRE. ) );
#51 = LENGTH_MEASURE_WITH_UNIT ( LENGTH_MEASURE( 0.02539999999999999897 ), #50 );
#52 = SURFACE_STYLE_FILL_AREA ( #137 ) ;
#53 = SURFACE_STYLE_USAGE ( .BOTH. , #145 ) ;
#54 = VECTOR ( 'NONE', #75, 39.37007874015748143 ) ;
#55 = ORIENTED_EDGE ( 'NONE', *, *, #90, .T. ) ;
#56 = ADVANCED_FACE ( 'NONE', ( #252 ), #135, .T. ) ;
#57 = FILL_AREA_STYLE_COLOUR ( '', #271 ) ;
#58 = UNCERTAINTY_MEASURE_WITH_UNIT (LENGTH_MEASURE( 1.000000000000000082E-05 ), #188, 'distance_accuracy_value', 'NONE');
#59 = STYLED_ITEM ( 'NONE', ( #19 ), #242 ) ;
#60 = SURFACE_STYLE_FILL_AREA ( #81 ) ;
#61 = FACE_OUTER_BOUND ( 'NONE', #16, .T. ) ;
#62 = EDGE_CURVE ( 'NONE', #14, #164, #108, .T. ) ;
#63 = ORIENTED_EDGE ( 'NONE', *, *, #7, .T. ) ;
#64 = CARTESIAN_POINT ( 'NONE',  ( 0.000000000000000000, 0.3749999999999999445, 0.000000000000000000 ) ) ;
#65 = EDGE_LOOP ( 'NONE', ( #178, #118, #261, #224 ) ) ;
#66 = DIRECTION ( 'NONE',  ( -1.000000000000000000, 2.260886398425882692E-16, 0.000000000000000000 ) ) ;
#67 = STYLED_ITEM ( 'NONE', ( #96 ), #56 ) ;
#68 = DIRECTION ( 'NONE',  ( 2.260886398425882692E-16, 1.000000000000000000, -0.000000000000000000 ) ) ;
#69 = FACE_OUTER_BOUND ( 'NONE', #46, .T. ) ;
#70 = CARTESIAN_POINT ( 'NONE',  ( 0.000000000000000000, 0.000000000000000000, 0.000000000000000000 ) ) ;
#71 = CARTESIAN_POINT ( 'NONE',  ( -0.1250000000000000278, 0.3749999999999999445, 0.000000000000000000 ) ) ;
#72 = MECHANICAL_DESIGN_GEOMETRIC_PRESENTATION_REPRESENTATION (  '', ( #301 ), #113 ) ;
#73 = CARTESIAN_POINT ( 'NONE',  ( 3.673940397442059375E-16, 2.000000000000000000, 0.000000000000000000 ) ) ;
#74 = CARTESIAN_POINT ( 'NONE',  ( 0.000000000000000000, 0.000000000000000000, 0.000000000000000000 ) ) ;
#75 = DIRECTION ( 'NONE',  ( 2.260886398425882692E-16, 1.000000000000000000, -0.000000000000000000 ) ) ;
#76 = CARTESIAN_POINT ( 'NONE',  ( 0.000000000000000000, 0.3749999999999999445, 0.000000000000000000 ) ) ;
#77 = CARTESIAN_POINT ( 'NONE',  ( 3.673940397442059375E-16, 2.000000000000000000, 0.000000000000000000 ) ) ;
#78 = CARTESIAN_POINT ( 'NONE',  ( 0.000000000000000000, 0.3749999999999999445, 0.000000000000000000 ) ) ;
#79 = AXIS2_PLACEMENT_3D ( 'NONE', #228, #13, #86 ) ;
#80 = DIRECTION ( 'NONE',  ( 0.000000000000000000, 0.000000000000000000, 1.000000000000000000 ) ) ;
#81 = FILL_AREA_STYLE ('',( #302 ) ) ;
#82 = DIMENSIONAL_EXPONENTS ( 1.000000000000000000, 0.000000000000000000, 0.000000000000000000, 0.000000000000000000, 0.000000000000000000, 0.000000000000000000, 0.000000000000000000 ) ;
#83 = COLOUR_RGB ( '',0.7921568627450980005, 0.8196078431372548767, 0.9333333333333333481 ) ;
#84 = CIRCLE ( 'NONE', #240, 0.1250000000000000278 ) ;
#85 = SURFACE_STYLE_USAGE ( .BOTH. , #254 ) ;
#86 = DIRECTION ( 'NONE',  ( 0.000000000000000000, -0.000000000000000000, 1.000000000000000000 ) ) ;
#87 = VECTOR ( 'NONE', #189, 39.37007874015748143 ) ;
#88 = PRESENTATION_STYLE_ASSIGNMENT (( #85 ) ) ;
#89 = FACE_OUTER_BOUND ( 'NONE', #231, .T. ) ;
#90 = EDGE_CURVE ( 'NONE', #132, #164, #297, .T. ) ;
#91 = CYLINDRICAL_SURFACE ( 'NONE', #285, 0.1249999999999998473 ) ;
#92 = COLOUR_RGB ( '',1.000000000000000000, 0.000000000000000000, 0.000000000000000000 ) ;
#93 = CARTESIAN_POINT ( 'NONE',  ( 1.530808498934191817E-17, 0.000000000000000000, 0.1250000000000000278 ) ) ;
#94 = MECHANICAL_DESIGN_GEOMETRIC_PRESENTATION_REPRESENTATION (  '', ( #59 ), #6 ) ;
#95 =( NAMED_UNIT ( * ) PLANE_ANGLE_UNIT ( ) SI_UNIT ( $, .RADIAN. ) );
#96 = PRESENTATION_STYLE_ASSIGNMENT (( #274 ) ) ;
#97 = DIMENSIONAL_EXPONENTS ( 1.000000000000000000, 0.000000000000000000, 0.000000000000000000, 0.000000000000000000, 0.000000000000000000, 0.000000000000000000, 0.000000000000000000 ) ;
#98 = FACE_OUTER_BOUND ( 'NONE', #65, .T. ) ;
#99 = EDGE_CURVE ( 'NONE', #204, #184, #33, .T. ) ;
#100 = DIRECTION ( 'NONE',  ( 0.000000000000000000, 0.000000000000000000, -1.000000000000000000 ) ) ;
#101 = UNCERTAINTY_MEASURE_WITH_UNIT (LENGTH_MEASURE( 1.000000000000000082E-05 ), #131, 'distance_accuracy_value', 'NONE');
#102 = DIRECTION ( 'NONE',  ( -0.000000000000000000, -1.000000000000000000, -0.000000000000000000 ) ) ;
#103 = PRESENTATION_STYLE_ASSIGNMENT (( #53 ) ) ;
#104 = CIRCLE ( 'NONE', #177, 0.1250000000000000278 ) ;
#105 = FACE_OUTER_BOUND ( 'NONE', #203, .T. ) ;
#106 = CARTESIAN_POINT ( 'NONE',  ( 0.000000000000000000, 0.000000000000000000, 0.000000000000000000 ) ) ;
#107 = FACE_OUTER_BOUND ( 'NONE', #229, .T. ) ;
#108 = CIRCLE ( 'NONE', #284, 0.1249999999999996531 ) ;
#109 = DIRECTION ( 'NONE',  ( -0.000000000000000000, -1.000000000000000000, -0.000000000000000000 ) ) ;
#110 = APPLICATION_PROTOCOL_DEFINITION ( 'draft international standard', 'automotive_design', 1998, #236 ) ;
#111 = AXIS2_PLACEMENT_3D ( 'NONE', #64, #17, #156 ) ;
#112 = EDGE_LOOP ( 'NONE', ( #238, #160 ) ) ;
#113 =( GEOMETRIC_REPRESENTATION_CONTEXT ( 3 ) GLOBAL_UNCERTAINTY_ASSIGNED_CONTEXT ( ( #34 ) ) GLOBAL_UNIT_ASSIGNED_CONTEXT ( ( #268, #139, #31 ) ) REPRESENTATION_CONTEXT ( 'NONE', 'WORKASPACE' ) );
#114 = CARTESIAN_POINT ( 'NONE',  ( 0.1250000000000000555, 2.000000000000000000, 1.530808498934190893E-17 ) ) ;
#115 = ORIENTED_EDGE ( 'NONE', *, *, #251, .T. ) ;
#116 = ORIENTED_EDGE ( 'NONE', *, *, #208, .F. ) ;
#117 = AXIS2_PLACEMENT_3D ( 'NONE', #76, #194, #241 ) ;
#118 = ORIENTED_EDGE ( 'NONE', *, *, #208, .T. ) ;
#119 =( NAMED_UNIT ( * ) PLANE_ANGLE_UNIT ( ) SI_UNIT ( $, .RADIAN. ) );
#120 = CARTESIAN_POINT ( 'NONE',  ( 0.000000000000000000, 0.000000000000000000, -0.1250000000000000278 ) ) ;
#121 = DIRECTION ( 'NONE',  ( -1.000000000000000000, 0.000000000000000000, 0.000000000000000000 ) ) ;
#122 = VECTOR ( 'NONE', #68, 39.37007874015748143 ) ;
#123 = MANIFOLD_SOLID_BREP ( 'Revolve - Cutting Edge', #32 ) ;
#124 = SURFACE_SIDE_STYLE ('',( #133 ) ) ;
#125 = MECHANICAL_DESIGN_GEOMETRIC_PRESENTATION_REPRESENTATION (  '', ( #187 ), #255 ) ;
#126 =( NAMED_UNIT ( * ) PLANE_ANGLE_UNIT ( ) SI_UNIT ( $, .RADIAN. ) );
#127 = DIRECTION ( 'NONE',  ( 0.000000000000000000, 0.000000000000000000, -1.000000000000000000 ) ) ;
#128 = DIMENSIONAL_EXPONENTS ( 1.000000000000000000, 0.000000000000000000, 0.000000000000000000, 0.000000000000000000, 0.000000000000000000, 0.000000000000000000, 0.000000000000000000 ) ;
#129 = PRESENTATION_LAYER_ASSIGNMENT (  '', '', ( #199 ) ) ;
#130 =( LENGTH_UNIT ( ) NAMED_UNIT ( * ) SI_UNIT ( $, .METRE. ) );
#131 =( CONVERSION_BASED_UNIT ( 'INCH', #38 ) LENGTH_UNIT ( ) NAMED_UNIT ( #167 ) );
#132 = VERTEX_POINT ( 'NONE', #71 ) ;
#133 = SURFACE_STYLE_FILL_AREA ( #47 ) ;
#134 = COLOUR_RGB ( '',1.000000000000000000, 0.000000000000000000, 0.000000000000000000 ) ;
#135 = PLANE ( 'NONE',  #239 ) ;
#136 = VERTEX_POINT ( 'NONE', #210 ) ;
#137 = FILL_AREA_STYLE ('',( #270 ) ) ;
#138 = STYLED_ITEM ( 'NONE', ( #10 ), #183 ) ;
#139 =( NAMED_UNIT ( * ) PLANE_ANGLE_UNIT ( ) SI_UNIT ( $, .RADIAN. ) );
#140 =( CONVERSION_BASED_UNIT ( 'INCH', #143 ) LENGTH_UNIT ( ) NAMED_UNIT ( #269 ) );
#141 =( LENGTH_UNIT ( ) NAMED_UNIT ( * ) SI_UNIT ( $, .METRE. ) );
#142 = PRODUCT ( '44107', '44107', '', ( #245 ) ) ;
#143 = LENGTH_MEASURE_WITH_UNIT ( LENGTH_MEASURE( 0.02539999999999999897 ), #20 );
#144 = DIRECTION ( 'NONE',  ( 0.000000000000000000, 0.000000000000000000, -1.000000000000000000 ) ) ;
#145 = SURFACE_SIDE_STYLE ('',( #168 ) ) ;
#146 = EDGE_CURVE ( 'NONE', #184, #136, #2, .T. ) ;
#147 = FILL_AREA_STYLE ('',( #57 ) ) ;
#148 = SURFACE_STYLE_USAGE ( .BOTH. , #278 ) ;
#149 = EDGE_CURVE ( 'NONE', #204, #266, #23, .T. ) ;
#150 = ORIENTED_EDGE ( 'NONE', *, *, #280, .T. ) ;
#151 = SURFACE_STYLE_USAGE ( .BOTH. , #37 ) ;
#152 = AXIS2_PLACEMENT_3D ( 'NONE', #106, #109, #127 ) ;
#153 = CARTESIAN_POINT ( 'NONE',  ( -0.1249999999999992784, 2.000000000000000000, 0.000000000000000000 ) ) ;
#154 = EDGE_CURVE ( 'NONE', #225, #132, #25, .T. ) ;
#155 =( LENGTH_UNIT ( ) NAMED_UNIT ( * ) SI_UNIT ( $, .METRE. ) );
#156 = DIRECTION ( 'NONE',  ( -1.000000000000000000, 0.000000000000000000, 0.000000000000000000 ) ) ;
#157 = ORIENTED_EDGE ( 'NONE', *, *, #7, .F. ) ;
#158 = PLANE ( 'NONE',  #196 ) ;
#159 = PLANE ( 'NONE',  #202 ) ;
#160 = ORIENTED_EDGE ( 'NONE', *, *, #62, .T. ) ;
#161 = CYLINDRICAL_SURFACE ( 'NONE', #172, 0.1250000000000000278 ) ;
#162 = DIRECTION ( 'NONE',  ( 0.000000000000000000, 0.000000000000000000, -1.000000000000000000 ) ) ;
#163 = DIRECTION ( 'NONE',  ( -0.000000000000000000, -1.000000000000000000, -0.000000000000000000 ) ) ;
#164 = VERTEX_POINT ( 'NONE', #153 ) ;
#165 = DIRECTION ( 'NONE',  ( 0.000000000000000000, 0.000000000000000000, -1.000000000000000000 ) ) ;
#166 =( NAMED_UNIT ( * ) SI_UNIT ( $, .STERADIAN. ) SOLID_ANGLE_UNIT ( ) );
#167 = DIMENSIONAL_EXPONENTS ( 1.000000000000000000, 0.000000000000000000, 0.000000000000000000, 0.000000000000000000, 0.000000000000000000, 0.000000000000000000, 0.000000000000000000 ) ;
#168 = SURFACE_STYLE_FILL_AREA ( #216 ) ;
#169 = MECHANICAL_DESIGN_GEOMETRIC_PRESENTATION_REPRESENTATION (  '', ( #138 ), #12 ) ;
#170 = LENGTH_MEASURE_WITH_UNIT ( LENGTH_MEASURE( 0.02539999999999999897 ), #130 );
#171 = DIRECTION ( 'NONE',  ( 2.260886398425882692E-16, 1.000000000000000000, -0.000000000000000000 ) ) ;
#172 = AXIS2_PLACEMENT_3D ( 'NONE', #296, #102, #165 ) ;
#173 = ADVANCED_FACE ( 'NONE', ( #61 ), #249, .T. ) ;
#174 = UNCERTAINTY_MEASURE_WITH_UNIT (LENGTH_MEASURE( 1.000000000000000082E-05 ), #140, 'distance_accuracy_value', 'NONE');
#175 = DIMENSIONAL_EXPONENTS ( 1.000000000000000000, 0.000000000000000000, 0.000000000000000000, 0.000000000000000000, 0.000000000000000000, 0.000000000000000000, 0.000000000000000000 ) ;
#176 = AXIS2_PLACEMENT_3D ( 'NONE', #74, #30, #235 ) ;
#177 = AXIS2_PLACEMENT_3D ( 'NONE', #70, #22, #192 ) ;
#178 = ORIENTED_EDGE ( 'NONE', *, *, #21, .T. ) ;
#179 = DIRECTION ( 'NONE',  ( 2.260886398425882692E-16, 1.000000000000000000, -0.000000000000000000 ) ) ;
#180 = ORIENTED_EDGE ( 'NONE', *, *, #149, .F. ) ;
#181 = FILL_AREA_STYLE_COLOUR ( '', #83 ) ;
#182 = PRODUCT_DEFINITION_FORMATION_WITH_SPECIFIED_SOURCE ( 'ANY', '', #142, .NOT_KNOWN. ) ;
#183 = ADVANCED_FACE ( 'NONE', ( #105 ), #219, .T. ) ;
#184 = VERTEX_POINT ( 'NONE', #8 ) ;
#185 = ORIENTED_EDGE ( 'NONE', *, *, #146, .T. ) ;
#186 = CARTESIAN_POINT ( 'NONE',  ( 0.1250000000000000555, 0.3749999999999999445, 1.530808498934190893E-17 ) ) ;
#187 = STYLED_ITEM ( 'NONE', ( #88 ), #27 ) ;
#188 =( CONVERSION_BASED_UNIT ( 'INCH', #51 ) LENGTH_UNIT ( ) NAMED_UNIT ( #97 ) );
#189 = DIRECTION ( 'NONE',  ( -0.000000000000000000, -1.000000000000000000, -0.000000000000000000 ) ) ;
#190 = DIRECTION ( 'NONE',  ( -1.000000000000000000, 0.000000000000000000, 0.000000000000000000 ) ) ;
#191 =( CONVERSION_BASED_UNIT ( 'INCH', #299 ) LENGTH_UNIT ( ) NAMED_UNIT ( #82 ) );
#192 = DIRECTION ( 'NONE',  ( 0.000000000000000000, 0.000000000000000000, -1.000000000000000000 ) ) ;
#193 = ORIENTED_EDGE ( 'NONE', *, *, #99, .T. ) ;
#194 = DIRECTION ( 'NONE',  ( 2.260886398425882692E-16, 1.000000000000000000, -0.000000000000000000 ) ) ;
#195 = ADVANCED_FACE ( 'NONE', ( #107 ), #198, .T. ) ;
#196 = AXIS2_PLACEMENT_3D ( 'NONE', #230, #179, #66 ) ;
#197 = DIRECTION ( 'NONE',  ( -1.000000000000000000, 0.000000000000000000, 0.000000000000000000 ) ) ;
#198 = PLANE ( 'NONE',  #79 ) ;
#199 = STYLED_ITEM ( 'NONE', ( #248 ), #195 ) ;
#200 = SURFACE_STYLE_FILL_AREA ( #147 ) ;
#201 = ADVANCED_FACE ( 'NONE', ( #89 ), #158, .F. ) ;
#202 = AXIS2_PLACEMENT_3D ( 'NONE', #259, #45, #308 ) ;
#203 = EDGE_LOOP ( 'NONE', ( #193, #185, #157, #180 ) ) ;
#204 = VERTEX_POINT ( 'NONE', #43 ) ;
#205 =( GEOMETRIC_REPRESENTATION_CONTEXT ( 3 ) GLOBAL_UNCERTAINTY_ASSIGNED_CONTEXT ( ( #101 ) ) GLOBAL_UNIT_ASSIGNED_CONTEXT ( ( #131, #253, #226 ) ) REPRESENTATION_CONTEXT ( 'NONE', 'WORKASPACE' ) );
#206 = FACE_OUTER_BOUND ( 'NONE', #112, .T. ) ;
#207 =( NAMED_UNIT ( * ) SI_UNIT ( $, .STERADIAN. ) SOLID_ANGLE_UNIT ( ) );
#208 = EDGE_CURVE ( 'NONE', #225, #14, #15, .T. ) ;
#209 = SURFACE_SIDE_STYLE ('',( #52 ) ) ;
#210 = CARTESIAN_POINT ( 'NONE',  ( 1.530808498934191817E-17, 0.000000000000000000, 0.1250000000000000278 ) ) ;
#211 = APPLICATION_CONTEXT ( 'automotive_design' ) ;
#212 = PRESENTATION_LAYER_ASSIGNMENT (  '', '', ( #301 ) ) ;
#213 = CARTESIAN_POINT ( 'NONE',  ( 0.000000000000000000, 0.000000000000000000, -0.1250000000000000278 ) ) ;
#214 =( LENGTH_UNIT ( ) NAMED_UNIT ( * ) SI_UNIT ( $, .METRE. ) );
#215 = CARTESIAN_POINT ( 'NONE',  ( 0.000000000000000000, 0.000000000000000000, 0.000000000000000000 ) ) ;
#216 = FILL_AREA_STYLE ('',( #244 ) ) ;
#217 = DIRECTION ( 'NONE',  ( 2.260886398425882692E-16, 1.000000000000000000, -0.000000000000000000 ) ) ;
#218 = AXIS2_PLACEMENT_3D ( 'NONE', #78, #163, #144 ) ;
#219 = CYLINDRICAL_SURFACE ( 'NONE', #152, 0.1250000000000000278 ) ;
#220 =( LENGTH_UNIT ( ) NAMED_UNIT ( * ) SI_UNIT ( $, .METRE. ) );
#221 = COLOUR_RGB ( '',0.7921568627450980005, 0.8196078431372548767, 0.9333333333333333481 ) ;
#222 =( CONVERSION_BASED_UNIT ( 'INCH', #170 ) LENGTH_UNIT ( ) NAMED_UNIT ( #175 ) );
#223 = ADVANCED_FACE ( 'NONE', ( #206 ), #159, .F. ) ;
#224 = ORIENTED_EDGE ( 'NONE', *, *, #90, .F. ) ;
#225 = VERTEX_POINT ( 'NONE', #186 ) ;
#226 =( NAMED_UNIT ( * ) SI_UNIT ( $, .STERADIAN. ) SOLID_ANGLE_UNIT ( ) );
#227 = PRESENTATION_LAYER_ASSIGNMENT (  '', '', ( #59 ) ) ;
#228 = CARTESIAN_POINT ( 'NONE',  ( 0.000000000000000000, 0.3749999999999999445, 0.000000000000000000 ) ) ;
#229 = EDGE_LOOP ( 'NONE', ( #260, #258 ) ) ;
#230 = CARTESIAN_POINT ( 'NONE',  ( 3.194754566616975600E-33, 0.3749999999999999445, 0.000000000000000000 ) ) ;
#231 = EDGE_LOOP ( 'NONE', ( #282, #307 ) ) ;
#232 = ORIENTED_EDGE ( 'NONE', *, *, #251, .F. ) ;
#233 = AXIS2_PLACEMENT_3D ( 'NONE', #77, #309, #298 ) ;
#234 = APPLICATION_PROTOCOL_DEFINITION ( 'draft international standard', 'automotive_design', 1998, #211 ) ;
#235 = DIRECTION ( 'NONE',  ( 0.000000000000000000, 0.000000000000000000, -1.000000000000000000 ) ) ;
#236 = APPLICATION_CONTEXT ( 'automotive_design' ) ;
#237 = CARTESIAN_POINT ( 'NONE',  ( 3.673940397442059375E-16, 2.000000000000000000, 0.000000000000000000 ) ) ;
#238 = ORIENTED_EDGE ( 'NONE', *, *, #263, .T. ) ;
#239 = AXIS2_PLACEMENT_3D ( 'NONE', #292, #28, #100 ) ;
#240 = AXIS2_PLACEMENT_3D ( 'NONE', #264, #267, #162 ) ;
#241 = DIRECTION ( 'NONE',  ( -1.000000000000000000, 0.000000000000000000, 0.000000000000000000 ) ) ;
#242 = ADVANCED_FACE ( 'NONE', ( #69 ), #161, .T. ) ;
#243 = PRODUCT_DEFINITION_CONTEXT ( 'detailed design', #236, 'design' ) ;
#244 = FILL_AREA_STYLE_COLOUR ( '', #221 ) ;
#245 = PRODUCT_CONTEXT ( 'NONE', #211, 'mechanical' ) ;
#246 = UNCERTAINTY_MEASURE_WITH_UNIT (LENGTH_MEASURE( 1.000000000000000082E-05 ), #191, 'distance_accuracy_value', 'NONE');
#247 = EDGE_LOOP ( 'NONE', ( #63, #115 ) ) ;
#248 = PRESENTATION_STYLE_ASSIGNMENT (( #148 ) ) ;
#249 = CYLINDRICAL_SURFACE ( 'NONE', #250, 0.1249999999999998473 ) ;
#250 = AXIS2_PLACEMENT_3D ( 'NONE', #300, #171, #197 ) ;
#251 = EDGE_CURVE ( 'NONE', #136, #266, #104, .T. ) ;
#252 = FACE_OUTER_BOUND ( 'NONE', #247, .T. ) ;
#253 =( NAMED_UNIT ( * ) PLANE_ANGLE_UNIT ( ) SI_UNIT ( $, .RADIAN. ) );
#254 = SURFACE_SIDE_STYLE ('',( #281 ) ) ;
#255 =( GEOMETRIC_REPRESENTATION_CONTEXT ( 3 ) GLOBAL_UNCERTAINTY_ASSIGNED_CONTEXT ( ( #303 ) ) GLOBAL_UNIT_ASSIGNED_CONTEXT ( ( #42, #119, #207 ) ) REPRESENTATION_CONTEXT ( 'NONE', 'WORKASPACE' ) );
#256 = CIRCLE ( 'NONE', #233, 0.1249999999999996531 ) ;
#257 = LENGTH_MEASURE_WITH_UNIT ( LENGTH_MEASURE( 0.02539999999999999897 ), #155 );
#258 = ORIENTED_EDGE ( 'NONE', *, *, #280, .F. ) ;
#259 = CARTESIAN_POINT ( 'NONE',  ( 0.1250000000000000278, 2.000000000000000000, 0.000000000000000000 ) ) ;
#260 = ORIENTED_EDGE ( 'NONE', *, *, #99, .F. ) ;
#261 = ORIENTED_EDGE ( 'NONE', *, *, #263, .F. ) ;
#262 = CIRCLE ( 'NONE', #176, 0.1250000000000000278 ) ;
#263 = EDGE_CURVE ( 'NONE', #164, #14, #256, .T. ) ;
#264 = CARTESIAN_POINT ( 'NONE',  ( 0.000000000000000000, 0.3749999999999999445, 0.000000000000000000 ) ) ;
#265 =( NAMED_UNIT ( * ) PLANE_ANGLE_UNIT ( ) SI_UNIT ( $, .RADIAN. ) );
#266 = VERTEX_POINT ( 'NONE', #120 ) ;
#267 = DIRECTION ( 'NONE',  ( -0.000000000000000000, -1.000000000000000000, -0.000000000000000000 ) ) ;
#268 =( CONVERSION_BASED_UNIT ( 'INCH', #272 ) LENGTH_UNIT ( ) NAMED_UNIT ( #128 ) );
#269 = DIMENSIONAL_EXPONENTS ( 1.000000000000000000, 0.000000000000000000, 0.000000000000000000, 0.000000000000000000, 0.000000000000000000, 0.000000000000000000, 0.000000000000000000 ) ;
#270 = FILL_AREA_STYLE_COLOUR ( '', #306 ) ;
#271 = COLOUR_RGB ( '',1.000000000000000000, 0.000000000000000000, 0.000000000000000000 ) ;
#272 = LENGTH_MEASURE_WITH_UNIT ( LENGTH_MEASURE( 0.02539999999999999897 ), #141 );
#273 = DIRECTION ( 'NONE',  ( 1.000000000000000000, 0.000000000000000000, 0.000000000000000000 ) ) ;
#274 = SURFACE_STYLE_USAGE ( .BOTH. , #124 ) ;
#275 = PRODUCT_RELATED_PRODUCT_CATEGORY ( 'part', '', ( #142 ) ) ;
#276 =( NAMED_UNIT ( * ) SI_UNIT ( $, .STERADIAN. ) SOLID_ANGLE_UNIT ( ) );
#277 = PRESENTATION_LAYER_ASSIGNMENT (  '', '', ( #67 ) ) ;
#278 = SURFACE_SIDE_STYLE ('',( #60 ) ) ;
#279 = ADVANCED_BREP_SHAPE_REPRESENTATION ( '44107', ( #123, #27, #304 ), #9 ) ;
#280 = EDGE_CURVE ( 'NONE', #184, #204, #84, .T. ) ;
#281 = SURFACE_STYLE_FILL_AREA ( #290 ) ;
#282 = ORIENTED_EDGE ( 'NONE', *, *, #21, .F. ) ;
#283 = ADVANCED_FACE ( 'NONE', ( #98 ), #91, .T. ) ;
#284 = AXIS2_PLACEMENT_3D ( 'NONE', #237, #217, #121 ) ;
#285 = AXIS2_PLACEMENT_3D ( 'NONE', #73, #26, #190 ) ;
#286 = ORIENTED_EDGE ( 'NONE', *, *, #154, .T. ) ;
#287 = CARTESIAN_POINT ( 'NONE',  ( 0.1250000000000002220, 2.000000000000000000, 1.530808498934189660E-17 ) ) ;
#288 = ORIENTED_EDGE ( 'NONE', *, *, #149, .T. ) ;
#289 = ORIENTED_EDGE ( 'NONE', *, *, #62, .F. ) ;
#290 = FILL_AREA_STYLE ('',( #181 ) ) ;
#291 =( NAMED_UNIT ( * ) PLANE_ANGLE_UNIT ( ) SI_UNIT ( $, .RADIAN. ) );
#292 = CARTESIAN_POINT ( 'NONE',  ( 0.000000000000000000, 0.000000000000000000, 0.000000000000000000 ) ) ;
#293 = PRESENTATION_LAYER_ASSIGNMENT (  '', '', ( #187 ) ) ;
#294 = CARTESIAN_POINT ( 'NONE',  ( -0.1249999999999994726, 2.000000000000000000, 0.000000000000000000 ) ) ;
#295 = DIRECTION ( 'NONE',  ( -0.000000000000000000, -1.000000000000000000, -0.000000000000000000 ) ) ;
#296 = CARTESIAN_POINT ( 'NONE',  ( 0.000000000000000000, 0.000000000000000000, 0.000000000000000000 ) ) ;
#297 = LINE ( 'NONE', #294, #54 ) ;
#298 = DIRECTION ( 'NONE',  ( -1.000000000000000000, 0.000000000000000000, 0.000000000000000000 ) ) ;
#299 = LENGTH_MEASURE_WITH_UNIT ( LENGTH_MEASURE( 0.02539999999999999897 ), #214 );
#300 = CARTESIAN_POINT ( 'NONE',  ( 3.673940397442059375E-16, 2.000000000000000000, 0.000000000000000000 ) ) ;
#301 = STYLED_ITEM ( 'NONE', ( #103 ), #123 ) ;
#302 = FILL_AREA_STYLE_COLOUR ( '', #134 ) ;
#303 = UNCERTAINTY_MEASURE_WITH_UNIT (LENGTH_MEASURE( 1.000000000000000082E-05 ), #42, 'distance_accuracy_value', 'NONE');
#304 = AXIS2_PLACEMENT_3D ( 'NONE', #215, #80, #273 ) ;
#305 = SHAPE_DEFINITION_REPRESENTATION ( #44, #279 ) ;
#306 = COLOUR_RGB ( '',1.000000000000000000, 0.000000000000000000, 0.000000000000000000 ) ;
#307 = ORIENTED_EDGE ( 'NONE', *, *, #154, .F. ) ;
#308 = DIRECTION ( 'NONE',  ( 1.000000000000000000, -2.260886398425882692E-16, 0.000000000000000000 ) ) ;
#309 = DIRECTION ( 'NONE',  ( 2.260886398425882692E-16, 1.000000000000000000, -0.000000000000000000 ) ) ;
ENDSEC;
END-ISO-10303-21;
