ISO-10303-21;
HEADER;
FILE_DESCRIPTION (( 'STEP AP214' ),
    '1' );
FILE_NAME ('12167.STEP',
    '2023-06-30T21:51:00',
    ( '' ),
    ( '' ),
    'SwSTEP 2.0',
    'SolidWorks 2023',
    '' );
FILE_SCHEMA (( 'AUTOMOTIVE_DESIGN' ));
ENDSEC;

DATA;
#1 =( NAMED_UNIT ( * ) PLANE_ANGLE_UNIT ( ) SI_UNIT ( $, .RADIAN. ) );
#2 = MECHANICAL_DESIGN_GEOMETRIC_PRESENTATION_REPRESENTATION (  '', ( #118 ), #114 ) ;
#3 = FACE_OUTER_BOUND ( 'NONE', #200, .T. ) ;
#4 = DIRECTION ( 'NONE',  ( 1.224646799147353207E-16, -0.000000000000000000, 1.000000000000000000 ) ) ;
#5 = LINE ( 'NONE', #266, #130 ) ;
#6 = AXIS2_PLACEMENT_3D ( 'NONE', #354, #43, #326 ) ;
#7 =( NAMED_UNIT ( * ) PLANE_ANGLE_UNIT ( ) SI_UNIT ( $, .RADIAN. ) );
#8 = EDGE_LOOP ( 'NONE', ( #274, #276 ) ) ;
#9 = EDGE_CURVE ( 'NONE', #355, #232, #26, .T. ) ;
#10 = CARTESIAN_POINT ( 'NONE',  ( 0.1562499999999999722, 2.000000000000000000, 1.913510623667737614E-17 ) ) ;
#11 = ORIENTED_EDGE ( 'NONE', *, *, #263, .F. ) ;
#12 = SURFACE_STYLE_USAGE ( .BOTH. , #278 ) ;
#13 = ORIENTED_EDGE ( 'NONE', *, *, #134, .F. ) ;
#14 = AXIS2_PLACEMENT_3D ( 'NONE', #237, #260, #51 ) ;
#15 = DIRECTION ( 'NONE',  ( 0.000000000000000000, 0.000000000000000000, -1.000000000000000000 ) ) ;
#16 = ORIENTED_EDGE ( 'NONE', *, *, #336, .T. ) ;
#17 = SURFACE_STYLE_USAGE ( .BOTH. , #333 ) ;
#18 = SURFACE_STYLE_USAGE ( .BOTH. , #284 ) ;
#19 = VERTEX_POINT ( 'NONE', #313 ) ;
#20 =( LENGTH_UNIT ( ) NAMED_UNIT ( * ) SI_UNIT ( $, .METRE. ) );
#21 = CARTESIAN_POINT ( 'NONE',  ( 2.527298022616905467E-16, 0.4375000000000000000, 0.000000000000000000 ) ) ;
#22 = AXIS2_PLACEMENT_3D ( 'NONE', #210, #277, #135 ) ;
#23 = PRODUCT_CONTEXT ( 'NONE', #45, 'mechanical' ) ;
#24 = COLOUR_RGB ( '',1.000000000000000000, 0.000000000000000000, 0.000000000000000000 ) ;
#25 =( LENGTH_UNIT ( ) NAMED_UNIT ( * ) SI_UNIT ( $, .METRE. ) );
#26 = CIRCLE ( 'NONE', #191, 0.1562500000000000278 ) ;
#27 = SURFACE_SIDE_STYLE ('',( #55 ) ) ;
#28 = MECHANICAL_DESIGN_GEOMETRIC_PRESENTATION_REPRESENTATION (  '', ( #268 ), #76 ) ;
#29 = SURFACE_STYLE_USAGE ( .BOTH. , #81 ) ;
#30 = CARTESIAN_POINT ( 'NONE',  ( 1.913510623667739463E-17, 0.1562500000000000833, 0.1562500000000000000 ) ) ;
#31 = CARTESIAN_POINT ( 'NONE',  ( -0.1562499999999998335, 2.000000000000000000, 0.000000000000000000 ) ) ;
#32 = SURFACE_STYLE_FILL_AREA ( #187 ) ;
#33 = UNCERTAINTY_MEASURE_WITH_UNIT (LENGTH_MEASURE( 1.000000000000000082E-05 ), #334, 'distance_accuracy_value', 'NONE');
#34 = DIRECTION ( 'NONE',  ( -1.000000000000000000, 0.000000000000000000, 0.000000000000000000 ) ) ;
#35 = SURFACE_STYLE_USAGE ( .BOTH. , #217 ) ;
#36 = CLOSED_SHELL ( 'NONE', ( #247, #62, #307, #154 ) ) ;
#37 = AXIS2_PLACEMENT_3D ( 'NONE', #239, #220, #34 ) ;
#38 = DIRECTION ( 'NONE',  ( -1.000000000000000000, 0.000000000000000000, 0.000000000000000000 ) ) ;
#39 = VERTEX_POINT ( 'NONE', #248 ) ;
#40 = DIRECTION ( 'NONE',  ( -1.225583758747666601E-16, 1.000000000000000000, -0.000000000000000000 ) ) ;
#41 = SURFACE_STYLE_FILL_AREA ( #198 ) ;
#42 = EDGE_LOOP ( 'NONE', ( #109, #106, #138, #145 ) ) ;
#43 = DIRECTION ( 'NONE',  ( -1.225583758747666601E-16, 1.000000000000000000, -0.000000000000000000 ) ) ;
#44 = VERTEX_POINT ( 'NONE', #353 ) ;
#45 = APPLICATION_CONTEXT ( 'automotive_design' ) ;
#46 =( CONVERSION_BASED_UNIT ( 'INCH', #205 ) LENGTH_UNIT ( ) NAMED_UNIT ( #116 ) );
#47 =( NAMED_UNIT ( * ) SI_UNIT ( $, .STERADIAN. ) SOLID_ANGLE_UNIT ( ) );
#48 = ORIENTED_EDGE ( 'NONE', *, *, #58, .T. ) ;
#49 = PRESENTATION_STYLE_ASSIGNMENT (( #18 ) ) ;
#50 = ORIENTED_EDGE ( 'NONE', *, *, #151, .T. ) ;
#51 = DIRECTION ( 'NONE',  ( 1.000000000000000000, 0.000000000000000000, 0.000000000000000000 ) ) ;
#52 = ADVANCED_FACE ( 'NONE', ( #103 ), #117, .T. ) ;
#53 = SURFACE_STYLE_FILL_AREA ( #309 ) ;
#54 = DIRECTION ( 'NONE',  ( 0.000000000000000000, 1.000000000000000000, 0.000000000000000000 ) ) ;
#55 = SURFACE_STYLE_FILL_AREA ( #371 ) ;
#56 = AXIS2_PLACEMENT_3D ( 'NONE', #281, #223, #108 ) ;
#57 = AXIS2_PLACEMENT_3D ( 'NONE', #93, #4, #66 ) ;
#58 = EDGE_CURVE ( 'NONE', #332, #111, #213, .T. ) ;
#59 = DIRECTION ( 'NONE',  ( -1.225583758747666601E-16, 1.000000000000000000, -0.000000000000000000 ) ) ;
#60 = CYLINDRICAL_SURFACE ( 'NONE', #259, 0.1562499999999998057 ) ;
#61 = CARTESIAN_POINT ( 'NONE',  ( 0.000000000000000000, 0.1562500000000000833, 0.000000000000000000 ) ) ;
#62 = ADVANCED_FACE ( 'NONE', ( #236 ), #206, .F. ) ;
#63 = DIRECTION ( 'NONE',  ( 0.000000000000000000, 0.000000000000000000, -1.000000000000000000 ) ) ;
#64 = PRESENTATION_LAYER_ASSIGNMENT (  '', '', ( #238 ) ) ;
#65 = PRESENTATION_LAYER_ASSIGNMENT (  '', '', ( #370 ) ) ;
#66 = DIRECTION ( 'NONE',  ( 1.000000000000000000, 0.000000000000000000, -1.224646799147353207E-16 ) ) ;
#67 = DIRECTION ( 'NONE',  ( -0.000000000000000000, -1.000000000000000000, -0.000000000000000000 ) ) ;
#68 = FACE_OUTER_BOUND ( 'NONE', #73, .T. ) ;
#69 = CARTESIAN_POINT ( 'NONE',  ( -0.1562499999999997224, 2.000000000000000000, 0.000000000000000000 ) ) ;
#70 = ORIENTED_EDGE ( 'NONE', *, *, #320, .F. ) ;
#71 = AXIS2_PLACEMENT_3D ( 'NONE', #222, #82, #341 ) ;
#72 = ADVANCED_FACE ( 'NONE', ( #291 ), #207, .T. ) ;
#73 = EDGE_LOOP ( 'NONE', ( #142, #48, #140, #308 ) ) ;
#74 = ORIENTED_EDGE ( 'NONE', *, *, #144, .T. ) ;
#75 = VERTEX_POINT ( 'NONE', #86 ) ;
#76 =( GEOMETRIC_REPRESENTATION_CONTEXT ( 3 ) GLOBAL_UNCERTAINTY_ASSIGNED_CONTEXT ( ( #363 ) ) GLOBAL_UNIT_ASSIGNED_CONTEXT ( ( #302, #7, #47 ) ) REPRESENTATION_CONTEXT ( 'NONE', 'WORKASPACE' ) );
#77 = CARTESIAN_POINT ( 'NONE',  ( 0.1562500000000000000, 0.1562500000000000833, 0.000000000000000000 ) ) ;
#78 = LENGTH_MEASURE_WITH_UNIT ( LENGTH_MEASURE( 0.02539999999999999897 ), #20 );
#79 = DIRECTION ( 'NONE',  ( 0.000000000000000000, 0.000000000000000000, 1.000000000000000000 ) ) ;
#80 = DIMENSIONAL_EXPONENTS ( 1.000000000000000000, 0.000000000000000000, 0.000000000000000000, 0.000000000000000000, 0.000000000000000000, 0.000000000000000000, 0.000000000000000000 ) ;
#81 = SURFACE_SIDE_STYLE ('',( #180 ) ) ;
#82 = DIRECTION ( 'NONE',  ( -1.225583758747666601E-16, 1.000000000000000000, -0.000000000000000000 ) ) ;
#83 = EDGE_CURVE ( 'NONE', #285, #224, #362, .T. ) ;
#84 =( NAMED_UNIT ( * ) PLANE_ANGLE_UNIT ( ) SI_UNIT ( $, .RADIAN. ) );
#85 = PRODUCT_DEFINITION_SHAPE ( 'NONE', 'NONE',  #127 ) ;
#86 = CARTESIAN_POINT ( 'NONE',  ( 0.000000000000000000, 0.4375000000000000000, -0.1562499999999999722 ) ) ;
#87 = DIRECTION ( 'NONE',  ( -0.000000000000000000, -1.000000000000000000, -0.000000000000000000 ) ) ;
#88 = MECHANICAL_DESIGN_GEOMETRIC_PRESENTATION_REPRESENTATION (  '', ( #155 ), #148 ) ;
#89 = EDGE_CURVE ( 'NONE', #19, #232, #189, .T. ) ;
#90 = FILL_AREA_STYLE ('',( #346 ) ) ;
#91 = AXIS2_PLACEMENT_3D ( 'NONE', #182, #295, #184 ) ;
#92 = CARTESIAN_POINT ( 'NONE',  ( 0.000000000000000000, 0.000000000000000000, 0.000000000000000000 ) ) ;
#93 = CARTESIAN_POINT ( 'NONE',  ( -1.913510623667739771E-17, 0.1562500000000000278, 0.000000000000000000 ) ) ;
#94 = MECHANICAL_DESIGN_GEOMETRIC_PRESENTATION_REPRESENTATION (  '', ( #345 ), #195 ) ;
#95 = DIRECTION ( 'NONE',  ( -0.000000000000000000, -1.000000000000000000, -0.000000000000000000 ) ) ;
#96 = UNCERTAINTY_MEASURE_WITH_UNIT (LENGTH_MEASURE( 1.000000000000000082E-05 ), #286, 'distance_accuracy_value', 'NONE');
#97 = AXIS2_PLACEMENT_3D ( 'NONE', #100, #322, #299 ) ;
#98 = EDGE_CURVE ( 'NONE', #199, #19, #242, .T. ) ;
#99 = LINE ( 'NONE', #166, #241 ) ;
#100 = CARTESIAN_POINT ( 'NONE',  ( 0.000000000000000000, 0.4375000000000000000, 0.000000000000000000 ) ) ;
#101 = CARTESIAN_POINT ( 'NONE',  ( 0.1562499999999999445, 0.4374999999999998890, 1.913510623667737614E-17 ) ) ;
#102 = FACE_OUTER_BOUND ( 'NONE', #330, .T. ) ;
#103 = FACE_OUTER_BOUND ( 'NONE', #112, .T. ) ;
#104 = LINE ( 'NONE', #69, #245 ) ;
#105 = AXIS2_PLACEMENT_3D ( 'NONE', #196, #67, #15 ) ;
#106 = ORIENTED_EDGE ( 'NONE', *, *, #89, .T. ) ;
#107 =( NAMED_UNIT ( * ) PLANE_ANGLE_UNIT ( ) SI_UNIT ( $, .RADIAN. ) );
#108 = DIRECTION ( 'NONE',  ( 0.000000000000000000, 0.000000000000000000, -1.000000000000000000 ) ) ;
#109 = ORIENTED_EDGE ( 'NONE', *, *, #98, .T. ) ;
#110 = FILL_AREA_STYLE_COLOUR ( '', #361 ) ;
#111 = VERTEX_POINT ( 'NONE', #321 ) ;
#112 = EDGE_LOOP ( 'NONE', ( #279, #197, #257, #172 ) ) ;
#113 = AXIS2_PLACEMENT_3D ( 'NONE', #267, #185, #349 ) ;
#114 =( GEOMETRIC_REPRESENTATION_CONTEXT ( 3 ) GLOBAL_UNCERTAINTY_ASSIGNED_CONTEXT ( ( #296 ) ) GLOBAL_UNIT_ASSIGNED_CONTEXT ( ( #160, #1, #121 ) ) REPRESENTATION_CONTEXT ( 'NONE', 'WORKASPACE' ) );
#115 = LENGTH_MEASURE_WITH_UNIT ( LENGTH_MEASURE( 0.02539999999999999897 ), #289 );
#116 = DIMENSIONAL_EXPONENTS ( 1.000000000000000000, 0.000000000000000000, 0.000000000000000000, 0.000000000000000000, 0.000000000000000000, 0.000000000000000000, 0.000000000000000000 ) ;
#117 = SPHERICAL_SURFACE ( 'NONE', #14, 0.1562500000000000278 ) ;
#118 = STYLED_ITEM ( 'NONE', ( #125 ), #123 ) ;
#119 =( NAMED_UNIT ( * ) SI_UNIT ( $, .STERADIAN. ) SOLID_ANGLE_UNIT ( ) );
#120 = PRESENTATION_STYLE_ASSIGNMENT (( #314 ) ) ;
#121 =( NAMED_UNIT ( * ) SI_UNIT ( $, .STERADIAN. ) SOLID_ANGLE_UNIT ( ) );
#122 =( GEOMETRIC_REPRESENTATION_CONTEXT ( 3 ) GLOBAL_UNCERTAINTY_ASSIGNED_CONTEXT ( ( #324 ) ) GLOBAL_UNIT_ASSIGNED_CONTEXT ( ( #46, #107, #229 ) ) REPRESENTATION_CONTEXT ( 'NONE', 'WORKASPACE' ) );
#123 = ADVANCED_FACE ( 'NONE', ( #298 ), #269, .T. ) ;
#124 = PRESENTATION_LAYER_ASSIGNMENT (  '', '', ( #118 ) ) ;
#125 = PRESENTATION_STYLE_ASSIGNMENT (( #35 ) ) ;
#126 = FILL_AREA_STYLE_COLOUR ( '', #24 ) ;
#127 = PRODUCT_DEFINITION ( 'UNKNOWN', '', #367, #188 ) ;
#128 = PRESENTATION_LAYER_ASSIGNMENT (  '', '', ( #155 ) ) ;
#129 = DIRECTION ( 'NONE',  ( -0.000000000000000000, -1.000000000000000000, -0.000000000000000000 ) ) ;
#130 = VECTOR ( 'NONE', #129, 39.37007874015748143 ) ;
#131 = COLOUR_RGB ( '',1.000000000000000000, 0.000000000000000000, 0.000000000000000000 ) ;
#132 = ORIENTED_EDGE ( 'NONE', *, *, #98, .F. ) ;
#133 = CLOSED_SHELL ( 'NONE', ( #270, #123, #72, #215, #52 ) ) ;
#134 = EDGE_CURVE ( 'NONE', #19, #44, #319, .T. ) ;
#135 = DIRECTION ( 'NONE',  ( 0.000000000000000000, 0.000000000000000000, -1.000000000000000000 ) ) ;
#136 = MECHANICAL_DESIGN_GEOMETRIC_PRESENTATION_REPRESENTATION (  '', ( #370 ), #219 ) ;
#137 = LENGTH_MEASURE_WITH_UNIT ( LENGTH_MEASURE( 0.02539999999999999897 ), #325 );
#138 = ORIENTED_EDGE ( 'NONE', *, *, #9, .F. ) ;
#139 = DIRECTION ( 'NONE',  ( -1.225583758747666601E-16, 1.000000000000000000, -0.000000000000000000 ) ) ;
#140 = ORIENTED_EDGE ( 'NONE', *, *, #263, .T. ) ;
#141 = PRESENTATION_STYLE_ASSIGNMENT (( #12 ) ) ;
#142 = ORIENTED_EDGE ( 'NONE', *, *, #168, .F. ) ;
#143 =( NAMED_UNIT ( * ) SI_UNIT ( $, .STERADIAN. ) SOLID_ANGLE_UNIT ( ) );
#144 = EDGE_CURVE ( 'NONE', #75, #39, #328, .T. ) ;
#145 = ORIENTED_EDGE ( 'NONE', *, *, #312, .T. ) ;
#146 =( CONVERSION_BASED_UNIT ( 'INCH', #78 ) LENGTH_UNIT ( ) NAMED_UNIT ( #261 ) );
#147 = PRESENTATION_STYLE_ASSIGNMENT (( #29 ) ) ;
#148 =( GEOMETRIC_REPRESENTATION_CONTEXT ( 3 ) GLOBAL_UNCERTAINTY_ASSIGNED_CONTEXT ( ( #96 ) ) GLOBAL_UNIT_ASSIGNED_CONTEXT ( ( #286, #231, #338 ) ) REPRESENTATION_CONTEXT ( 'NONE', 'WORKASPACE' ) );
#149 = MECHANICAL_DESIGN_GEOMETRIC_PRESENTATION_REPRESENTATION (  '', ( #225 ), #294 ) ;
#150 = DIRECTION ( 'NONE',  ( 1.000000000000000000, 0.000000000000000000, 0.000000000000000000 ) ) ;
#151 = EDGE_CURVE ( 'NONE', #111, #332, #311, .T. ) ;
#152 = DIMENSIONAL_EXPONENTS ( 1.000000000000000000, 0.000000000000000000, 0.000000000000000000, 0.000000000000000000, 0.000000000000000000, 0.000000000000000000, 0.000000000000000000 ) ;
#153 = DIRECTION ( 'NONE',  ( -1.225583758747666601E-16, 1.000000000000000000, -0.000000000000000000 ) ) ;
#154 = ADVANCED_FACE ( 'NONE', ( #3 ), #243, .F. ) ;
#155 = STYLED_ITEM ( 'NONE', ( #360 ), #340 ) ;
#156 = AXIS2_PLACEMENT_3D ( 'NONE', #271, #193, #347 ) ;
#157 = DIRECTION ( 'NONE',  ( -1.000000000000000000, -1.225583758747666601E-16, 0.000000000000000000 ) ) ;
#158 = FACE_OUTER_BOUND ( 'NONE', #306, .T. ) ;
#159 = EDGE_CURVE ( 'NONE', #39, #199, #5, .T. ) ;
#160 =( CONVERSION_BASED_UNIT ( 'INCH', #244 ) LENGTH_UNIT ( ) NAMED_UNIT ( #80 ) );
#161 = CARTESIAN_POINT ( 'NONE',  ( 0.000000000000000000, 0.1562500000000000833, 0.000000000000000000 ) ) ;
#162 = DIRECTION ( 'NONE',  ( -0.000000000000000000, -1.000000000000000000, -0.000000000000000000 ) ) ;
#163 =( LENGTH_UNIT ( ) NAMED_UNIT ( * ) SI_UNIT ( $, .METRE. ) );
#164 = DIRECTION ( 'NONE',  ( -0.000000000000000000, -1.000000000000000000, -0.000000000000000000 ) ) ;
#165 = COLOUR_RGB ( '',0.7921568627450980005, 0.8196078431372548767, 0.9333333333333333481 ) ;
#166 = CARTESIAN_POINT ( 'NONE',  ( 0.000000000000000000, 0.000000000000000000, -0.1562500000000000000 ) ) ;
#167 =( LENGTH_UNIT ( ) NAMED_UNIT ( * ) SI_UNIT ( $, .METRE. ) );
#168 = EDGE_CURVE ( 'NONE', #332, #224, #246, .T. ) ;
#169 = COLOUR_RGB ( '',1.000000000000000000, 0.000000000000000000, 0.000000000000000000 ) ;
#170 =( NAMED_UNIT ( * ) PLANE_ANGLE_UNIT ( ) SI_UNIT ( $, .RADIAN. ) );
#171 = ORIENTED_EDGE ( 'NONE', *, *, #83, .F. ) ;
#172 = ORIENTED_EDGE ( 'NONE', *, *, #9, .T. ) ;
#173 = ORIENTED_EDGE ( 'NONE', *, *, #336, .F. ) ;
#174 = COLOUR_RGB ( '',1.000000000000000000, 0.000000000000000000, 0.000000000000000000 ) ;
#175 = CARTESIAN_POINT ( 'NONE',  ( 0.000000000000000000, 0.000000000000000000, 0.000000000000000000 ) ) ;
#176 = ORIENTED_EDGE ( 'NONE', *, *, #151, .F. ) ;
#177 = CARTESIAN_POINT ( 'NONE',  ( 6.123233995736766036E-17, 2.000000000000000000, 0.000000000000000000 ) ) ;
#178 = DIMENSIONAL_EXPONENTS ( 1.000000000000000000, 0.000000000000000000, 0.000000000000000000, 0.000000000000000000, 0.000000000000000000, 0.000000000000000000, 0.000000000000000000 ) ;
#179 = MECHANICAL_DESIGN_GEOMETRIC_PRESENTATION_REPRESENTATION (  '', ( #238 ), #181 ) ;
#180 = SURFACE_STYLE_FILL_AREA ( #208 ) ;
#181 =( GEOMETRIC_REPRESENTATION_CONTEXT ( 3 ) GLOBAL_UNCERTAINTY_ASSIGNED_CONTEXT ( ( #240 ) ) GLOBAL_UNIT_ASSIGNED_CONTEXT ( ( #316, #84, #119 ) ) REPRESENTATION_CONTEXT ( 'NONE', 'WORKASPACE' ) );
#182 = CARTESIAN_POINT ( 'NONE',  ( 6.123233995736766036E-17, 2.000000000000000000, 0.000000000000000000 ) ) ;
#183 = FILL_AREA_STYLE_COLOUR ( '', #337 ) ;
#184 = DIRECTION ( 'NONE',  ( -1.000000000000000000, 0.000000000000000000, 0.000000000000000000 ) ) ;
#185 = DIRECTION ( 'NONE',  ( 0.000000000000000000, 0.000000000000000000, 1.000000000000000000 ) ) ;
#186 = PRODUCT ( '12167', '12167', '', ( #23 ) ) ;
#187 = FILL_AREA_STYLE ('',( #126 ) ) ;
#188 = PRODUCT_DEFINITION_CONTEXT ( 'detailed design', #212, 'design' ) ;
#189 = CIRCLE ( 'NONE', #57, 0.1562500000000000278 ) ;
#190 = DIRECTION ( 'NONE',  ( -1.000000000000000000, 0.000000000000000000, 0.000000000000000000 ) ) ;
#191 = AXIS2_PLACEMENT_3D ( 'NONE', #256, #358, #204 ) ;
#192 = EDGE_CURVE ( 'NONE', #224, #285, #348, .T. ) ;
#193 = DIRECTION ( 'NONE',  ( 1.225583758747666601E-16, -1.000000000000000000, 0.000000000000000000 ) ) ;
#194 = SURFACE_STYLE_USAGE ( .BOTH. , #250 ) ;
#195 =( GEOMETRIC_REPRESENTATION_CONTEXT ( 3 ) GLOBAL_UNCERTAINTY_ASSIGNED_CONTEXT ( ( #234 ) ) GLOBAL_UNIT_ASSIGNED_CONTEXT ( ( #146, #287, #344 ) ) REPRESENTATION_CONTEXT ( 'NONE', 'WORKASPACE' ) );
#196 = CARTESIAN_POINT ( 'NONE',  ( 0.000000000000000000, 0.4375000000000000000, 0.000000000000000000 ) ) ;
#197 = ORIENTED_EDGE ( 'NONE', *, *, #134, .T. ) ;
#198 = FILL_AREA_STYLE ('',( #275 ) ) ;
#199 = VERTEX_POINT ( 'NONE', #30 ) ;
#200 = EDGE_LOOP ( 'NONE', ( #227, #254 ) ) ;
#201 = FILL_AREA_STYLE ('',( #110 ) ) ;
#202 = AXIS2_PLACEMENT_3D ( 'NONE', #21, #317, #157 ) ;
#203 =( LENGTH_UNIT ( ) NAMED_UNIT ( * ) SI_UNIT ( $, .METRE. ) );
#204 = DIRECTION ( 'NONE',  ( -1.000000000000000000, 0.000000000000000000, 0.000000000000000000 ) ) ;
#205 = LENGTH_MEASURE_WITH_UNIT ( LENGTH_MEASURE( 0.02539999999999999897 ), #203 );
#206 = PLANE ( 'NONE',  #202 ) ;
#207 = PLANE ( 'NONE',  #233 ) ;
#208 = FILL_AREA_STYLE ('',( #265 ) ) ;
#209 =( NAMED_UNIT ( * ) PLANE_ANGLE_UNIT ( ) SI_UNIT ( $, .RADIAN. ) );
#210 = CARTESIAN_POINT ( 'NONE',  ( 0.000000000000000000, 0.1562500000000000833, 0.000000000000000000 ) ) ;
#211 = CIRCLE ( 'NONE', #318, 0.1562500000000000000 ) ;
#212 = APPLICATION_CONTEXT ( 'automotive_design' ) ;
#213 = CIRCLE ( 'NONE', #71, 0.1562499999999996947 ) ;
#214 = SURFACE_STYLE_FILL_AREA ( #90 ) ;
#215 = ADVANCED_FACE ( 'NONE', ( #158 ), #372, .T. ) ;
#216 = DIRECTION ( 'NONE',  ( 0.000000000000000000, 0.000000000000000000, -1.000000000000000000 ) ) ;
#217 = SURFACE_SIDE_STYLE ('',( #32 ) ) ;
#218 = EDGE_CURVE ( 'NONE', #39, #75, #262, .T. ) ;
#219 =( GEOMETRIC_REPRESENTATION_CONTEXT ( 3 ) GLOBAL_UNCERTAINTY_ASSIGNED_CONTEXT ( ( #373 ) ) GLOBAL_UNIT_ASSIGNED_CONTEXT ( ( #292, #209, #366 ) ) REPRESENTATION_CONTEXT ( 'NONE', 'WORKASPACE' ) );
#220 = DIRECTION ( 'NONE',  ( -1.225583758747666601E-16, 1.000000000000000000, -0.000000000000000000 ) ) ;
#221 = CARTESIAN_POINT ( 'NONE',  ( 0.1562499999999998612, 2.000000000000000000, 1.913510623667736998E-17 ) ) ;
#222 = CARTESIAN_POINT ( 'NONE',  ( 2.527298022616905960E-16, 0.4374999999999998890, 0.000000000000000000 ) ) ;
#223 = DIRECTION ( 'NONE',  ( -0.000000000000000000, -1.000000000000000000, -0.000000000000000000 ) ) ;
#224 = VERTEX_POINT ( 'NONE', #10 ) ;
#225 = STYLED_ITEM ( 'NONE', ( #253 ), #215 ) ;
#226 = FACE_OUTER_BOUND ( 'NONE', #42, .T. ) ;
#227 = ORIENTED_EDGE ( 'NONE', *, *, #83, .T. ) ;
#228 = MANIFOLD_SOLID_BREP ( 'Revolve - Tool Body (Straight Shanked)', #36 ) ;
#229 =( NAMED_UNIT ( * ) SI_UNIT ( $, .STERADIAN. ) SOLID_ANGLE_UNIT ( ) );
#230 = ORIENTED_EDGE ( 'NONE', *, *, #168, .T. ) ;
#231 =( NAMED_UNIT ( * ) PLANE_ANGLE_UNIT ( ) SI_UNIT ( $, .RADIAN. ) );
#232 = VERTEX_POINT ( 'NONE', #352 ) ;
#233 = AXIS2_PLACEMENT_3D ( 'NONE', #343, #54, #293 ) ;
#234 = UNCERTAINTY_MEASURE_WITH_UNIT (LENGTH_MEASURE( 1.000000000000000082E-05 ), #146, 'distance_accuracy_value', 'NONE');
#235 = DIMENSIONAL_EXPONENTS ( 1.000000000000000000, 0.000000000000000000, 0.000000000000000000, 0.000000000000000000, 0.000000000000000000, 0.000000000000000000, 0.000000000000000000 ) ;
#236 = FACE_OUTER_BOUND ( 'NONE', #356, .T. ) ;
#237 = CARTESIAN_POINT ( 'NONE',  ( -1.913510623667739771E-17, 0.1562500000000000278, 0.000000000000000000 ) ) ;
#238 = STYLED_ITEM ( 'NONE', ( #120 ), #72 ) ;
#239 = CARTESIAN_POINT ( 'NONE',  ( 2.527298022616905960E-16, 0.4374999999999998890, 0.000000000000000000 ) ) ;
#240 = UNCERTAINTY_MEASURE_WITH_UNIT (LENGTH_MEASURE( 1.000000000000000082E-05 ), #316, 'distance_accuracy_value', 'NONE');
#241 = VECTOR ( 'NONE', #249, 39.37007874015748143 ) ;
#242 = CIRCLE ( 'NONE', #273, 0.1562500000000000000 ) ;
#243 = PLANE ( 'NONE',  #156 ) ;
#244 = LENGTH_MEASURE_WITH_UNIT ( LENGTH_MEASURE( 0.02539999999999999897 ), #163 );
#245 = VECTOR ( 'NONE', #139, 39.37007874015748143 ) ;
#246 = LINE ( 'NONE', #221, #342 ) ;
#247 = ADVANCED_FACE ( 'NONE', ( #102 ), #357, .T. ) ;
#248 = CARTESIAN_POINT ( 'NONE',  ( 1.913510623667738847E-17, 0.4375000000000000000, 0.1562499999999999722 ) ) ;
#249 = DIRECTION ( 'NONE',  ( -0.000000000000000000, -1.000000000000000000, -0.000000000000000000 ) ) ;
#250 = SURFACE_SIDE_STYLE ('',( #214 ) ) ;
#251 = ORIENTED_EDGE ( 'NONE', *, *, #159, .F. ) ;
#252 =( LENGTH_UNIT ( ) NAMED_UNIT ( * ) SI_UNIT ( $, .METRE. ) );
#253 = PRESENTATION_STYLE_ASSIGNMENT (( #194 ) ) ;
#254 = ORIENTED_EDGE ( 'NONE', *, *, #192, .T. ) ;
#255 = SHAPE_DEFINITION_REPRESENTATION ( #85, #300 ) ;
#256 = CARTESIAN_POINT ( 'NONE',  ( -1.913510623667739771E-17, 0.1562500000000000278, 0.000000000000000000 ) ) ;
#257 = ORIENTED_EDGE ( 'NONE', *, *, #320, .T. ) ;
#258 = LENGTH_MEASURE_WITH_UNIT ( LENGTH_MEASURE( 0.02539999999999999897 ), #252 );
#259 = AXIS2_PLACEMENT_3D ( 'NONE', #303, #40, #38 ) ;
#260 = DIRECTION ( 'NONE',  ( 0.000000000000000000, 0.000000000000000000, 1.000000000000000000 ) ) ;
#261 = DIMENSIONAL_EXPONENTS ( 1.000000000000000000, 0.000000000000000000, 0.000000000000000000, 0.000000000000000000, 0.000000000000000000, 0.000000000000000000, 0.000000000000000000 ) ;
#262 = CIRCLE ( 'NONE', #105, 0.1562499999999999722 ) ;
#263 = EDGE_CURVE ( 'NONE', #111, #285, #104, .T. ) ;
#264 = AXIS2_PLACEMENT_3D ( 'NONE', #61, #95, #350 ) ;
#265 = FILL_AREA_STYLE_COLOUR ( '', #131 ) ;
#266 = CARTESIAN_POINT ( 'NONE',  ( 1.913510623667739463E-17, 0.000000000000000000, 0.1562500000000000000 ) ) ;
#267 = CARTESIAN_POINT ( 'NONE',  ( -1.913510623667739771E-17, 0.1562500000000000278, 0.000000000000000000 ) ) ;
#268 = STYLED_ITEM ( 'NONE', ( #141 ), #228 ) ;
#269 = CYLINDRICAL_SURFACE ( 'NONE', #369, 0.1562500000000000000 ) ;
#270 = ADVANCED_FACE ( 'NONE', ( #226 ), #351, .T. ) ;
#271 = CARTESIAN_POINT ( 'NONE',  ( 0.1562499999999999722, 2.000000000000000000, 0.000000000000000000 ) ) ;
#272 = PRESENTATION_LAYER_ASSIGNMENT (  '', '', ( #268 ) ) ;
#273 = AXIS2_PLACEMENT_3D ( 'NONE', #301, #164, #63 ) ;
#274 = ORIENTED_EDGE ( 'NONE', *, *, #144, .F. ) ;
#275 = FILL_AREA_STYLE_COLOUR ( '', #165 ) ;
#276 = ORIENTED_EDGE ( 'NONE', *, *, #218, .F. ) ;
#277 = DIRECTION ( 'NONE',  ( -0.000000000000000000, -1.000000000000000000, -0.000000000000000000 ) ) ;
#278 = SURFACE_SIDE_STYLE ('',( #41 ) ) ;
#279 = ORIENTED_EDGE ( 'NONE', *, *, #89, .F. ) ;
#280 = CIRCLE ( 'NONE', #22, 0.1562500000000000000 ) ;
#281 = CARTESIAN_POINT ( 'NONE',  ( 0.000000000000000000, 0.000000000000000000, 0.000000000000000000 ) ) ;
#282 = AXIS2_PLACEMENT_3D ( 'NONE', #177, #153, #190 ) ;
#283 = ORIENTED_EDGE ( 'NONE', *, *, #218, .T. ) ;
#284 = SURFACE_SIDE_STYLE ('',( #310 ) ) ;
#285 = VERTEX_POINT ( 'NONE', #31 ) ;
#286 =( CONVERSION_BASED_UNIT ( 'INCH', #258 ) LENGTH_UNIT ( ) NAMED_UNIT ( #290 ) );
#287 =( NAMED_UNIT ( * ) PLANE_ANGLE_UNIT ( ) SI_UNIT ( $, .RADIAN. ) );
#288 = PRESENTATION_LAYER_ASSIGNMENT (  '', '', ( #345 ) ) ;
#289 =( LENGTH_UNIT ( ) NAMED_UNIT ( * ) SI_UNIT ( $, .METRE. ) );
#290 = DIMENSIONAL_EXPONENTS ( 1.000000000000000000, 0.000000000000000000, 0.000000000000000000, 0.000000000000000000, 0.000000000000000000, 0.000000000000000000, 0.000000000000000000 ) ;
#291 = FACE_OUTER_BOUND ( 'NONE', #8, .T. ) ;
#292 =( CONVERSION_BASED_UNIT ( 'INCH', #115 ) LENGTH_UNIT ( ) NAMED_UNIT ( #235 ) );
#293 = DIRECTION ( 'NONE',  ( 0.000000000000000000, -0.000000000000000000, 1.000000000000000000 ) ) ;
#294 =( GEOMETRIC_REPRESENTATION_CONTEXT ( 3 ) GLOBAL_UNCERTAINTY_ASSIGNED_CONTEXT ( ( #33 ) ) GLOBAL_UNIT_ASSIGNED_CONTEXT ( ( #334, #170, #143 ) ) REPRESENTATION_CONTEXT ( 'NONE', 'WORKASPACE' ) );
#295 = DIRECTION ( 'NONE',  ( -1.225583758747666601E-16, 1.000000000000000000, -0.000000000000000000 ) ) ;
#296 = UNCERTAINTY_MEASURE_WITH_UNIT (LENGTH_MEASURE( 1.000000000000000082E-05 ), #160, 'distance_accuracy_value', 'NONE');
#297 = DIRECTION ( 'NONE',  ( 0.000000000000000000, 0.000000000000000000, -1.000000000000000000 ) ) ;
#298 = FACE_OUTER_BOUND ( 'NONE', #339, .T. ) ;
#299 = DIRECTION ( 'NONE',  ( 0.000000000000000000, 0.000000000000000000, -1.000000000000000000 ) ) ;
#300 = ADVANCED_BREP_SHAPE_REPRESENTATION ( '12167', ( #340, #228, #323 ), #122 ) ;
#301 = CARTESIAN_POINT ( 'NONE',  ( 0.000000000000000000, 0.1562500000000000833, 0.000000000000000000 ) ) ;
#302 =( CONVERSION_BASED_UNIT ( 'INCH', #137 ) LENGTH_UNIT ( ) NAMED_UNIT ( #178 ) );
#303 = CARTESIAN_POINT ( 'NONE',  ( 6.123233995736766036E-17, 2.000000000000000000, 0.000000000000000000 ) ) ;
#304 = PRESENTATION_LAYER_ASSIGNMENT (  '', '', ( #225 ) ) ;
#305 = ORIENTED_EDGE ( 'NONE', *, *, #159, .T. ) ;
#306 = EDGE_LOOP ( 'NONE', ( #251, #283, #16, #13, #132 ) ) ;
#307 = ADVANCED_FACE ( 'NONE', ( #68 ), #60, .T. ) ;
#308 = ORIENTED_EDGE ( 'NONE', *, *, #192, .F. ) ;
#309 = FILL_AREA_STYLE ('',( #183 ) ) ;
#310 = SURFACE_STYLE_FILL_AREA ( #201 ) ;
#311 = CIRCLE ( 'NONE', #37, 0.1562499999999996947 ) ;
#312 = EDGE_CURVE ( 'NONE', #355, #199, #211, .T. ) ;
#313 = CARTESIAN_POINT ( 'NONE',  ( -0.1562500000000000278, 0.1562500000000000833, 1.913510623667739463E-17 ) ) ;
#314 = SURFACE_STYLE_USAGE ( .BOTH. , #27 ) ;
#315 = DIMENSIONAL_EXPONENTS ( 1.000000000000000000, 0.000000000000000000, 0.000000000000000000, 0.000000000000000000, 0.000000000000000000, 0.000000000000000000, 0.000000000000000000 ) ;
#316 =( CONVERSION_BASED_UNIT ( 'INCH', #365 ) LENGTH_UNIT ( ) NAMED_UNIT ( #152 ) );
#317 = DIRECTION ( 'NONE',  ( -1.225583758747666601E-16, 1.000000000000000000, 0.000000000000000000 ) ) ;
#318 = AXIS2_PLACEMENT_3D ( 'NONE', #161, #87, #297 ) ;
#319 = CIRCLE ( 'NONE', #264, 0.1562500000000000000 ) ;
#320 = EDGE_CURVE ( 'NONE', #44, #355, #280, .T. ) ;
#321 = CARTESIAN_POINT ( 'NONE',  ( -0.1562499999999994726, 0.4374999999999998890, 0.000000000000000000 ) ) ;
#322 = DIRECTION ( 'NONE',  ( -0.000000000000000000, -1.000000000000000000, -0.000000000000000000 ) ) ;
#323 = AXIS2_PLACEMENT_3D ( 'NONE', #175, #79, #150 ) ;
#324 = UNCERTAINTY_MEASURE_WITH_UNIT (LENGTH_MEASURE( 1.000000000000000082E-05 ), #46, 'distance_accuracy_value', 'NONE');
#325 =( LENGTH_UNIT ( ) NAMED_UNIT ( * ) SI_UNIT ( $, .METRE. ) );
#326 = DIRECTION ( 'NONE',  ( -1.000000000000000000, 0.000000000000000000, 0.000000000000000000 ) ) ;
#327 = ORIENTED_EDGE ( 'NONE', *, *, #58, .F. ) ;
#328 = CIRCLE ( 'NONE', #97, 0.1562499999999999722 ) ;
#329 = LENGTH_MEASURE_WITH_UNIT ( LENGTH_MEASURE( 0.02539999999999999897 ), #167 );
#330 = EDGE_LOOP ( 'NONE', ( #50, #230, #171, #11 ) ) ;
#331 = APPLICATION_PROTOCOL_DEFINITION ( 'draft international standard', 'automotive_design', 1998, #45 ) ;
#332 = VERTEX_POINT ( 'NONE', #101 ) ;
#333 = SURFACE_SIDE_STYLE ('',( #53 ) ) ;
#334 =( CONVERSION_BASED_UNIT ( 'INCH', #329 ) LENGTH_UNIT ( ) NAMED_UNIT ( #315 ) );
#335 = ORIENTED_EDGE ( 'NONE', *, *, #312, .F. ) ;
#336 = EDGE_CURVE ( 'NONE', #75, #44, #99, .T. ) ;
#337 = COLOUR_RGB ( '',0.7921568627450980005, 0.8196078431372548767, 0.9333333333333333481 ) ;
#338 =( NAMED_UNIT ( * ) SI_UNIT ( $, .STERADIAN. ) SOLID_ANGLE_UNIT ( ) );
#339 = EDGE_LOOP ( 'NONE', ( #74, #305, #335, #70, #173 ) ) ;
#340 = MANIFOLD_SOLID_BREP ( 'Revolve - Cutting Edge', #133 ) ;
#341 = DIRECTION ( 'NONE',  ( -1.000000000000000000, 0.000000000000000000, 0.000000000000000000 ) ) ;
#342 = VECTOR ( 'NONE', #59, 39.37007874015748143 ) ;
#343 = CARTESIAN_POINT ( 'NONE',  ( 0.000000000000000000, 0.4375000000000000000, 0.000000000000000000 ) ) ;
#344 =( NAMED_UNIT ( * ) SI_UNIT ( $, .STERADIAN. ) SOLID_ANGLE_UNIT ( ) );
#345 = STYLED_ITEM ( 'NONE', ( #49 ), #270 ) ;
#346 = FILL_AREA_STYLE_COLOUR ( '', #169 ) ;
#347 = DIRECTION ( 'NONE',  ( 1.000000000000000000, 1.225583758747666601E-16, 0.000000000000000000 ) ) ;
#348 = CIRCLE ( 'NONE', #91, 0.1562499999999999167 ) ;
#349 = DIRECTION ( 'NONE',  ( 1.000000000000000000, 0.000000000000000000, 0.000000000000000000 ) ) ;
#350 = DIRECTION ( 'NONE',  ( 0.000000000000000000, 0.000000000000000000, -1.000000000000000000 ) ) ;
#351 = SPHERICAL_SURFACE ( 'NONE', #113, 0.1562500000000000278 ) ;
#352 = CARTESIAN_POINT ( 'NONE',  ( -9.567553118338698857E-18, 0.000000000000000000, 0.000000000000000000 ) ) ;
#353 = CARTESIAN_POINT ( 'NONE',  ( 0.000000000000000000, 0.1562500000000000833, -0.1562500000000000000 ) ) ;
#354 = CARTESIAN_POINT ( 'NONE',  ( 6.123233995736766036E-17, 2.000000000000000000, 0.000000000000000000 ) ) ;
#355 = VERTEX_POINT ( 'NONE', #77 ) ;
#356 = EDGE_LOOP ( 'NONE', ( #176, #327 ) ) ;
#357 = CYLINDRICAL_SURFACE ( 'NONE', #6, 0.1562499999999998057 ) ;
#358 = DIRECTION ( 'NONE',  ( 0.000000000000000000, 0.000000000000000000, -1.000000000000000000 ) ) ;
#359 = PRODUCT_RELATED_PRODUCT_CATEGORY ( 'part', '', ( #186 ) ) ;
#360 = PRESENTATION_STYLE_ASSIGNMENT (( #17 ) ) ;
#361 = COLOUR_RGB ( '',1.000000000000000000, 0.000000000000000000, 0.000000000000000000 ) ;
#362 = CIRCLE ( 'NONE', #282, 0.1562499999999999167 ) ;
#363 = UNCERTAINTY_MEASURE_WITH_UNIT (LENGTH_MEASURE( 1.000000000000000082E-05 ), #302, 'distance_accuracy_value', 'NONE');
#364 = APPLICATION_PROTOCOL_DEFINITION ( 'draft international standard', 'automotive_design', 1998, #212 ) ;
#365 = LENGTH_MEASURE_WITH_UNIT ( LENGTH_MEASURE( 0.02539999999999999897 ), #25 );
#366 =( NAMED_UNIT ( * ) SI_UNIT ( $, .STERADIAN. ) SOLID_ANGLE_UNIT ( ) );
#367 = PRODUCT_DEFINITION_FORMATION_WITH_SPECIFIED_SOURCE ( 'ANY', '', #186, .NOT_KNOWN. ) ;
#368 = FILL_AREA_STYLE_COLOUR ( '', #174 ) ;
#369 = AXIS2_PLACEMENT_3D ( 'NONE', #92, #162, #216 ) ;
#370 = STYLED_ITEM ( 'NONE', ( #147 ), #52 ) ;
#371 = FILL_AREA_STYLE ('',( #368 ) ) ;
#372 = CYLINDRICAL_SURFACE ( 'NONE', #56, 0.1562500000000000000 ) ;
#373 = UNCERTAINTY_MEASURE_WITH_UNIT (LENGTH_MEASURE( 1.000000000000000082E-05 ), #292, 'distance_accuracy_value', 'NONE');
ENDSEC;
END-ISO-10303-21;
