ISO-10303-21;
HEADER;
FILE_DESCRIPTION (( 'STEP AP214' ),
    '1' );
FILE_NAME ('83822.STEP',
    '2023-07-05T16:12:20',
    ( '' ),
    ( '' ),
    'SwSTEP 2.0',
    'SolidWorks 2023',
    '' );
FILE_SCHEMA (( 'AUTOMOTIVE_DESIGN' ));
ENDSEC;

DATA;
#1 = STYLED_ITEM ( 'NONE', ( #144 ), #157 ) ;
#2 = DIRECTION ( 'NONE',  ( -1.000000000000000000, -9.106159978880894651E-17, 0.000000000000000000 ) ) ;
#3 = STYLED_ITEM ( 'NONE', ( #178 ), #264 ) ;
#4 = FACE_OUTER_BOUND ( 'NONE', #260, .T. ) ;
#5 = CARTESIAN_POINT ( 'NONE',  ( 0.09375000000000001388, 0.05412658773652713473, 1.148106374200643863E-17 ) ) ;
#6 = FILL_AREA_STYLE_COLOUR ( '', #257 ) ;
#7 = DIRECTION ( 'NONE',  ( -1.214063312457127427E-16, 1.000000000000000000, -0.000000000000000000 ) ) ;
#8 = AXIS2_PLACEMENT_3D ( 'NONE', #48, #217, #244 ) ;
#9 = CARTESIAN_POINT ( 'NONE',  ( -0.09375000000000001388, 2.000000000000000000, 0.000000000000000000 ) ) ;
#10 =( CONVERSION_BASED_UNIT ( 'INCH', #32 ) LENGTH_UNIT ( ) NAMED_UNIT ( #122 ) );
#11 = FILL_AREA_STYLE ('',( #38 ) ) ;
#12 = COLOUR_RGB ( '',1.000000000000000000, 0.000000000000000000, 0.000000000000000000 ) ;
#13 = DIRECTION ( 'NONE',  ( 1.000000000000000000, 0.000000000000000000, 0.000000000000000000 ) ) ;
#14 = ORIENTED_EDGE ( 'NONE', *, *, #69, .F. ) ;
#15 = CARTESIAN_POINT ( 'NONE',  ( 0.000000000000000000, 0.000000000000000000, 0.000000000000000000 ) ) ;
#16 = PRODUCT_DEFINITION ( 'UNKNOWN', '', #41, #70 ) ;
#17 = EDGE_LOOP ( 'NONE', ( #63, #216, #177, #100 ) ) ;
#18 = APPLICATION_PROTOCOL_DEFINITION ( 'draft international standard', 'automotive_design', 1998, #232 ) ;
#19 = DIRECTION ( 'NONE',  ( -1.454037125404963195E-17, -1.000000000000000000, -0.000000000000000000 ) ) ;
#20 = DIRECTION ( 'NONE',  ( -1.000000000000000000, 0.000000000000000000, 0.000000000000000000 ) ) ;
#21 = CIRCLE ( 'NONE', #227, 0.09374999999999981959 ) ;
#22 = UNCERTAINTY_MEASURE_WITH_UNIT (LENGTH_MEASURE( 1.000000000000000082E-05 ), #10, 'distance_accuracy_value', 'NONE');
#23 = SURFACE_SIDE_STYLE ('',( #89 ) ) ;
#24 = SURFACE_SIDE_STYLE ('',( #127 ) ) ;
#25 = MECHANICAL_DESIGN_GEOMETRIC_PRESENTATION_REPRESENTATION (  '', ( #203 ), #77 ) ;
#26 =( NAMED_UNIT ( * ) SI_UNIT ( $, .STERADIAN. ) SOLID_ANGLE_UNIT ( ) );
#27 = DIRECTION ( 'NONE',  ( -1.000000000000000000, 0.000000000000000000, 0.000000000000000000 ) ) ;
#28 = FILL_AREA_STYLE ('',( #6 ) ) ;
#29 = DIRECTION ( 'NONE',  ( -1.000000000000000000, 0.000000000000000000, 0.000000000000000000 ) ) ;
#30 = ADVANCED_FACE ( 'NONE', ( #62 ), #162, .F. ) ;
#31 = AXIS2_PLACEMENT_3D ( 'NONE', #194, #148, #211 ) ;
#32 = LENGTH_MEASURE_WITH_UNIT ( LENGTH_MEASURE( 0.02539999999999999897 ), #150 );
#33 = DIRECTION ( 'NONE',  ( -1.000000000000000000, -9.106159978880894651E-17, 0.000000000000000000 ) ) ;
#34 = AXIS2_PLACEMENT_3D ( 'NONE', #235, #193, #29 ) ;
#35 = CARTESIAN_POINT ( 'NONE',  ( 0.09374999999999998612, 2.000000000000000000, 1.148106374200643555E-17 ) ) ;
#36 = ORIENTED_EDGE ( 'NONE', *, *, #209, .T. ) ;
#37 = CARTESIAN_POINT ( 'NONE',  ( 0.000000000000000000, 0.000000000000000000, 0.000000000000000000 ) ) ;
#38 = FILL_AREA_STYLE_COLOUR ( '', #91 ) ;
#39 = UNCERTAINTY_MEASURE_WITH_UNIT (LENGTH_MEASURE( 1.000000000000000082E-05 ), #84, 'distance_accuracy_value', 'NONE');
#40 = CARTESIAN_POINT ( 'NONE',  ( 5.724555611830564233E-16, 39.37007874015748143, 0.000000000000000000 ) ) ;
#41 = PRODUCT_DEFINITION_FORMATION_WITH_SPECIFIED_SOURCE ( 'ANY', '', #195, .NOT_KNOWN. ) ;
#42 = DIRECTION ( 'NONE',  ( -1.214063312457127427E-16, 1.000000000000000000, 0.000000000000000000 ) ) ;
#43 = UNCERTAINTY_MEASURE_WITH_UNIT (LENGTH_MEASURE( 1.000000000000000082E-05 ), #99, 'distance_accuracy_value', 'NONE');
#44 =( CONVERSION_BASED_UNIT ( 'INCH', #249 ) LENGTH_UNIT ( ) NAMED_UNIT ( #243 ) );
#45 = DIMENSIONAL_EXPONENTS ( 1.000000000000000000, 0.000000000000000000, 0.000000000000000000, 0.000000000000000000, 0.000000000000000000, 0.000000000000000000, 0.000000000000000000 ) ;
#46 = MECHANICAL_DESIGN_GEOMETRIC_PRESENTATION_REPRESENTATION (  '', ( #1 ), #224 ) ;
#47 =( NAMED_UNIT ( * ) PLANE_ANGLE_UNIT ( ) SI_UNIT ( $, .RADIAN. ) );
#48 = CARTESIAN_POINT ( 'NONE',  ( 7.870206804039944582E-19, 0.05412658773652712779, 0.000000000000000000 ) ) ;
#49 = AXIS2_PLACEMENT_3D ( 'NONE', #242, #80, #154 ) ;
#50 = MECHANICAL_DESIGN_GEOMETRIC_PRESENTATION_REPRESENTATION (  '', ( #172 ), #166 ) ;
#51 = SURFACE_STYLE_USAGE ( .BOTH. , #212 ) ;
#52 = EDGE_CURVE ( 'NONE', #124, #198, #241, .T. ) ;
#53 = SURFACE_SIDE_STYLE ('',( #113 ) ) ;
#54 = LINE ( 'NONE', #9, #125 ) ;
#55 = AXIS2_PLACEMENT_3D ( 'NONE', #205, #142, #253 ) ;
#56 =( NAMED_UNIT ( * ) PLANE_ANGLE_UNIT ( ) SI_UNIT ( $, .RADIAN. ) );
#57 = CARTESIAN_POINT ( 'NONE',  ( 1.750090120941169025E-16, 0.05412658773652723881, 0.000000000000000000 ) ) ;
#58 = FACE_OUTER_BOUND ( 'NONE', #183, .T. ) ;
#59 = CARTESIAN_POINT ( 'NONE',  ( 0.000000000000000000, 0.000000000000000000, 0.000000000000000000 ) ) ;
#60 = ADVANCED_FACE ( 'NONE', ( #58 ), #119, .T. ) ;
#61 = DIMENSIONAL_EXPONENTS ( 1.000000000000000000, 0.000000000000000000, 0.000000000000000000, 0.000000000000000000, 0.000000000000000000, 0.000000000000000000, 0.000000000000000000 ) ;
#62 = FACE_OUTER_BOUND ( 'NONE', #85, .T. ) ;
#63 = ORIENTED_EDGE ( 'NONE', *, *, #52, .T. ) ;
#64 = COLOUR_RGB ( '',1.000000000000000000, 0.000000000000000000, 0.000000000000000000 ) ;
#65 = PRESENTATION_LAYER_ASSIGNMENT (  '', '', ( #203 ) ) ;
#66 = PLANE ( 'NONE',  #156 ) ;
#67 = FILL_AREA_STYLE_COLOUR ( '', #64 ) ;
#68 = LENGTH_MEASURE_WITH_UNIT ( LENGTH_MEASURE( 0.02539999999999999897 ), #187 );
#69 = EDGE_CURVE ( 'NONE', #78, #153, #103, .T. ) ;
#70 = PRODUCT_DEFINITION_CONTEXT ( 'detailed design', #137, 'design' ) ;
#71 = DIRECTION ( 'NONE',  ( 1.000000000000000000, 1.214063312457127427E-16, 0.000000000000000000 ) ) ;
#72 =( NAMED_UNIT ( * ) PLANE_ANGLE_UNIT ( ) SI_UNIT ( $, .RADIAN. ) );
#73 =( NAMED_UNIT ( * ) PLANE_ANGLE_UNIT ( ) SI_UNIT ( $, .RADIAN. ) );
#74 = FILL_AREA_STYLE ('',( #254 ) ) ;
#75 =( NAMED_UNIT ( * ) SI_UNIT ( $, .STERADIAN. ) SOLID_ANGLE_UNIT ( ) );
#76 = ADVANCED_BREP_SHAPE_REPRESENTATION ( '83822', ( #264, #182, #104 ), #225 ) ;
#77 =( GEOMETRIC_REPRESENTATION_CONTEXT ( 3 ) GLOBAL_UNCERTAINTY_ASSIGNED_CONTEXT ( ( #199 ) ) GLOBAL_UNIT_ASSIGNED_CONTEXT ( ( #114, #72, #128 ) ) REPRESENTATION_CONTEXT ( 'NONE', 'WORKASPACE' ) );
#78 = VERTEX_POINT ( 'NONE', #37 ) ;
#79 = SURFACE_STYLE_FILL_AREA ( #11 ) ;
#80 = DIRECTION ( 'NONE',  ( -1.214063312457127427E-16, 1.000000000000000000, -0.000000000000000000 ) ) ;
#81 = SHAPE_DEFINITION_REPRESENTATION ( #117, #76 ) ;
#82 = ORIENTED_EDGE ( 'NONE', *, *, #265, .F. ) ;
#83 = FACE_OUTER_BOUND ( 'NONE', #121, .T. ) ;
#84 =( CONVERSION_BASED_UNIT ( 'INCH', #202 ) LENGTH_UNIT ( ) NAMED_UNIT ( #45 ) );
#85 = EDGE_LOOP ( 'NONE', ( #98, #184 ) ) ;
#86 = FILL_AREA_STYLE_COLOUR ( '', #12 ) ;
#87 = CONICAL_SURFACE ( 'NONE', #55, 68.19097667594041923, 1.047197551196600074 ) ;
#88 = MECHANICAL_DESIGN_GEOMETRIC_PRESENTATION_REPRESENTATION (  '', ( #3 ), #109 ) ;
#89 = SURFACE_STYLE_FILL_AREA ( #163 ) ;
#90 = AXIS2_PLACEMENT_3D ( 'NONE', #57, #133, #33 ) ;
#91 = COLOUR_RGB ( '',0.7921568627450980005, 0.8196078431372548767, 0.9333333333333333481 ) ;
#92 = SURFACE_STYLE_USAGE ( .BOTH. , #53 ) ;
#93 =( GEOMETRIC_REPRESENTATION_CONTEXT ( 3 ) GLOBAL_UNCERTAINTY_ASSIGNED_CONTEXT ( ( #106 ) ) GLOBAL_UNIT_ASSIGNED_CONTEXT ( ( #44, #250, #26 ) ) REPRESENTATION_CONTEXT ( 'NONE', 'WORKASPACE' ) );
#94 = DIMENSIONAL_EXPONENTS ( 1.000000000000000000, 0.000000000000000000, 0.000000000000000000, 0.000000000000000000, 0.000000000000000000, 0.000000000000000000, 0.000000000000000000 ) ;
#95 = DIRECTION ( 'NONE',  ( -1.214063312457127427E-16, 1.000000000000000000, -0.000000000000000000 ) ) ;
#96 = EDGE_LOOP ( 'NONE', ( #107, #237, #158 ) ) ;
#97 = COLOUR_RGB ( '',1.000000000000000000, 0.000000000000000000, 0.000000000000000000 ) ;
#98 = ORIENTED_EDGE ( 'NONE', *, *, #52, .F. ) ;
#99 =( CONVERSION_BASED_UNIT ( 'INCH', #138 ) LENGTH_UNIT ( ) NAMED_UNIT ( #94 ) );
#100 = ORIENTED_EDGE ( 'NONE', *, *, #168, .F. ) ;
#101 = EDGE_CURVE ( 'NONE', #153, #120, #147, .T. ) ;
#102 =( LENGTH_UNIT ( ) NAMED_UNIT ( * ) SI_UNIT ( $, .METRE. ) );
#103 = LINE ( 'NONE', #59, #176 ) ;
#104 = AXIS2_PLACEMENT_3D ( 'NONE', #15, #180, #13 ) ;
#105 = CARTESIAN_POINT ( 'NONE',  ( -6.123233995736763571E-17, 2.000000000000000000, 0.000000000000000000 ) ) ;
#106 = UNCERTAINTY_MEASURE_WITH_UNIT (LENGTH_MEASURE( 1.000000000000000082E-05 ), #44, 'distance_accuracy_value', 'NONE');
#107 = ORIENTED_EDGE ( 'NONE', *, *, #240, .F. ) ;
#108 = CARTESIAN_POINT ( 'NONE',  ( 1.750090120941169025E-16, 0.05412658773652723881, 0.000000000000000000 ) ) ;
#109 =( GEOMETRIC_REPRESENTATION_CONTEXT ( 3 ) GLOBAL_UNCERTAINTY_ASSIGNED_CONTEXT ( ( #43 ) ) GLOBAL_UNIT_ASSIGNED_CONTEXT ( ( #99, #118, #196 ) ) REPRESENTATION_CONTEXT ( 'NONE', 'WORKASPACE' ) );
#110 = CARTESIAN_POINT ( 'NONE',  ( 0.09374999999999998612, 2.000000000000000000, 0.000000000000000000 ) ) ;
#111 = SURFACE_STYLE_USAGE ( .BOTH. , #23 ) ;
#112 = PRESENTATION_LAYER_ASSIGNMENT (  '', '', ( #1 ) ) ;
#113 = SURFACE_STYLE_FILL_AREA ( #74 ) ;
#114 =( CONVERSION_BASED_UNIT ( 'INCH', #151 ) LENGTH_UNIT ( ) NAMED_UNIT ( #61 ) );
#115 = CIRCLE ( 'NONE', #34, 0.09375000000000005551 ) ;
#116 = ADVANCED_FACE ( 'NONE', ( #83 ), #188, .T. ) ;
#117 = PRODUCT_DEFINITION_SHAPE ( 'NONE', 'NONE',  #16 ) ;
#118 =( NAMED_UNIT ( * ) PLANE_ANGLE_UNIT ( ) SI_UNIT ( $, .RADIAN. ) );
#119 = CYLINDRICAL_SURFACE ( 'NONE', #49, 0.09374999999999994449 ) ;
#120 = VERTEX_POINT ( 'NONE', #5 ) ;
#121 = EDGE_LOOP ( 'NONE', ( #14, #179, #36 ) ) ;
#122 = DIMENSIONAL_EXPONENTS ( 1.000000000000000000, 0.000000000000000000, 0.000000000000000000, 0.000000000000000000, 0.000000000000000000, 0.000000000000000000, 0.000000000000000000 ) ;
#123 = PRESENTATION_LAYER_ASSIGNMENT (  '', '', ( #3 ) ) ;
#124 = VERTEX_POINT ( 'NONE', #167 ) ;
#125 = VECTOR ( 'NONE', #190, 39.37007874015748143 ) ;
#126 = EDGE_CURVE ( 'NONE', #198, #124, #21, .T. ) ;
#127 = SURFACE_STYLE_FILL_AREA ( #226 ) ;
#128 =( NAMED_UNIT ( * ) SI_UNIT ( $, .STERADIAN. ) SOLID_ANGLE_UNIT ( ) );
#129 = CYLINDRICAL_SURFACE ( 'NONE', #192, 0.09374999999999994449 ) ;
#130 =( LENGTH_UNIT ( ) NAMED_UNIT ( * ) SI_UNIT ( $, .METRE. ) );
#131 = AXIS2_PLACEMENT_3D ( 'NONE', #40, #206, #27 ) ;
#132 = SURFACE_SIDE_STYLE ('',( #79 ) ) ;
#133 = DIRECTION ( 'NONE',  ( -1.214063312457127427E-16, 1.000000000000000000, -0.000000000000000000 ) ) ;
#134 = PRODUCT_CONTEXT ( 'NONE', #232, 'mechanical' ) ;
#135 = PRODUCT_RELATED_PRODUCT_CATEGORY ( 'part', '', ( #195 ) ) ;
#136 = DIRECTION ( 'NONE',  ( -0.8660254037844397068, 0.4999999999999979461, 0.000000000000000000 ) ) ;
#137 = APPLICATION_CONTEXT ( 'automotive_design' ) ;
#138 = LENGTH_MEASURE_WITH_UNIT ( LENGTH_MEASURE( 0.02539999999999999897 ), #102 );
#139 = ORIENTED_EDGE ( 'NONE', *, *, #159, .T. ) ;
#140 = PRESENTATION_LAYER_ASSIGNMENT (  '', '', ( #172 ) ) ;
#141 = ADVANCED_FACE ( 'NONE', ( #4 ), #66, .F. ) ;
#142 = DIRECTION ( 'NONE',  ( 1.454037125404963195E-17, 1.000000000000000000, 0.000000000000000000 ) ) ;
#143 = CIRCLE ( 'NONE', #31, 0.09375000000000001388 ) ;
#144 = PRESENTATION_STYLE_ASSIGNMENT (( #165 ) ) ;
#145 = CARTESIAN_POINT ( 'NONE',  ( -0.09375000000000001388, 0.05412658773652713473, 0.000000000000000000 ) ) ;
#146 = PLANE ( 'NONE',  #8 ) ;
#147 = CIRCLE ( 'NONE', #197, 0.09375000000000001388 ) ;
#148 = DIRECTION ( 'NONE',  ( -1.454037125404963195E-17, -1.000000000000000000, -0.000000000000000000 ) ) ;
#149 = CARTESIAN_POINT ( 'NONE',  ( -6.123233995736763571E-17, 2.000000000000000000, 0.000000000000000000 ) ) ;
#150 =( LENGTH_UNIT ( ) NAMED_UNIT ( * ) SI_UNIT ( $, .METRE. ) );
#151 = LENGTH_MEASURE_WITH_UNIT ( LENGTH_MEASURE( 0.02539999999999999897 ), #130 );
#152 = STYLED_ITEM ( 'NONE', ( #251 ), #116 ) ;
#153 = VERTEX_POINT ( 'NONE', #145 ) ;
#154 = DIRECTION ( 'NONE',  ( -1.000000000000000000, 0.000000000000000000, 0.000000000000000000 ) ) ;
#155 = ORIENTED_EDGE ( 'NONE', *, *, #255, .T. ) ;
#156 = AXIS2_PLACEMENT_3D ( 'NONE', #110, #230, #71 ) ;
#157 = ADVANCED_FACE ( 'NONE', ( #231 ), #87, .T. ) ;
#158 = ORIENTED_EDGE ( 'NONE', *, *, #101, .T. ) ;
#159 = EDGE_CURVE ( 'NONE', #245, #220, #115, .T. ) ;
#160 = LINE ( 'NONE', #219, #233 ) ;
#161 = UNCERTAINTY_MEASURE_WITH_UNIT (LENGTH_MEASURE( 1.000000000000000082E-05 ), #208, 'distance_accuracy_value', 'NONE');
#162 = PLANE ( 'NONE',  #256 ) ;
#163 = FILL_AREA_STYLE ('',( #86 ) ) ;
#164 = PRESENTATION_LAYER_ASSIGNMENT (  '', '', ( #152 ) ) ;
#165 = SURFACE_STYLE_USAGE ( .BOTH. , #24 ) ;
#166 =( GEOMETRIC_REPRESENTATION_CONTEXT ( 3 ) GLOBAL_UNCERTAINTY_ASSIGNED_CONTEXT ( ( #22 ) ) GLOBAL_UNIT_ASSIGNED_CONTEXT ( ( #10, #73, #75 ) ) REPRESENTATION_CONTEXT ( 'NONE', 'WORKASPACE' ) );
#167 = CARTESIAN_POINT ( 'NONE',  ( -0.09374999999999965306, 0.05412658773652723188, 0.000000000000000000 ) ) ;
#168 = EDGE_CURVE ( 'NONE', #124, #220, #54, .T. ) ;
#169 = CARTESIAN_POINT ( 'NONE',  ( 0.09374999999999998612, 0.05412658773652724575, 1.148106374200643555E-17 ) ) ;
#170 = DIRECTION ( 'NONE',  ( -1.000000000000000000, 0.000000000000000000, 0.000000000000000000 ) ) ;
#171 = CLOSED_SHELL ( 'NONE', ( #116, #229, #157 ) ) ;
#172 = STYLED_ITEM ( 'NONE', ( #191 ), #229 ) ;
#173 = FACE_OUTER_BOUND ( 'NONE', #200, .T. ) ;
#174 = FACE_OUTER_BOUND ( 'NONE', #17, .T. ) ;
#175 = LINE ( 'NONE', #258, #228 ) ;
#176 = VECTOR ( 'NONE', #136, 39.37007874015748854 ) ;
#177 = ORIENTED_EDGE ( 'NONE', *, *, #255, .F. ) ;
#178 = PRESENTATION_STYLE_ASSIGNMENT (( #214 ) ) ;
#179 = ORIENTED_EDGE ( 'NONE', *, *, #240, .T. ) ;
#180 = DIRECTION ( 'NONE',  ( 0.000000000000000000, 0.000000000000000000, 1.000000000000000000 ) ) ;
#181 = ORIENTED_EDGE ( 'NONE', *, *, #168, .T. ) ;
#182 = MANIFOLD_SOLID_BREP ( 'Revolve - Tool Body (Pointed)', #222 ) ;
#183 = EDGE_LOOP ( 'NONE', ( #82, #247, #181, #263 ) ) ;
#184 = ORIENTED_EDGE ( 'NONE', *, *, #126, .F. ) ;
#185 =( NAMED_UNIT ( * ) SI_UNIT ( $, .STERADIAN. ) SOLID_ANGLE_UNIT ( ) );
#186 = DIRECTION ( 'NONE',  ( -1.214063312457127427E-16, 1.000000000000000000, -0.000000000000000000 ) ) ;
#187 =( LENGTH_UNIT ( ) NAMED_UNIT ( * ) SI_UNIT ( $, .METRE. ) );
#188 = CONICAL_SURFACE ( 'NONE', #131, 68.19097667594041923, 1.047197551196600074 ) ;
#189 = AXIS2_PLACEMENT_3D ( 'NONE', #105, #95, #20 ) ;
#190 = DIRECTION ( 'NONE',  ( -1.214063312457127427E-16, 1.000000000000000000, -0.000000000000000000 ) ) ;
#191 = PRESENTATION_STYLE_ASSIGNMENT (( #92 ) ) ;
#192 = AXIS2_PLACEMENT_3D ( 'NONE', #149, #7, #170 ) ;
#193 = DIRECTION ( 'NONE',  ( -1.214063312457127427E-16, 1.000000000000000000, -0.000000000000000000 ) ) ;
#194 = CARTESIAN_POINT ( 'NONE',  ( 7.870206804039944582E-19, 0.05412658773652713473, 0.000000000000000000 ) ) ;
#195 = PRODUCT ( '83822', '83822', '', ( #134 ) ) ;
#196 =( NAMED_UNIT ( * ) SI_UNIT ( $, .STERADIAN. ) SOLID_ANGLE_UNIT ( ) );
#197 = AXIS2_PLACEMENT_3D ( 'NONE', #201, #19, #262 ) ;
#198 = VERTEX_POINT ( 'NONE', #169 ) ;
#199 = UNCERTAINTY_MEASURE_WITH_UNIT (LENGTH_MEASURE( 1.000000000000000082E-05 ), #114, 'distance_accuracy_value', 'NONE');
#200 = EDGE_LOOP ( 'NONE', ( #239, #218 ) ) ;
#201 = CARTESIAN_POINT ( 'NONE',  ( 7.870206804039944582E-19, 0.05412658773652713473, 0.000000000000000000 ) ) ;
#202 = LENGTH_MEASURE_WITH_UNIT ( LENGTH_MEASURE( 0.02539999999999999897 ), #221 );
#203 = STYLED_ITEM ( 'NONE', ( #234 ), #182 ) ;
#204 = DIRECTION ( 'NONE',  ( -1.000000000000000000, -1.214063312457127427E-16, 0.000000000000000000 ) ) ;
#205 = CARTESIAN_POINT ( 'NONE',  ( 5.724555611830564233E-16, 39.37007874015748143, 0.000000000000000000 ) ) ;
#206 = DIRECTION ( 'NONE',  ( 1.454037125404963195E-17, 1.000000000000000000, 0.000000000000000000 ) ) ;
#207 = MECHANICAL_DESIGN_GEOMETRIC_PRESENTATION_REPRESENTATION (  '', ( #152 ), #93 ) ;
#208 =( CONVERSION_BASED_UNIT ( 'INCH', #68 ) LENGTH_UNIT ( ) NAMED_UNIT ( #261 ) );
#209 = EDGE_CURVE ( 'NONE', #120, #153, #143, .T. ) ;
#210 = ADVANCED_FACE ( 'NONE', ( #174 ), #129, .T. ) ;
#211 = DIRECTION ( 'NONE',  ( 1.000000000000000000, 0.000000000000000000, 0.000000000000000000 ) ) ;
#212 = SURFACE_SIDE_STYLE ('',( #252 ) ) ;
#213 = CARTESIAN_POINT ( 'NONE',  ( -0.09375000000000012490, 2.000000000000000000, 0.000000000000000000 ) ) ;
#214 = SURFACE_STYLE_USAGE ( .BOTH. , #132 ) ;
#215 =( NAMED_UNIT ( * ) SI_UNIT ( $, .STERADIAN. ) SOLID_ANGLE_UNIT ( ) );
#216 = ORIENTED_EDGE ( 'NONE', *, *, #265, .T. ) ;
#217 = DIRECTION ( 'NONE',  ( 1.454037125404963195E-17, 1.000000000000000000, 0.000000000000000000 ) ) ;
#218 = ORIENTED_EDGE ( 'NONE', *, *, #209, .F. ) ;
#219 = CARTESIAN_POINT ( 'NONE',  ( 0.000000000000000000, 0.000000000000000000, 0.000000000000000000 ) ) ;
#220 = VERTEX_POINT ( 'NONE', #213 ) ;
#221 =( LENGTH_UNIT ( ) NAMED_UNIT ( * ) SI_UNIT ( $, .METRE. ) );
#222 = CLOSED_SHELL ( 'NONE', ( #210, #30, #60, #141 ) ) ;
#223 = CARTESIAN_POINT ( 'NONE',  ( 1.750090120941168532E-16, 0.05412658773652711391, 0.000000000000000000 ) ) ;
#224 =( GEOMETRIC_REPRESENTATION_CONTEXT ( 3 ) GLOBAL_UNCERTAINTY_ASSIGNED_CONTEXT ( ( #161 ) ) GLOBAL_UNIT_ASSIGNED_CONTEXT ( ( #208, #47, #185 ) ) REPRESENTATION_CONTEXT ( 'NONE', 'WORKASPACE' ) );
#225 =( GEOMETRIC_REPRESENTATION_CONTEXT ( 3 ) GLOBAL_UNCERTAINTY_ASSIGNED_CONTEXT ( ( #39 ) ) GLOBAL_UNIT_ASSIGNED_CONTEXT ( ( #84, #56, #215 ) ) REPRESENTATION_CONTEXT ( 'NONE', 'WORKASPACE' ) );
#226 = FILL_AREA_STYLE ('',( #67 ) ) ;
#227 = AXIS2_PLACEMENT_3D ( 'NONE', #108, #186, #2 ) ;
#228 = VECTOR ( 'NONE', #238, 39.37007874015748143 ) ;
#229 = ADVANCED_FACE ( 'NONE', ( #173 ), #146, .T. ) ;
#230 = DIRECTION ( 'NONE',  ( 1.214063312457127427E-16, -1.000000000000000000, 0.000000000000000000 ) ) ;
#231 = FACE_OUTER_BOUND ( 'NONE', #96, .T. ) ;
#232 = APPLICATION_CONTEXT ( 'automotive_design' ) ;
#233 = VECTOR ( 'NONE', #246, 39.37007874015748854 ) ;
#234 = PRESENTATION_STYLE_ASSIGNMENT (( #51 ) ) ;
#235 = CARTESIAN_POINT ( 'NONE',  ( -6.123233995736763571E-17, 2.000000000000000000, 0.000000000000000000 ) ) ;
#236 = CIRCLE ( 'NONE', #189, 0.09375000000000005551 ) ;
#237 = ORIENTED_EDGE ( 'NONE', *, *, #69, .T. ) ;
#238 = DIRECTION ( 'NONE',  ( -1.214063312457127427E-16, 1.000000000000000000, -0.000000000000000000 ) ) ;
#239 = ORIENTED_EDGE ( 'NONE', *, *, #101, .F. ) ;
#240 = EDGE_CURVE ( 'NONE', #78, #120, #160, .T. ) ;
#241 = CIRCLE ( 'NONE', #90, 0.09374999999999981959 ) ;
#242 = CARTESIAN_POINT ( 'NONE',  ( -6.123233995736763571E-17, 2.000000000000000000, 0.000000000000000000 ) ) ;
#243 = DIMENSIONAL_EXPONENTS ( 1.000000000000000000, 0.000000000000000000, 0.000000000000000000, 0.000000000000000000, 0.000000000000000000, 0.000000000000000000, 0.000000000000000000 ) ;
#244 = DIRECTION ( 'NONE',  ( -1.000000000000000000, 1.454037125404963195E-17, 0.000000000000000000 ) ) ;
#245 = VERTEX_POINT ( 'NONE', #35 ) ;
#246 = DIRECTION ( 'NONE',  ( 0.8660254037844397068, 0.4999999999999979461, 1.060575238724908024E-16 ) ) ;
#247 = ORIENTED_EDGE ( 'NONE', *, *, #126, .T. ) ;
#248 =( LENGTH_UNIT ( ) NAMED_UNIT ( * ) SI_UNIT ( $, .METRE. ) );
#249 = LENGTH_MEASURE_WITH_UNIT ( LENGTH_MEASURE( 0.02539999999999999897 ), #248 );
#250 =( NAMED_UNIT ( * ) PLANE_ANGLE_UNIT ( ) SI_UNIT ( $, .RADIAN. ) );
#251 = PRESENTATION_STYLE_ASSIGNMENT (( #111 ) ) ;
#252 = SURFACE_STYLE_FILL_AREA ( #28 ) ;
#253 = DIRECTION ( 'NONE',  ( -1.000000000000000000, 0.000000000000000000, 0.000000000000000000 ) ) ;
#254 = FILL_AREA_STYLE_COLOUR ( '', #97 ) ;
#255 = EDGE_CURVE ( 'NONE', #220, #245, #236, .T. ) ;
#256 = AXIS2_PLACEMENT_3D ( 'NONE', #223, #42, #204 ) ;
#257 = COLOUR_RGB ( '',0.7921568627450980005, 0.8196078431372548767, 0.9333333333333333481 ) ;
#258 = CARTESIAN_POINT ( 'NONE',  ( 0.09374999999999987510, 2.000000000000000000, 1.148106374200642938E-17 ) ) ;
#259 = APPLICATION_PROTOCOL_DEFINITION ( 'draft international standard', 'automotive_design', 1998, #137 ) ;
#260 = EDGE_LOOP ( 'NONE', ( #155, #139 ) ) ;
#261 = DIMENSIONAL_EXPONENTS ( 1.000000000000000000, 0.000000000000000000, 0.000000000000000000, 0.000000000000000000, 0.000000000000000000, 0.000000000000000000, 0.000000000000000000 ) ;
#262 = DIRECTION ( 'NONE',  ( 1.000000000000000000, 0.000000000000000000, 0.000000000000000000 ) ) ;
#263 = ORIENTED_EDGE ( 'NONE', *, *, #159, .F. ) ;
#264 = MANIFOLD_SOLID_BREP ( 'Revolve - Cutting Edge', #171 ) ;
#265 = EDGE_CURVE ( 'NONE', #198, #245, #175, .T. ) ;
ENDSEC;
END-ISO-10303-21;
