ISO-10303-21;
HEADER;
FILE_DESCRIPTION (( 'STEP AP214' ),
    '1' );
FILE_NAME ('Micro_GEM-281-4X.STEP',
    '2021-09-01T20:28:06',
    ( '' ),
    ( '' ),
    'SwSTEP 2.0',
    'SolidWorks 2020',
    '' );
FILE_SCHEMA (( 'AUTOMOTIVE_DESIGN' ));
ENDSEC;

DATA;
#1 = EDGE_LOOP ( 'NONE', ( #258, #228, #65, #67 ) ) ;
#2 = CARTESIAN_POINT ( 'NONE',  ( 0.0000000000000000000, 0.0000000000000000000, 2.500000000000000000 ) ) ;
#3 = DIRECTION ( 'NONE',  ( -1.000000000000000000, 0.0000000000000000000, 1.224646799147353207E-16 ) ) ;
#4 = CIRCLE ( 'NONE', #34, 0.1404594000000000120 ) ;
#5 = ADVANCED_FACE ( 'NONE', ( #277 ), #35, .T. ) ;
#6 = CARTESIAN_POINT ( 'NONE',  ( 0.1562500000000001110, 1.913510623667740388E-17, 0.8395529427008548984 ) ) ;
#7 = ADVANCED_FACE ( 'NONE', ( #151 ), #250, .T. ) ;
#8 = EDGE_CURVE ( 'NONE', #199, #93, #38, .T. ) ;
#9 = CIRCLE ( 'NONE', #262, 0.1562500000000000000 ) ;
#10 = DIRECTION ( 'NONE',  ( 0.0000000000000000000, 0.0000000000000000000, 1.000000000000000000 ) ) ;
#11 = DIRECTION ( 'NONE',  ( -1.224646799147353207E-16, -0.0000000000000000000, -1.000000000000000000 ) ) ;
#12 = DIRECTION ( 'NONE',  ( -1.224646799147353207E-16, -0.0000000000000000000, -1.000000000000000000 ) ) ;
#13 = DIRECTION ( 'NONE',  ( -1.000000000000000000, 0.0000000000000000000, 0.0000000000000000000 ) ) ;
#14 = CIRCLE ( 'NONE', #55, 0.1562500000000000000 ) ;
#15 =( LENGTH_UNIT ( ) NAMED_UNIT ( * ) SI_UNIT ( $, .METRE. ) );
#16 = CARTESIAN_POINT ( 'NONE',  ( 0.0000000000000000000, 0.0000000000000000000, 2.484999999999999432 ) ) ;
#17 = ORIENTED_EDGE ( 'NONE', *, *, #231, .F. ) ;
#18 = DIRECTION ( 'NONE',  ( -0.1736481776669311083, 2.126576849575782084E-17, 0.9848077530122080203 ) ) ;
#19 = AXIS2_PLACEMENT_3D ( 'NONE', #145, #11, #235 ) ;
#20 = ORIENTED_EDGE ( 'NONE', *, *, #58, .T. ) ;
#21 = CARTESIAN_POINT ( 'NONE',  ( 0.0000000000000000000, 0.0000000000000000000, 0.0000000000000000000 ) ) ;
#22 = ORIENTED_EDGE ( 'NONE', *, *, #62, .F. ) ;
#23 = EDGE_LOOP ( 'NONE', ( #22, #45, #89, #48 ) ) ;
#24 = CIRCLE ( 'NONE', #63, 0.1404594000000000120 ) ;
#25 = DIRECTION ( 'NONE',  ( 1.000000000000000000, 0.0000000000000000000, 0.0000000000000000000 ) ) ;
#26 = CARTESIAN_POINT ( 'NONE',  ( 0.1412499999999994871, 1.821662113731684786E-17, 2.500000000000000000 ) ) ;
#27 = SURFACE_STYLE_USAGE ( .BOTH. , #233 ) ;
#28 = CARTESIAN_POINT ( 'NONE',  ( 9.184850993605150903E-17, 0.0000000000000000000, 0.7500000000000001110 ) ) ;
#29 = AXIS2_PLACEMENT_3D ( 'NONE', #204, #186, #71 ) ;
#30 = LINE ( 'NONE', #167, #224 ) ;
#31 = EDGE_CURVE ( 'NONE', #46, #171, #30, .T. ) ;
#32 =( NAMED_UNIT ( * ) SI_UNIT ( $, .STERADIAN. ) SOLID_ANGLE_UNIT ( ) );
#33 = UNCERTAINTY_MEASURE_WITH_UNIT (LENGTH_MEASURE( 1.000000000000000082E-05 ), #255, 'distance_accuracy_value', 'NONE');
#34 = AXIS2_PLACEMENT_3D ( 'NONE', #278, #210, #3 ) ;
#35 = CYLINDRICAL_SURFACE ( 'NONE', #218, 0.1562500000000000000 ) ;
#36 = LENGTH_MEASURE_WITH_UNIT ( LENGTH_MEASURE( 0.02539999999999999897 ), #15 );
#37 = DIRECTION ( 'NONE',  ( -1.000000000000000000, 0.0000000000000000000, 0.0000000000000000000 ) ) ;
#38 = CIRCLE ( 'NONE', #242, 0.1412499999999994871 ) ;
#39 =( NAMED_UNIT ( * ) SI_UNIT ( $, .STERADIAN. ) SOLID_ANGLE_UNIT ( ) );
#40 = ADVANCED_FACE ( 'NONE', ( #192 ), #201, .T. ) ;
#41 = DIRECTION ( 'NONE',  ( -0.0000000000000000000, -0.0000000000000000000, -1.000000000000000000 ) ) ;
#42 = EDGE_LOOP ( 'NONE', ( #160, #221, #114, #87 ) ) ;
#43 = CYLINDRICAL_SURFACE ( 'NONE', #127, 0.1404594000000000120 ) ;
#44 = VECTOR ( 'NONE', #117, 39.37007874015748854 ) ;
#45 = ORIENTED_EDGE ( 'NONE', *, *, #193, .T. ) ;
#46 = VERTEX_POINT ( 'NONE', #51 ) ;
#47 = PRODUCT_DEFINITION ( 'UNKNOWN', '', #138, #211 ) ;
#48 = ORIENTED_EDGE ( 'NONE', *, *, #80, .F. ) ;
#49 = COLOUR_RGB ( '',0.7921568627450980005, 0.8196078431372548767, 0.9333333333333333481 ) ;
#50 = ADVANCED_FACE ( 'NONE', ( #116 ), #146, .T. ) ;
#51 = CARTESIAN_POINT ( 'NONE',  ( -0.1562500000000000000, 0.0000000000000000000, 2.484999999999999432 ) ) ;
#52 = DIRECTION ( 'NONE',  ( -1.224646799147353207E-16, -0.0000000000000000000, -1.000000000000000000 ) ) ;
#53 =( LENGTH_UNIT ( ) NAMED_UNIT ( * ) SI_UNIT ( $, .METRE. ) );
#54 = CARTESIAN_POINT ( 'NONE',  ( 9.184850993605150903E-17, 0.0000000000000000000, 0.7500000000000001110 ) ) ;
#55 = AXIS2_PLACEMENT_3D ( 'NONE', #16, #66, #157 ) ;
#56 = CIRCLE ( 'NONE', #288, 0.1412499999999994871 ) ;
#57 = CARTESIAN_POINT ( 'NONE',  ( -0.1404594000000000120, 0.0000000000000000000, 3.440263092403155245E-17 ) ) ;
#58 = EDGE_CURVE ( 'NONE', #144, #295, #4, .T. ) ;
#59 = DIRECTION ( 'NONE',  ( 1.000000000000000000, 0.0000000000000000000, 0.0000000000000000000 ) ) ;
#60 = EDGE_CURVE ( 'NONE', #181, #249, #72, .T. ) ;
#61 = SURFACE_STYLE_FILL_AREA ( #265 ) ;
#62 = EDGE_CURVE ( 'NONE', #249, #295, #73, .T. ) ;
#63 = AXIS2_PLACEMENT_3D ( 'NONE', #198, #180, #196 ) ;
#64 = DIRECTION ( 'NONE',  ( -1.224646799147353207E-16, -0.0000000000000000000, -1.000000000000000000 ) ) ;
#65 = ORIENTED_EDGE ( 'NONE', *, *, #132, .T. ) ;
#66 = DIRECTION ( 'NONE',  ( 0.0000000000000000000, 0.0000000000000000000, -1.000000000000000000 ) ) ;
#67 = ORIENTED_EDGE ( 'NONE', *, *, #251, .F. ) ;
#68 = AXIS2_PLACEMENT_3D ( 'NONE', #155, #130, #37 ) ;
#69 = ORIENTED_EDGE ( 'NONE', *, *, #134, .T. ) ;
#70 = APPLICATION_PROTOCOL_DEFINITION ( 'draft international standard', 'automotive_design', 1998, #105 ) ;
#71 = DIRECTION ( 'NONE',  ( 1.000000000000000000, 0.0000000000000000000, 0.0000000000000000000 ) ) ;
#72 = CIRCLE ( 'NONE', #118, 0.1404594000000000120 ) ;
#73 = LINE ( 'NONE', #102, #143 ) ;
#74 = DIRECTION ( 'NONE',  ( -1.000000000000000000, 0.0000000000000000000, 0.0000000000000000000 ) ) ;
#75 = CARTESIAN_POINT ( 'NONE',  ( 0.0000000000000000000, 0.0000000000000000000, 2.500000000000000000 ) ) ;
#76 = SURFACE_STYLE_FILL_AREA ( #99 ) ;
#77 = PRODUCT_RELATED_PRODUCT_CATEGORY ( 'part', '', ( #129 ) ) ;
#78 = UNCERTAINTY_MEASURE_WITH_UNIT (LENGTH_MEASURE( 1.000000000000000082E-05 ), #137, 'distance_accuracy_value', 'NONE');
#79 = DIRECTION ( 'NONE',  ( 0.1736481776669313026, 0.0000000000000000000, 0.9848077530122077983 ) ) ;
#80 = EDGE_CURVE ( 'NONE', #295, #144, #123, .T. ) ;
#81 = PLANE ( 'NONE',  #279 ) ;
#82 = CIRCLE ( 'NONE', #214, 0.1562500000000000000 ) ;
#83 = FACE_OUTER_BOUND ( 'NONE', #197, .T. ) ;
#84 = DIMENSIONAL_EXPONENTS ( 1.000000000000000000, 0.0000000000000000000, 0.0000000000000000000, 0.0000000000000000000, 0.0000000000000000000, 0.0000000000000000000, 0.0000000000000000000 ) ;
#85 = CARTESIAN_POINT ( 'NONE',  ( 0.0000000000000000000, 0.0000000000000000000, 2.484999999999999432 ) ) ;
#86 = CARTESIAN_POINT ( 'NONE',  ( 0.1562500000000000000, 1.913510623667739463E-17, 2.484999999999999432 ) ) ;
#87 = ORIENTED_EDGE ( 'NONE', *, *, #213, .T. ) ;
#88 = CARTESIAN_POINT ( 'NONE',  ( -0.1404593999999999288, 1.816821084934658389E-17, 0.7500000000000001110 ) ) ;
#89 = ORIENTED_EDGE ( 'NONE', *, *, #285, .T. ) ;
#90 = LINE ( 'NONE', #161, #176 ) ;
#91 = DIRECTION ( 'NONE',  ( -0.0000000000000000000, -0.0000000000000000000, -1.000000000000000000 ) ) ;
#92 = EDGE_LOOP ( 'NONE', ( #183, #223, #158, #162 ) ) ;
#93 = VERTEX_POINT ( 'NONE', #26 ) ;
#94 = ORIENTED_EDGE ( 'NONE', *, *, #260, .T. ) ;
#95 = ORIENTED_EDGE ( 'NONE', *, *, #8, .T. ) ;
#96 =( GEOMETRIC_REPRESENTATION_CONTEXT ( 3 ) GLOBAL_UNCERTAINTY_ASSIGNED_CONTEXT ( ( #78 ) ) GLOBAL_UNIT_ASSIGNED_CONTEXT ( ( #137, #152, #39 ) ) REPRESENTATION_CONTEXT ( 'NONE', 'WORKASPACE' ) );
#97 = FACE_OUTER_BOUND ( 'NONE', #202, .T. ) ;
#98 = AXIS2_PLACEMENT_3D ( 'NONE', #212, #10, #142 ) ;
#99 = FILL_AREA_STYLE ('',( #209 ) ) ;
#100 = DIRECTION ( 'NONE',  ( 0.0000000000000000000, 0.0000000000000000000, 1.000000000000000000 ) ) ;
#101 = PRESENTATION_LAYER_ASSIGNMENT (  '', '', ( #187 ) ) ;
#102 = CARTESIAN_POINT ( 'NONE',  ( 0.1404594000000000120, 1.720131546201577623E-17, -1.720131546201577623E-17 ) ) ;
#103 = DIRECTION ( 'NONE',  ( -1.224646799147353207E-16, -0.0000000000000000000, -1.000000000000000000 ) ) ;
#104 = VECTOR ( 'NONE', #18, 39.37007874015747433 ) ;
#105 = APPLICATION_CONTEXT ( 'automotive_design' ) ;
#106 = VERTEX_POINT ( 'NONE', #6 ) ;
#107 = CONICAL_SURFACE ( 'NONE', #229, 0.1412499999999994871, 0.7853981633974391752 ) ;
#108 = SURFACE_STYLE_USAGE ( .BOTH. , #178 ) ;
#109 =( GEOMETRIC_REPRESENTATION_CONTEXT ( 3 ) GLOBAL_UNCERTAINTY_ASSIGNED_CONTEXT ( ( #33 ) ) GLOBAL_UNIT_ASSIGNED_CONTEXT ( ( #255, #205, #115 ) ) REPRESENTATION_CONTEXT ( 'NONE', 'WORKASPACE' ) );
#110 = EDGE_LOOP ( 'NONE', ( #227, #298, #246, #272 ) ) ;
#111 = DIRECTION ( 'NONE',  ( -1.000000000000000000, 0.0000000000000000000, 0.0000000000000000000 ) ) ;
#112 = ORIENTED_EDGE ( 'NONE', *, *, #251, .T. ) ;
#113 = AXIS2_PLACEMENT_3D ( 'NONE', #28, #259, #189 ) ;
#114 = ORIENTED_EDGE ( 'NONE', *, *, #296, .T. ) ;
#115 =( NAMED_UNIT ( * ) SI_UNIT ( $, .STERADIAN. ) SOLID_ANGLE_UNIT ( ) );
#116 = FACE_OUTER_BOUND ( 'NONE', #245, .T. ) ;
#117 = DIRECTION ( 'NONE',  ( -0.7071067811865410224, 0.0000000000000000000, -0.7071067811865539010 ) ) ;
#118 = AXIS2_PLACEMENT_3D ( 'NONE', #54, #163, #74 ) ;
#119 = CARTESIAN_POINT ( 'NONE',  ( 0.0000000000000000000, 0.0000000000000000000, 2.500000000000000000 ) ) ;
#120 = ADVANCED_BREP_SHAPE_REPRESENTATION ( 'Micro_GEM-281-4X', ( #179, #98 ), #109 ) ;
#121 = DIRECTION ( 'NONE',  ( 0.0000000000000000000, 0.0000000000000000000, 1.000000000000000000 ) ) ;
#122 = ADVANCED_FACE ( 'NONE', ( #282 ), #254, .T. ) ;
#123 = CIRCLE ( 'NONE', #292, 0.1404594000000000120 ) ;
#124 = MECHANICAL_DESIGN_GEOMETRIC_PRESENTATION_REPRESENTATION (  '', ( #225 ), #263 ) ;
#125 =( LENGTH_UNIT ( ) NAMED_UNIT ( * ) SI_UNIT ( $, .METRE. ) );
#126 = DIRECTION ( 'NONE',  ( 0.0000000000000000000, 0.0000000000000000000, 1.000000000000000000 ) ) ;
#127 = AXIS2_PLACEMENT_3D ( 'NONE', #21, #194, #287 ) ;
#128 = DIRECTION ( 'NONE',  ( 0.0000000000000000000, 0.0000000000000000000, -1.000000000000000000 ) ) ;
#129 = PRODUCT ( 'Micro_GEM-281-4X', 'Micro_GEM-281-4X', '', ( #276 ) ) ;
#130 = DIRECTION ( 'NONE',  ( 0.0000000000000000000, 0.0000000000000000000, -1.000000000000000000 ) ) ;
#131 = ORIENTED_EDGE ( 'NONE', *, *, #80, .T. ) ;
#132 = EDGE_CURVE ( 'NONE', #199, #46, #234, .T. ) ;
#133 = DIRECTION ( 'NONE',  ( 1.000000000000000000, 0.0000000000000000000, 0.0000000000000000000 ) ) ;
#134 = EDGE_CURVE ( 'NONE', #93, #199, #56, .T. ) ;
#135 = ORIENTED_EDGE ( 'NONE', *, *, #296, .F. ) ;
#136 = VECTOR ( 'NONE', #41, 39.37007874015748143 ) ;
#137 =( CONVERSION_BASED_UNIT ( 'INCH', #36 ) LENGTH_UNIT ( ) NAMED_UNIT ( #239 ) );
#138 = PRODUCT_DEFINITION_FORMATION_WITH_SPECIFIED_SOURCE ( 'ANY', '', #129, .NOT_KNOWN. ) ;
#139 = ORIENTED_EDGE ( 'NONE', *, *, #231, .T. ) ;
#140 = ORIENTED_EDGE ( 'NONE', *, *, #213, .F. ) ;
#141 = ADVANCED_FACE ( 'NONE', ( #97 ), #81, .F. ) ;
#142 = DIRECTION ( 'NONE',  ( 1.000000000000000000, 0.0000000000000000000, 0.0000000000000000000 ) ) ;
#143 = VECTOR ( 'NONE', #52, 39.37007874015748143 ) ;
#144 = VERTEX_POINT ( 'NONE', #57 ) ;
#145 = CARTESIAN_POINT ( 'NONE',  ( 0.0000000000000000000, 0.0000000000000000000, 0.0000000000000000000 ) ) ;
#146 = PLANE ( 'NONE',  #275 ) ;
#147 = EDGE_CURVE ( 'NONE', #171, #106, #195, .T. ) ;
#148 = VECTOR ( 'NONE', #243, 39.37007874015748854 ) ;
#149 = CARTESIAN_POINT ( 'NONE',  ( 2.106553592168149428E-33, 0.0000000000000000000, 1.720131546201577623E-17 ) ) ;
#150 = APPLICATION_CONTEXT ( 'automotive_design' ) ;
#151 = FACE_OUTER_BOUND ( 'NONE', #42, .T. ) ;
#152 =( NAMED_UNIT ( * ) PLANE_ANGLE_UNIT ( ) SI_UNIT ( $, .RADIAN. ) );
#153 = CARTESIAN_POINT ( 'NONE',  ( -0.1412499999999994871, 0.0000000000000000000, 2.500000000000000000 ) ) ;
#154 = CLOSED_SHELL ( 'NONE', ( #122, #40, #172, #284, #5, #50, #248, #7, #280, #141 ) ) ;
#155 = CARTESIAN_POINT ( 'NONE',  ( 0.0000000000000000000, 0.0000000000000000000, 2.500000000000000000 ) ) ;
#156 = EDGE_LOOP ( 'NONE', ( #17, #112, #190, #140 ) ) ;
#157 = DIRECTION ( 'NONE',  ( 1.000000000000000000, 0.0000000000000000000, 0.0000000000000000000 ) ) ;
#158 = ORIENTED_EDGE ( 'NONE', *, *, #260, .F. ) ;
#159 = CONICAL_SURFACE ( 'NONE', #68, 0.1412499999999994871, 0.7853981633974391752 ) ;
#160 = ORIENTED_EDGE ( 'NONE', *, *, #253, .F. ) ;
#161 = CARTESIAN_POINT ( 'NONE',  ( 0.1404594000000000953, 0.0000000000000000000, 0.7500000000000001110 ) ) ;
#162 = ORIENTED_EDGE ( 'NONE', *, *, #132, .F. ) ;
#163 = DIRECTION ( 'NONE',  ( -1.224646799147353207E-16, -0.0000000000000000000, -1.000000000000000000 ) ) ;
#164 = AXIS2_PLACEMENT_3D ( 'NONE', #237, #12, #291 ) ;
#165 = DIRECTION ( 'NONE',  ( -1.000000000000000000, 0.0000000000000000000, 1.224646799147353207E-16 ) ) ;
#166 = CARTESIAN_POINT ( 'NONE',  ( 0.0000000000000000000, 0.0000000000000000000, 0.0000000000000000000 ) ) ;
#167 = CARTESIAN_POINT ( 'NONE',  ( -0.1562500000000000000, 0.0000000000000000000, 2.500000000000000000 ) ) ;
#168 = VECTOR ( 'NONE', #273, 39.37007874015748143 ) ;
#169 = UNCERTAINTY_MEASURE_WITH_UNIT (LENGTH_MEASURE( 1.000000000000000082E-05 ), #215, 'distance_accuracy_value', 'NONE');
#170 = LENGTH_MEASURE_WITH_UNIT ( LENGTH_MEASURE( 0.02539999999999999897 ), #53 );
#171 = VERTEX_POINT ( 'NONE', #174 ) ;
#172 = ADVANCED_FACE ( 'NONE', ( #217 ), #107, .T. ) ;
#173 = CYLINDRICAL_SURFACE ( 'NONE', #177, 0.1562500000000000000 ) ;
#174 = CARTESIAN_POINT ( 'NONE',  ( -0.1562499999999999167, 0.0000000000000000000, 0.8395529427008548984 ) ) ;
#175 = FILL_AREA_STYLE_COLOUR ( '', #283 ) ;
#176 = VECTOR ( 'NONE', #79, 39.37007874015748143 ) ;
#177 = AXIS2_PLACEMENT_3D ( 'NONE', #200, #91, #111 ) ;
#178 = SURFACE_SIDE_STYLE ('',( #61 ) ) ;
#179 = MANIFOLD_SOLID_BREP ( 'Cut-Revolve1', #154 ) ;
#180 = DIRECTION ( 'NONE',  ( -1.224646799147353207E-16, -0.0000000000000000000, -1.000000000000000000 ) ) ;
#181 = VERTEX_POINT ( 'NONE', #88 ) ;
#182 = CARTESIAN_POINT ( 'NONE',  ( -0.1404594000000000120, 0.0000000000000000000, 1.720131546201577623E-17 ) ) ;
#183 = ORIENTED_EDGE ( 'NONE', *, *, #134, .F. ) ;
#184 = ORIENTED_EDGE ( 'NONE', *, *, #253, .T. ) ;
#185 = VERTEX_POINT ( 'NONE', #86 ) ;
#186 = DIRECTION ( 'NONE',  ( 1.224646799147353207E-16, 0.0000000000000000000, 1.000000000000000000 ) ) ;
#187 = STYLED_ITEM ( 'NONE', ( #220 ), #179 ) ;
#188 = PRESENTATION_LAYER_ASSIGNMENT (  '', '', ( #225 ) ) ;
#189 = DIRECTION ( 'NONE',  ( 1.000000000000000000, 0.0000000000000000000, 0.0000000000000000000 ) ) ;
#190 = ORIENTED_EDGE ( 'NONE', *, *, #31, .T. ) ;
#191 = APPLICATION_PROTOCOL_DEFINITION ( 'draft international standard', 'automotive_design', 1998, #150 ) ;
#192 = FACE_OUTER_BOUND ( 'NONE', #252, .T. ) ;
#193 = EDGE_CURVE ( 'NONE', #249, #181, #24, .T. ) ;
#194 = DIRECTION ( 'NONE',  ( -1.224646799147353207E-16, -0.0000000000000000000, -1.000000000000000000 ) ) ;
#195 = CIRCLE ( 'NONE', #164, 0.1562500000000000000 ) ;
#196 = DIRECTION ( 'NONE',  ( -1.000000000000000000, 0.0000000000000000000, 0.0000000000000000000 ) ) ;
#197 = EDGE_LOOP ( 'NONE', ( #94, #139, #270, #293 ) ) ;
#198 = CARTESIAN_POINT ( 'NONE',  ( 9.184850993605150903E-17, 0.0000000000000000000, 0.7500000000000001110 ) ) ;
#199 = VERTEX_POINT ( 'NONE', #153 ) ;
#200 = CARTESIAN_POINT ( 'NONE',  ( 0.0000000000000000000, 0.0000000000000000000, 2.500000000000000000 ) ) ;
#201 = CONICAL_SURFACE ( 'NONE', #113, 0.1404594000000000120, 0.1745329251994338082 ) ;
#202 = EDGE_LOOP ( 'NONE', ( #20, #131 ) ) ;
#203 = SHAPE_DEFINITION_REPRESENTATION ( #244, #120 ) ;
#204 = CARTESIAN_POINT ( 'NONE',  ( 9.184850993605150903E-17, 0.0000000000000000000, 0.7500000000000001110 ) ) ;
#205 =( NAMED_UNIT ( * ) PLANE_ANGLE_UNIT ( ) SI_UNIT ( $, .RADIAN. ) );
#206 = DIRECTION ( 'NONE',  ( 1.000000000000000000, 0.0000000000000000000, 0.0000000000000000000 ) ) ;
#207 = PRESENTATION_STYLE_ASSIGNMENT (( #27 ) ) ;
#208 = DIRECTION ( 'NONE',  ( 1.000000000000000000, 0.0000000000000000000, -0.0000000000000000000 ) ) ;
#209 = FILL_AREA_STYLE_COLOUR ( '', #49 ) ;
#210 = DIRECTION ( 'NONE',  ( -1.224646799147353207E-16, -0.0000000000000000000, -1.000000000000000000 ) ) ;
#211 = PRODUCT_DEFINITION_CONTEXT ( 'detailed design', #105, 'design' ) ;
#212 = CARTESIAN_POINT ( 'NONE',  ( 0.0000000000000000000, 0.0000000000000000000, 0.0000000000000000000 ) ) ;
#213 = EDGE_CURVE ( 'NONE', #106, #171, #9, .T. ) ;
#214 = AXIS2_PLACEMENT_3D ( 'NONE', #85, #128, #133 ) ;
#215 =( CONVERSION_BASED_UNIT ( 'INCH', #240 ) LENGTH_UNIT ( ) NAMED_UNIT ( #289 ) );
#216 = CARTESIAN_POINT ( 'NONE',  ( 0.0000000000000000000, 0.0000000000000000000, 2.500000000000000000 ) ) ;
#217 = FACE_OUTER_BOUND ( 'NONE', #92, .T. ) ;
#218 = AXIS2_PLACEMENT_3D ( 'NONE', #119, #281, #230 ) ;
#219 = LINE ( 'NONE', #271, #148 ) ;
#220 = PRESENTATION_STYLE_ASSIGNMENT (( #108 ) ) ;
#221 = ORIENTED_EDGE ( 'NONE', *, *, #193, .F. ) ;
#222 = LINE ( 'NONE', #294, #104 ) ;
#223 = ORIENTED_EDGE ( 'NONE', *, *, #257, .T. ) ;
#224 = VECTOR ( 'NONE', #256, 39.37007874015748143 ) ;
#225 = STYLED_ITEM ( 'NONE', ( #207 ), #120 ) ;
#226 = CARTESIAN_POINT ( 'NONE',  ( 1.028155823993343290E-16, 0.0000000000000000000, 0.8395529427008548984 ) ) ;
#227 = ORIENTED_EDGE ( 'NONE', *, *, #60, .T. ) ;
#228 = ORIENTED_EDGE ( 'NONE', *, *, #8, .F. ) ;
#229 = AXIS2_PLACEMENT_3D ( 'NONE', #269, #264, #13 ) ;
#230 = DIRECTION ( 'NONE',  ( -1.000000000000000000, 0.0000000000000000000, 0.0000000000000000000 ) ) ;
#231 = EDGE_CURVE ( 'NONE', #185, #106, #241, .T. ) ;
#232 = CARTESIAN_POINT ( 'NONE',  ( -0.1412499999999994871, 0.0000000000000000000, 2.500000000000000000 ) ) ;
#233 = SURFACE_SIDE_STYLE ('',( #76 ) ) ;
#234 = LINE ( 'NONE', #232, #44 ) ;
#235 = DIRECTION ( 'NONE',  ( -1.000000000000000000, 0.0000000000000000000, 1.224646799147353207E-16 ) ) ;
#236 =( NAMED_UNIT ( * ) PLANE_ANGLE_UNIT ( ) SI_UNIT ( $, .RADIAN. ) );
#237 = CARTESIAN_POINT ( 'NONE',  ( 1.028155823993343290E-16, 0.0000000000000000000, 0.8395529427008548984 ) ) ;
#238 = CARTESIAN_POINT ( 'NONE',  ( 0.1562500000000000000, 1.913510623667739463E-17, 2.500000000000000000 ) ) ;
#239 = DIMENSIONAL_EXPONENTS ( 1.000000000000000000, 0.0000000000000000000, 0.0000000000000000000, 0.0000000000000000000, 0.0000000000000000000, 0.0000000000000000000, 0.0000000000000000000 ) ;
#240 = LENGTH_MEASURE_WITH_UNIT ( LENGTH_MEASURE( 0.02539999999999999897 ), #125 );
#241 = LINE ( 'NONE', #238, #136 ) ;
#242 = AXIS2_PLACEMENT_3D ( 'NONE', #75, #121, #25 ) ;
#243 = DIRECTION ( 'NONE',  ( 0.7071067811865410224, 8.659560562354852739E-17, -0.7071067811865539010 ) ) ;
#244 = PRODUCT_DEFINITION_SHAPE ( 'NONE', 'NONE',  #47 ) ;
#245 = EDGE_LOOP ( 'NONE', ( #95, #69 ) ) ;
#246 = ORIENTED_EDGE ( 'NONE', *, *, #58, .F. ) ;
#247 = FACE_OUTER_BOUND ( 'NONE', #23, .T. ) ;
#248 = ADVANCED_FACE ( 'NONE', ( #266 ), #159, .T. ) ;
#249 = VERTEX_POINT ( 'NONE', #290 ) ;
#250 = CONICAL_SURFACE ( 'NONE', #29, 0.1404594000000000120, 0.1745329251994338082 ) ;
#251 = EDGE_CURVE ( 'NONE', #185, #46, #82, .T. ) ;
#252 = EDGE_LOOP ( 'NONE', ( #274, #184, #299, #135 ) ) ;
#253 = EDGE_CURVE ( 'NONE', #181, #171, #222, .T. ) ;
#254 = CYLINDRICAL_SURFACE ( 'NONE', #19, 0.1404594000000000120 ) ;
#255 =( CONVERSION_BASED_UNIT ( 'INCH', #170 ) LENGTH_UNIT ( ) NAMED_UNIT ( #84 ) );
#256 = DIRECTION ( 'NONE',  ( -0.0000000000000000000, -0.0000000000000000000, -1.000000000000000000 ) ) ;
#257 = EDGE_CURVE ( 'NONE', #93, #185, #219, .T. ) ;
#258 = ORIENTED_EDGE ( 'NONE', *, *, #257, .F. ) ;
#259 = DIRECTION ( 'NONE',  ( 1.224646799147353207E-16, 0.0000000000000000000, 1.000000000000000000 ) ) ;
#260 = EDGE_CURVE ( 'NONE', #46, #185, #14, .T. ) ;
#261 = DIRECTION ( 'NONE',  ( 1.000000000000000000, 0.0000000000000000000, -0.0000000000000000000 ) ) ;
#262 = AXIS2_PLACEMENT_3D ( 'NONE', #226, #64, #59 ) ;
#263 =( GEOMETRIC_REPRESENTATION_CONTEXT ( 3 ) GLOBAL_UNCERTAINTY_ASSIGNED_CONTEXT ( ( #169 ) ) GLOBAL_UNIT_ASSIGNED_CONTEXT ( ( #215, #236, #32 ) ) REPRESENTATION_CONTEXT ( 'NONE', 'WORKASPACE' ) );
#264 = DIRECTION ( 'NONE',  ( 0.0000000000000000000, 0.0000000000000000000, -1.000000000000000000 ) ) ;
#265 = FILL_AREA_STYLE ('',( #175 ) ) ;
#266 = FACE_OUTER_BOUND ( 'NONE', #1, .T. ) ;
#267 = MECHANICAL_DESIGN_GEOMETRIC_PRESENTATION_REPRESENTATION (  '', ( #187 ), #96 ) ;
#268 = CARTESIAN_POINT ( 'NONE',  ( 0.1404594000000000120, 1.720131546201577623E-17, 0.0000000000000000000 ) ) ;
#269 = CARTESIAN_POINT ( 'NONE',  ( 0.0000000000000000000, 0.0000000000000000000, 2.500000000000000000 ) ) ;
#270 = ORIENTED_EDGE ( 'NONE', *, *, #147, .F. ) ;
#271 = CARTESIAN_POINT ( 'NONE',  ( 0.1412499999999994871, 1.729813603795630110E-17, 2.500000000000000000 ) ) ;
#272 = ORIENTED_EDGE ( 'NONE', *, *, #285, .F. ) ;
#273 = DIRECTION ( 'NONE',  ( -1.224646799147353207E-16, -0.0000000000000000000, -1.000000000000000000 ) ) ;
#274 = ORIENTED_EDGE ( 'NONE', *, *, #60, .F. ) ;
#275 = AXIS2_PLACEMENT_3D ( 'NONE', #2, #126, #208 ) ;
#276 = PRODUCT_CONTEXT ( 'NONE', #150, 'mechanical' ) ;
#277 = FACE_OUTER_BOUND ( 'NONE', #156, .T. ) ;
#278 = CARTESIAN_POINT ( 'NONE',  ( 2.106553592168149428E-33, 0.0000000000000000000, 1.720131546201577623E-17 ) ) ;
#279 = AXIS2_PLACEMENT_3D ( 'NONE', #166, #100, #261 ) ;
#280 = ADVANCED_FACE ( 'NONE', ( #247 ), #43, .T. ) ;
#281 = DIRECTION ( 'NONE',  ( -0.0000000000000000000, -0.0000000000000000000, -1.000000000000000000 ) ) ;
#282 = FACE_OUTER_BOUND ( 'NONE', #110, .T. ) ;
#283 = COLOUR_RGB ( '',0.7921568627450980005, 0.8196078431372548767, 0.9333333333333333481 ) ;
#284 = ADVANCED_FACE ( 'NONE', ( #83 ), #173, .T. ) ;
#285 = EDGE_CURVE ( 'NONE', #181, #144, #297, .T. ) ;
#286 = DIRECTION ( 'NONE',  ( 0.0000000000000000000, 0.0000000000000000000, 1.000000000000000000 ) ) ;
#287 = DIRECTION ( 'NONE',  ( -1.000000000000000000, 0.0000000000000000000, 1.224646799147353207E-16 ) ) ;
#288 = AXIS2_PLACEMENT_3D ( 'NONE', #216, #286, #206 ) ;
#289 = DIMENSIONAL_EXPONENTS ( 1.000000000000000000, 0.0000000000000000000, 0.0000000000000000000, 0.0000000000000000000, 0.0000000000000000000, 0.0000000000000000000, 0.0000000000000000000 ) ;
#290 = CARTESIAN_POINT ( 'NONE',  ( 0.1404594000000000953, 0.0000000000000000000, 0.7500000000000001110 ) ) ;
#291 = DIRECTION ( 'NONE',  ( 1.000000000000000000, 0.0000000000000000000, 0.0000000000000000000 ) ) ;
#292 = AXIS2_PLACEMENT_3D ( 'NONE', #149, #103, #165 ) ;
#293 = ORIENTED_EDGE ( 'NONE', *, *, #31, .F. ) ;
#294 = CARTESIAN_POINT ( 'NONE',  ( -0.1404593999999999288, 1.720131546201577623E-17, 0.7500000000000001110 ) ) ;
#295 = VERTEX_POINT ( 'NONE', #268 ) ;
#296 = EDGE_CURVE ( 'NONE', #249, #106, #90, .T. ) ;
#297 = LINE ( 'NONE', #182, #168 ) ;
#298 = ORIENTED_EDGE ( 'NONE', *, *, #62, .T. ) ;
#299 = ORIENTED_EDGE ( 'NONE', *, *, #147, .T. ) ;
ENDSEC;
END-ISO-10303-21;
