ISO-10303-21;
HEADER;
FILE_DESCRIPTION (( 'STEP AP214' ),
    '1' );
FILE_NAME ('05472.STEP',
    '2023-06-22T16:08:50',
    ( '' ),
    ( '' ),
    'SwSTEP 2.0',
    'SolidWorks 2023',
    '' );
FILE_SCHEMA (( 'AUTOMOTIVE_DESIGN' ));
ENDSEC;

DATA;
#1 = DIRECTION ( 'NONE',  ( 0.000000000000000000, 0.000000000000000000, -1.000000000000000000 ) ) ;
#2 =( CONVERSION_BASED_UNIT ( 'INCH', #101 ) LENGTH_UNIT ( ) NAMED_UNIT ( #280 ) );
#3 = STYLED_ITEM ( 'NONE', ( #51 ), #145 ) ;
#4 = AXIS2_PLACEMENT_3D ( 'NONE', #139, #279, #264 ) ;
#5 = DIRECTION ( 'NONE',  ( -3.061616997868386099E-17, 1.000000000000000000, -0.000000000000000000 ) ) ;
#6 = PLANE ( 'NONE',  #251 ) ;
#7 = CARTESIAN_POINT ( 'NONE',  ( -6.123233995736772199E-17, 3.000000000000000444, 0.000000000000000000 ) ) ;
#8 = FACE_OUTER_BOUND ( 'NONE', #111, .T. ) ;
#9 = STYLED_ITEM ( 'NONE', ( #42 ), #68 ) ;
#10 = AXIS2_PLACEMENT_3D ( 'NONE', #299, #31, #297 ) ;
#11 =( LENGTH_UNIT ( ) NAMED_UNIT ( * ) SI_UNIT ( $, .METRE. ) );
#12 = DIRECTION ( 'NONE',  ( -0.000000000000000000, -1.000000000000000000, -0.000000000000000000 ) ) ;
#13 = DIMENSIONAL_EXPONENTS ( 1.000000000000000000, 0.000000000000000000, 0.000000000000000000, 0.000000000000000000, 0.000000000000000000, 0.000000000000000000, 0.000000000000000000 ) ;
#14 = FILL_AREA_STYLE_COLOUR ( '', #298 ) ;
#15 = SURFACE_STYLE_FILL_AREA ( #84 ) ;
#16 = SURFACE_SIDE_STYLE ('',( #282 ) ) ;
#17 = CARTESIAN_POINT ( 'NONE',  ( 0.2500000000000000000, 3.000000000000000444, 3.061616997868383634E-17 ) ) ;
#18 = ORIENTED_EDGE ( 'NONE', *, *, #188, .T. ) ;
#19 = AXIS2_PLACEMENT_3D ( 'NONE', #169, #20, #206 ) ;
#20 = DIRECTION ( 'NONE',  ( -0.000000000000000000, -1.000000000000000000, -0.000000000000000000 ) ) ;
#21 = VERTEX_POINT ( 'NONE', #17 ) ;
#22 = UNCERTAINTY_MEASURE_WITH_UNIT (LENGTH_MEASURE( 1.000000000000000082E-05 ), #268, 'distance_accuracy_value', 'NONE');
#23 = AXIS2_PLACEMENT_3D ( 'NONE', #41, #74, #1 ) ;
#24 = DIRECTION ( 'NONE',  ( 0.000000000000000000, 0.000000000000000000, -1.000000000000000000 ) ) ;
#25 =( NAMED_UNIT ( * ) SI_UNIT ( $, .STERADIAN. ) SOLID_ANGLE_UNIT ( ) );
#26 = CARTESIAN_POINT ( 'NONE',  ( 0.2500000000000000000, 1.000000000000000000, 3.061616997868383634E-17 ) ) ;
#27 = VERTEX_POINT ( 'NONE', #64 ) ;
#28 = DIRECTION ( 'NONE',  ( 0.000000000000000000, 1.000000000000000000, 0.000000000000000000 ) ) ;
#29 = ORIENTED_EDGE ( 'NONE', *, *, #201, .F. ) ;
#30 = EDGE_CURVE ( 'NONE', #211, #305, #81, .T. ) ;
#31 = DIRECTION ( 'NONE',  ( -3.061616997868386099E-17, 1.000000000000000000, -0.000000000000000000 ) ) ;
#32 = DIRECTION ( 'NONE',  ( -0.000000000000000000, -1.000000000000000000, -0.000000000000000000 ) ) ;
#33 = UNCERTAINTY_MEASURE_WITH_UNIT (LENGTH_MEASURE( 1.000000000000000082E-05 ), #34, 'distance_accuracy_value', 'NONE');
#34 =( CONVERSION_BASED_UNIT ( 'INCH', #135 ) LENGTH_UNIT ( ) NAMED_UNIT ( #37 ) );
#35 = ORIENTED_EDGE ( 'NONE', *, *, #254, .T. ) ;
#36 =( NAMED_UNIT ( * ) SI_UNIT ( $, .STERADIAN. ) SOLID_ANGLE_UNIT ( ) );
#37 = DIMENSIONAL_EXPONENTS ( 1.000000000000000000, 0.000000000000000000, 0.000000000000000000, 0.000000000000000000, 0.000000000000000000, 0.000000000000000000, 0.000000000000000000 ) ;
#38 = DIRECTION ( 'NONE',  ( 0.000000000000000000, 0.000000000000000000, -1.000000000000000000 ) ) ;
#39 = ORIENTED_EDGE ( 'NONE', *, *, #168, .T. ) ;
#40 = CIRCLE ( 'NONE', #10, 0.2500000000000000000 ) ;
#41 = CARTESIAN_POINT ( 'NONE',  ( 0.000000000000000000, 1.000000000000000000, 0.000000000000000000 ) ) ;
#42 = PRESENTATION_STYLE_ASSIGNMENT (( #234 ) ) ;
#43 =( NAMED_UNIT ( * ) PLANE_ANGLE_UNIT ( ) SI_UNIT ( $, .RADIAN. ) );
#44 = EDGE_CURVE ( 'NONE', #305, #211, #245, .T. ) ;
#45 = FILL_AREA_STYLE ('',( #62 ) ) ;
#46 = PRODUCT_DEFINITION_CONTEXT ( 'detailed design', #266, 'design' ) ;
#47 = STYLED_ITEM ( 'NONE', ( #54 ), #70 ) ;
#48 = VECTOR ( 'NONE', #5, 39.37007874015748143 ) ;
#49 = FILL_AREA_STYLE ('',( #269 ) ) ;
#50 = LINE ( 'NONE', #98, #92 ) ;
#51 = PRESENTATION_STYLE_ASSIGNMENT (( #223 ) ) ;
#52 =( GEOMETRIC_REPRESENTATION_CONTEXT ( 3 ) GLOBAL_UNCERTAINTY_ASSIGNED_CONTEXT ( ( #214 ) ) GLOBAL_UNIT_ASSIGNED_CONTEXT ( ( #271, #53, #25 ) ) REPRESENTATION_CONTEXT ( 'NONE', 'WORKASPACE' ) );
#53 =( NAMED_UNIT ( * ) PLANE_ANGLE_UNIT ( ) SI_UNIT ( $, .RADIAN. ) );
#54 = PRESENTATION_STYLE_ASSIGNMENT (( #71 ) ) ;
#55 = CARTESIAN_POINT ( 'NONE',  ( -6.123233995736772199E-17, 3.000000000000000444, 0.000000000000000000 ) ) ;
#56 = PRESENTATION_LAYER_ASSIGNMENT (  '', '', ( #47 ) ) ;
#57 = MECHANICAL_DESIGN_GEOMETRIC_PRESENTATION_REPRESENTATION (  '', ( #103 ), #224 ) ;
#58 =( NAMED_UNIT ( * ) PLANE_ANGLE_UNIT ( ) SI_UNIT ( $, .RADIAN. ) );
#59 = FACE_OUTER_BOUND ( 'NONE', #166, .T. ) ;
#60 =( NAMED_UNIT ( * ) SI_UNIT ( $, .STERADIAN. ) SOLID_ANGLE_UNIT ( ) );
#61 = ORIENTED_EDGE ( 'NONE', *, *, #30, .T. ) ;
#62 = FILL_AREA_STYLE_COLOUR ( '', #102 ) ;
#63 = ADVANCED_FACE ( 'NONE', ( #143 ), #170, .T. ) ;
#64 = CARTESIAN_POINT ( 'NONE',  ( 3.061616997868383018E-17, 1.000000000000000000, 0.2500000000000000000 ) ) ;
#65 = APPLICATION_CONTEXT ( 'automotive_design' ) ;
#66 = CARTESIAN_POINT ( 'NONE',  ( 0.000000000000000000, 0.000000000000000000, 0.000000000000000000 ) ) ;
#67 = CLOSED_SHELL ( 'NONE', ( #233, #145, #163, #70 ) ) ;
#68 = MANIFOLD_SOLID_BREP ( 'Revolve - Cutting Edge', #67 ) ;
#69 = ORIENTED_EDGE ( 'NONE', *, *, #254, .F. ) ;
#70 = ADVANCED_FACE ( 'NONE', ( #93 ), #261, .T. ) ;
#71 = SURFACE_STYLE_USAGE ( .BOTH. , #309 ) ;
#72 = AXIS2_PLACEMENT_3D ( 'NONE', #124, #242, #24 ) ;
#73 = AXIS2_PLACEMENT_3D ( 'NONE', #231, #134, #132 ) ;
#74 = DIRECTION ( 'NONE',  ( -0.000000000000000000, -1.000000000000000000, -0.000000000000000000 ) ) ;
#75 = PLANE ( 'NONE',  #252 ) ;
#76 = AXIS2_PLACEMENT_3D ( 'NONE', #66, #171, #38 ) ;
#77 = VERTEX_POINT ( 'NONE', #219 ) ;
#78 = SURFACE_STYLE_USAGE ( .BOTH. , #182 ) ;
#79 = CARTESIAN_POINT ( 'NONE',  ( 0.000000000000000000, 0.000000000000000000, 0.000000000000000000 ) ) ;
#80 = DIRECTION ( 'NONE',  ( 0.000000000000000000, 0.000000000000000000, 1.000000000000000000 ) ) ;
#81 = CIRCLE ( 'NONE', #240, 0.2500000000000000000 ) ;
#82 = PRESENTATION_LAYER_ASSIGNMENT (  '', '', ( #286 ) ) ;
#83 = CARTESIAN_POINT ( 'NONE',  ( 0.000000000000000000, 0.000000000000000000, -0.2500000000000000000 ) ) ;
#84 = FILL_AREA_STYLE ('',( #14 ) ) ;
#85 = ORIENTED_EDGE ( 'NONE', *, *, #222, .F. ) ;
#86 = MECHANICAL_DESIGN_GEOMETRIC_PRESENTATION_REPRESENTATION (  '', ( #47 ), #193 ) ;
#87 = PRODUCT_DEFINITION_FORMATION_WITH_SPECIFIED_SOURCE ( 'ANY', '', #281, .NOT_KNOWN. ) ;
#88 = EDGE_LOOP ( 'NONE', ( #114, #152, #199, #192 ) ) ;
#89 = ORIENTED_EDGE ( 'NONE', *, *, #290, .T. ) ;
#90 = ORIENTED_EDGE ( 'NONE', *, *, #109, .T. ) ;
#91 = CARTESIAN_POINT ( 'NONE',  ( 0.000000000000000000, 0.000000000000000000, 0.000000000000000000 ) ) ;
#92 = VECTOR ( 'NONE', #198, 39.37007874015748143 ) ;
#93 = FACE_OUTER_BOUND ( 'NONE', #302, .T. ) ;
#94 =( LENGTH_UNIT ( ) NAMED_UNIT ( * ) SI_UNIT ( $, .METRE. ) );
#95 = LINE ( 'NONE', #244, #48 ) ;
#96 = DIRECTION ( 'NONE',  ( 3.061616997868386099E-17, -1.000000000000000000, 0.000000000000000000 ) ) ;
#97 = STYLED_ITEM ( 'NONE', ( #159 ), #163 ) ;
#98 = CARTESIAN_POINT ( 'NONE',  ( 0.2499999999999999722, 3.000000000000000444, 3.061616997868383634E-17 ) ) ;
#99 = LENGTH_MEASURE_WITH_UNIT ( LENGTH_MEASURE( 0.02539999999999999897 ), #194 );
#100 = ADVANCED_BREP_SHAPE_REPRESENTATION ( '05472', ( #68, #272, #131 ), #52 ) ;
#101 = LENGTH_MEASURE_WITH_UNIT ( LENGTH_MEASURE( 0.02539999999999999897 ), #94 );
#102 = COLOUR_RGB ( '',1.000000000000000000, 0.000000000000000000, 0.000000000000000000 ) ;
#103 = STYLED_ITEM ( 'NONE', ( #225 ), #272 ) ;
#104 = CARTESIAN_POINT ( 'NONE',  ( -0.2500000000000001110, 3.000000000000000444, 0.000000000000000000 ) ) ;
#105 = CYLINDRICAL_SURFACE ( 'NONE', #246, 0.2500000000000000555 ) ;
#106 = DIRECTION ( 'NONE',  ( 1.000000000000000000, 0.000000000000000000, 0.000000000000000000 ) ) ;
#107 = MECHANICAL_DESIGN_GEOMETRIC_PRESENTATION_REPRESENTATION (  '', ( #97 ), #126 ) ;
#108 = DIRECTION ( 'NONE',  ( -3.061616997868386099E-17, 1.000000000000000000, -0.000000000000000000 ) ) ;
#109 = EDGE_CURVE ( 'NONE', #129, #21, #50, .T. ) ;
#110 = SURFACE_STYLE_USAGE ( .BOTH. , #16 ) ;
#111 = EDGE_LOOP ( 'NONE', ( #39, #284 ) ) ;
#112 = COLOUR_RGB ( '',1.000000000000000000, 0.000000000000000000, 0.000000000000000000 ) ;
#113 =( GEOMETRIC_REPRESENTATION_CONTEXT ( 3 ) GLOBAL_UNCERTAINTY_ASSIGNED_CONTEXT ( ( #158 ) ) GLOBAL_UNIT_ASSIGNED_CONTEXT ( ( #292, #177, #179 ) ) REPRESENTATION_CONTEXT ( 'NONE', 'WORKASPACE' ) );
#114 = ORIENTED_EDGE ( 'NONE', *, *, #109, .F. ) ;
#115 = CARTESIAN_POINT ( 'NONE',  ( -0.2500000000000000000, 1.000000000000000000, 0.000000000000000000 ) ) ;
#116 = FILL_AREA_STYLE_COLOUR ( '', #285 ) ;
#117 = PRODUCT_RELATED_PRODUCT_CATEGORY ( 'part', '', ( #281 ) ) ;
#118 = PLANE ( 'NONE',  #241 ) ;
#119 = SURFACE_STYLE_FILL_AREA ( #265 ) ;
#120 = MECHANICAL_DESIGN_GEOMETRIC_PRESENTATION_REPRESENTATION (  '', ( #9 ), #202 ) ;
#121 = DIRECTION ( 'NONE',  ( -0.000000000000000000, -1.000000000000000000, -0.000000000000000000 ) ) ;
#122 = PRESENTATION_LAYER_ASSIGNMENT (  '', '', ( #97 ) ) ;
#123 = UNCERTAINTY_MEASURE_WITH_UNIT (LENGTH_MEASURE( 1.000000000000000082E-05 ), #204, 'distance_accuracy_value', 'NONE');
#124 = CARTESIAN_POINT ( 'NONE',  ( 0.000000000000000000, 0.000000000000000000, 0.000000000000000000 ) ) ;
#125 = MECHANICAL_DESIGN_GEOMETRIC_PRESENTATION_REPRESENTATION (  '', ( #3 ), #113 ) ;
#126 =( GEOMETRIC_REPRESENTATION_CONTEXT ( 3 ) GLOBAL_UNCERTAINTY_ASSIGNED_CONTEXT ( ( #33 ) ) GLOBAL_UNIT_ASSIGNED_CONTEXT ( ( #34, #58, #60 ) ) REPRESENTATION_CONTEXT ( 'NONE', 'WORKASPACE' ) );
#127 = CARTESIAN_POINT ( 'NONE',  ( 0.000000000000000000, 1.000000000000000000, 0.000000000000000000 ) ) ;
#128 =( NAMED_UNIT ( * ) PLANE_ANGLE_UNIT ( ) SI_UNIT ( $, .RADIAN. ) );
#129 = VERTEX_POINT ( 'NONE', #26 ) ;
#130 =( LENGTH_UNIT ( ) NAMED_UNIT ( * ) SI_UNIT ( $, .METRE. ) );
#131 = AXIS2_PLACEMENT_3D ( 'NONE', #79, #80, #106 ) ;
#132 = DIRECTION ( 'NONE',  ( -1.000000000000000000, 0.000000000000000000, 0.000000000000000000 ) ) ;
#133 = UNCERTAINTY_MEASURE_WITH_UNIT (LENGTH_MEASURE( 1.000000000000000082E-05 ), #140, 'distance_accuracy_value', 'NONE');
#134 = DIRECTION ( 'NONE',  ( -3.061616997868386099E-17, 1.000000000000000000, -0.000000000000000000 ) ) ;
#135 = LENGTH_MEASURE_WITH_UNIT ( LENGTH_MEASURE( 0.02539999999999999897 ), #11 );
#136 = ORIENTED_EDGE ( 'NONE', *, *, #183, .F. ) ;
#137 = DIRECTION ( 'NONE',  ( -1.000000000000000000, -3.061616997868386099E-17, 0.000000000000000000 ) ) ;
#138 = ORIENTED_EDGE ( 'NONE', *, *, #183, .T. ) ;
#139 = CARTESIAN_POINT ( 'NONE',  ( 0.000000000000000000, 1.000000000000000000, 0.000000000000000000 ) ) ;
#140 =( CONVERSION_BASED_UNIT ( 'INCH', #287 ) LENGTH_UNIT ( ) NAMED_UNIT ( #13 ) );
#141 = SURFACE_SIDE_STYLE ('',( #119 ) ) ;
#142 = ADVANCED_FACE ( 'NONE', ( #8 ), #6, .F. ) ;
#143 = FACE_OUTER_BOUND ( 'NONE', #88, .T. ) ;
#144 = FACE_OUTER_BOUND ( 'NONE', #293, .T. ) ;
#145 = ADVANCED_FACE ( 'NONE', ( #175 ), #75, .T. ) ;
#146 = APPLICATION_PROTOCOL_DEFINITION ( 'draft international standard', 'automotive_design', 1998, #65 ) ;
#147 = LENGTH_MEASURE_WITH_UNIT ( LENGTH_MEASURE( 0.02539999999999999897 ), #197 );
#148 = CARTESIAN_POINT ( 'NONE',  ( 0.2500000000000000000, 3.000000000000000444, 0.000000000000000000 ) ) ;
#149 = CARTESIAN_POINT ( 'NONE',  ( 0.000000000000000000, 0.000000000000000000, -0.2500000000000000000 ) ) ;
#150 =( NAMED_UNIT ( * ) SI_UNIT ( $, .STERADIAN. ) SOLID_ANGLE_UNIT ( ) );
#151 = AXIS2_PLACEMENT_3D ( 'NONE', #7, #243, #270 ) ;
#152 = ORIENTED_EDGE ( 'NONE', *, *, #201, .T. ) ;
#153 = PRESENTATION_STYLE_ASSIGNMENT (( #200 ) ) ;
#154 = PRODUCT_DEFINITION ( 'UNKNOWN', '', #87, #46 ) ;
#155 = DIRECTION ( 'NONE',  ( -1.000000000000000000, 0.000000000000000000, 0.000000000000000000 ) ) ;
#156 = COLOUR_RGB ( '',0.7921568627450980005, 0.8196078431372548767, 0.9333333333333333481 ) ;
#157 = CARTESIAN_POINT ( 'NONE',  ( 0.000000000000000000, 0.000000000000000000, 0.000000000000000000 ) ) ;
#158 = UNCERTAINTY_MEASURE_WITH_UNIT (LENGTH_MEASURE( 1.000000000000000082E-05 ), #292, 'distance_accuracy_value', 'NONE');
#159 = PRESENTATION_STYLE_ASSIGNMENT (( #78 ) ) ;
#160 = DIMENSIONAL_EXPONENTS ( 1.000000000000000000, 0.000000000000000000, 0.000000000000000000, 0.000000000000000000, 0.000000000000000000, 0.000000000000000000, 0.000000000000000000 ) ;
#161 = DIRECTION ( 'NONE',  ( -3.061616997868386099E-17, 1.000000000000000000, -0.000000000000000000 ) ) ;
#162 = ORIENTED_EDGE ( 'NONE', *, *, #222, .T. ) ;
#163 = ADVANCED_FACE ( 'NONE', ( #247 ), #289, .T. ) ;
#164 = MECHANICAL_DESIGN_GEOMETRIC_PRESENTATION_REPRESENTATION (  '', ( #286 ), #203 ) ;
#165 = DIRECTION ( 'NONE',  ( -1.000000000000000000, 0.000000000000000000, 0.000000000000000000 ) ) ;
#166 = EDGE_LOOP ( 'NONE', ( #89, #138, #226, #85 ) ) ;
#167 = PRODUCT_DEFINITION_SHAPE ( 'NONE', 'NONE',  #154 ) ;
#168 = EDGE_CURVE ( 'NONE', #191, #21, #196, .T. ) ;
#169 = CARTESIAN_POINT ( 'NONE',  ( 0.000000000000000000, 0.000000000000000000, 0.000000000000000000 ) ) ;
#170 = CYLINDRICAL_SURFACE ( 'NONE', #189, 0.2500000000000000555 ) ;
#171 = DIRECTION ( 'NONE',  ( -0.000000000000000000, -1.000000000000000000, -0.000000000000000000 ) ) ;
#172 = DIRECTION ( 'NONE',  ( -3.061616997868386099E-17, 1.000000000000000000, 0.000000000000000000 ) ) ;
#173 = DIRECTION ( 'NONE',  ( -3.061616997868386099E-17, 1.000000000000000000, -0.000000000000000000 ) ) ;
#174 = SURFACE_STYLE_FILL_AREA ( #49 ) ;
#175 = FACE_OUTER_BOUND ( 'NONE', #227, .T. ) ;
#176 =( NAMED_UNIT ( * ) PLANE_ANGLE_UNIT ( ) SI_UNIT ( $, .RADIAN. ) );
#177 =( NAMED_UNIT ( * ) PLANE_ANGLE_UNIT ( ) SI_UNIT ( $, .RADIAN. ) );
#178 = ADVANCED_FACE ( 'NONE', ( #186 ), #105, .T. ) ;
#179 =( NAMED_UNIT ( * ) SI_UNIT ( $, .STERADIAN. ) SOLID_ANGLE_UNIT ( ) );
#180 = DIRECTION ( 'NONE',  ( 0.000000000000000000, -0.000000000000000000, 1.000000000000000000 ) ) ;
#181 = PRODUCT_CONTEXT ( 'NONE', #65, 'mechanical' ) ;
#182 = SURFACE_SIDE_STYLE ('',( #228 ) ) ;
#183 = EDGE_CURVE ( 'NONE', #27, #211, #275, .T. ) ;
#184 = FILL_AREA_STYLE_COLOUR ( '', #291 ) ;
#185 = AXIS2_PLACEMENT_3D ( 'NONE', #55, #108, #155 ) ;
#186 = FACE_OUTER_BOUND ( 'NONE', #300, .T. ) ;
#187 = SURFACE_SIDE_STYLE ('',( #15 ) ) ;
#188 = EDGE_CURVE ( 'NONE', #236, #129, #40, .T. ) ;
#189 = AXIS2_PLACEMENT_3D ( 'NONE', #218, #173, #165 ) ;
#190 = FILL_AREA_STYLE_COLOUR ( '', #156 ) ;
#191 = VERTEX_POINT ( 'NONE', #104 ) ;
#192 = ORIENTED_EDGE ( 'NONE', *, *, #303, .F. ) ;
#193 =( GEOMETRIC_REPRESENTATION_CONTEXT ( 3 ) GLOBAL_UNCERTAINTY_ASSIGNED_CONTEXT ( ( #277 ) ) GLOBAL_UNIT_ASSIGNED_CONTEXT ( ( #2, #128, #150 ) ) REPRESENTATION_CONTEXT ( 'NONE', 'WORKASPACE' ) );
#194 =( LENGTH_UNIT ( ) NAMED_UNIT ( * ) SI_UNIT ( $, .METRE. ) );
#195 = SURFACE_STYLE_FILL_AREA ( #45 ) ;
#196 = CIRCLE ( 'NONE', #185, 0.2500000000000000555 ) ;
#197 =( LENGTH_UNIT ( ) NAMED_UNIT ( * ) SI_UNIT ( $, .METRE. ) );
#198 = DIRECTION ( 'NONE',  ( -3.061616997868386099E-17, 1.000000000000000000, -0.000000000000000000 ) ) ;
#199 = ORIENTED_EDGE ( 'NONE', *, *, #295, .T. ) ;
#200 = SURFACE_STYLE_USAGE ( .BOTH. , #187 ) ;
#201 = EDGE_CURVE ( 'NONE', #129, #236, #273, .T. ) ;
#202 =( GEOMETRIC_REPRESENTATION_CONTEXT ( 3 ) GLOBAL_UNCERTAINTY_ASSIGNED_CONTEXT ( ( #133 ) ) GLOBAL_UNIT_ASSIGNED_CONTEXT ( ( #140, #43, #239 ) ) REPRESENTATION_CONTEXT ( 'NONE', 'WORKASPACE' ) );
#203 =( GEOMETRIC_REPRESENTATION_CONTEXT ( 3 ) GLOBAL_UNCERTAINTY_ASSIGNED_CONTEXT ( ( #123 ) ) GLOBAL_UNIT_ASSIGNED_CONTEXT ( ( #204, #215, #36 ) ) REPRESENTATION_CONTEXT ( 'NONE', 'WORKASPACE' ) );
#204 =( CONVERSION_BASED_UNIT ( 'INCH', #296 ) LENGTH_UNIT ( ) NAMED_UNIT ( #230 ) );
#205 = CYLINDRICAL_SURFACE ( 'NONE', #19, 0.2500000000000000000 ) ;
#206 = DIRECTION ( 'NONE',  ( 0.000000000000000000, 0.000000000000000000, -1.000000000000000000 ) ) ;
#207 = DIMENSIONAL_EXPONENTS ( 1.000000000000000000, 0.000000000000000000, 0.000000000000000000, 0.000000000000000000, 0.000000000000000000, 0.000000000000000000, 0.000000000000000000 ) ;
#208 = ORIENTED_EDGE ( 'NONE', *, *, #188, .F. ) ;
#209 = PRESENTATION_LAYER_ASSIGNMENT (  '', '', ( #9 ) ) ;
#210 = CIRCLE ( 'NONE', #4, 0.2500000000000000000 ) ;
#211 = VERTEX_POINT ( 'NONE', #229 ) ;
#212 = SHAPE_DEFINITION_REPRESENTATION ( #167, #100 ) ;
#213 = ORIENTED_EDGE ( 'NONE', *, *, #44, .T. ) ;
#214 = UNCERTAINTY_MEASURE_WITH_UNIT (LENGTH_MEASURE( 1.000000000000000082E-05 ), #271, 'distance_accuracy_value', 'NONE');
#215 =( NAMED_UNIT ( * ) PLANE_ANGLE_UNIT ( ) SI_UNIT ( $, .RADIAN. ) );
#216 =( LENGTH_UNIT ( ) NAMED_UNIT ( * ) SI_UNIT ( $, .METRE. ) );
#217 = VECTOR ( 'NONE', #278, 39.37007874015748143 ) ;
#218 = CARTESIAN_POINT ( 'NONE',  ( -6.123233995736772199E-17, 3.000000000000000444, 0.000000000000000000 ) ) ;
#219 = CARTESIAN_POINT ( 'NONE',  ( 0.000000000000000000, 1.000000000000000000, -0.2500000000000000000 ) ) ;
#220 =( NAMED_UNIT ( * ) SI_UNIT ( $, .STERADIAN. ) SOLID_ANGLE_UNIT ( ) );
#221 = DIRECTION ( 'NONE',  ( 1.000000000000000000, 3.061616997868386099E-17, 0.000000000000000000 ) ) ;
#222 = EDGE_CURVE ( 'NONE', #77, #305, #249, .T. ) ;
#223 = SURFACE_STYLE_USAGE ( .BOTH. , #267 ) ;
#224 =( GEOMETRIC_REPRESENTATION_CONTEXT ( 3 ) GLOBAL_UNCERTAINTY_ASSIGNED_CONTEXT ( ( #22 ) ) GLOBAL_UNIT_ASSIGNED_CONTEXT ( ( #268, #176, #220 ) ) REPRESENTATION_CONTEXT ( 'NONE', 'WORKASPACE' ) );
#225 = PRESENTATION_STYLE_ASSIGNMENT (( #110 ) ) ;
#226 = ORIENTED_EDGE ( 'NONE', *, *, #44, .F. ) ;
#227 = EDGE_LOOP ( 'NONE', ( #283, #69 ) ) ;
#228 = SURFACE_STYLE_FILL_AREA ( #274 ) ;
#229 = CARTESIAN_POINT ( 'NONE',  ( 3.061616997868383018E-17, 0.000000000000000000, 0.2500000000000000000 ) ) ;
#230 = DIMENSIONAL_EXPONENTS ( 1.000000000000000000, 0.000000000000000000, 0.000000000000000000, 0.000000000000000000, 0.000000000000000000, 0.000000000000000000, 0.000000000000000000 ) ;
#231 = CARTESIAN_POINT ( 'NONE',  ( 7.582401355855259480E-33, 1.000000000000000000, 0.000000000000000000 ) ) ;
#232 = ORIENTED_EDGE ( 'NONE', *, *, #30, .F. ) ;
#233 = ADVANCED_FACE ( 'NONE', ( #59 ), #205, .T. ) ;
#234 = SURFACE_STYLE_USAGE ( .BOTH. , #141 ) ;
#235 = FILL_AREA_STYLE ('',( #190 ) ) ;
#236 = VERTEX_POINT ( 'NONE', #115 ) ;
#237 = AXIS2_PLACEMENT_3D ( 'NONE', #157, #12, #256 ) ;
#238 = DIRECTION ( 'NONE',  ( 0.000000000000000000, 0.000000000000000000, -1.000000000000000000 ) ) ;
#239 =( NAMED_UNIT ( * ) SI_UNIT ( $, .STERADIAN. ) SOLID_ANGLE_UNIT ( ) );
#240 = AXIS2_PLACEMENT_3D ( 'NONE', #91, #121, #238 ) ;
#241 = AXIS2_PLACEMENT_3D ( 'NONE', #304, #172, #137 ) ;
#242 = DIRECTION ( 'NONE',  ( 0.000000000000000000, -1.000000000000000000, -0.000000000000000000 ) ) ;
#243 = DIRECTION ( 'NONE',  ( -3.061616997868386099E-17, 1.000000000000000000, -0.000000000000000000 ) ) ;
#244 = CARTESIAN_POINT ( 'NONE',  ( -0.2500000000000001110, 3.000000000000000444, 0.000000000000000000 ) ) ;
#245 = CIRCLE ( 'NONE', #76, 0.2500000000000000000 ) ;
#246 = AXIS2_PLACEMENT_3D ( 'NONE', #250, #161, #253 ) ;
#247 = FACE_OUTER_BOUND ( 'NONE', #259, .T. ) ;
#248 = ADVANCED_FACE ( 'NONE', ( #144 ), #118, .F. ) ;
#249 = LINE ( 'NONE', #83, #217 ) ;
#250 = CARTESIAN_POINT ( 'NONE',  ( -6.123233995736772199E-17, 3.000000000000000444, 0.000000000000000000 ) ) ;
#251 = AXIS2_PLACEMENT_3D ( 'NONE', #148, #96, #221 ) ;
#252 = AXIS2_PLACEMENT_3D ( 'NONE', #127, #28, #180 ) ;
#253 = DIRECTION ( 'NONE',  ( -1.000000000000000000, 0.000000000000000000, 0.000000000000000000 ) ) ;
#254 = EDGE_CURVE ( 'NONE', #27, #77, #210, .T. ) ;
#255 = CARTESIAN_POINT ( 'NONE',  ( 3.061616997868383018E-17, 0.000000000000000000, 0.2500000000000000000 ) ) ;
#256 = DIRECTION ( 'NONE',  ( 0.000000000000000000, 0.000000000000000000, -1.000000000000000000 ) ) ;
#257 = DIMENSIONAL_EXPONENTS ( 1.000000000000000000, 0.000000000000000000, 0.000000000000000000, 0.000000000000000000, 0.000000000000000000, 0.000000000000000000, 0.000000000000000000 ) ;
#258 = PRESENTATION_LAYER_ASSIGNMENT (  '', '', ( #103 ) ) ;
#259 = EDGE_LOOP ( 'NONE', ( #136, #35, #162, #232 ) ) ;
#260 = ORIENTED_EDGE ( 'NONE', *, *, #295, .F. ) ;
#261 = PLANE ( 'NONE',  #72 ) ;
#262 = PRESENTATION_LAYER_ASSIGNMENT (  '', '', ( #3 ) ) ;
#263 = CIRCLE ( 'NONE', #23, 0.2500000000000000000 ) ;
#264 = DIRECTION ( 'NONE',  ( 0.000000000000000000, 0.000000000000000000, -1.000000000000000000 ) ) ;
#265 = FILL_AREA_STYLE ('',( #116 ) ) ;
#266 = APPLICATION_CONTEXT ( 'automotive_design' ) ;
#267 = SURFACE_SIDE_STYLE ('',( #174 ) ) ;
#268 =( CONVERSION_BASED_UNIT ( 'INCH', #99 ) LENGTH_UNIT ( ) NAMED_UNIT ( #207 ) );
#269 = FILL_AREA_STYLE_COLOUR ( '', #112 ) ;
#270 = DIRECTION ( 'NONE',  ( -1.000000000000000000, 0.000000000000000000, 0.000000000000000000 ) ) ;
#271 =( CONVERSION_BASED_UNIT ( 'INCH', #308 ) LENGTH_UNIT ( ) NAMED_UNIT ( #257 ) );
#272 = MANIFOLD_SOLID_BREP ( 'Revolve - Tool Body (Straight Shanked)', #276 ) ;
#273 = CIRCLE ( 'NONE', #73, 0.2500000000000000000 ) ;
#274 = FILL_AREA_STYLE ('',( #184 ) ) ;
#275 = LINE ( 'NONE', #255, #294 ) ;
#276 = CLOSED_SHELL ( 'NONE', ( #178, #248, #63, #142 ) ) ;
#277 = UNCERTAINTY_MEASURE_WITH_UNIT (LENGTH_MEASURE( 1.000000000000000082E-05 ), #2, 'distance_accuracy_value', 'NONE');
#278 = DIRECTION ( 'NONE',  ( -0.000000000000000000, -1.000000000000000000, -0.000000000000000000 ) ) ;
#279 = DIRECTION ( 'NONE',  ( -0.000000000000000000, -1.000000000000000000, -0.000000000000000000 ) ) ;
#280 = DIMENSIONAL_EXPONENTS ( 1.000000000000000000, 0.000000000000000000, 0.000000000000000000, 0.000000000000000000, 0.000000000000000000, 0.000000000000000000, 0.000000000000000000 ) ;
#281 = PRODUCT ( '05472', '05472', '', ( #181 ) ) ;
#282 = SURFACE_STYLE_FILL_AREA ( #235 ) ;
#283 = ORIENTED_EDGE ( 'NONE', *, *, #290, .F. ) ;
#284 = ORIENTED_EDGE ( 'NONE', *, *, #303, .T. ) ;
#285 = COLOUR_RGB ( '',0.7921568627450980005, 0.8196078431372548767, 0.9333333333333333481 ) ;
#286 = STYLED_ITEM ( 'NONE', ( #153 ), #233 ) ;
#287 = LENGTH_MEASURE_WITH_UNIT ( LENGTH_MEASURE( 0.02539999999999999897 ), #216 );
#288 =( LENGTH_UNIT ( ) NAMED_UNIT ( * ) SI_UNIT ( $, .METRE. ) );
#289 = CYLINDRICAL_SURFACE ( 'NONE', #237, 0.2500000000000000000 ) ;
#290 = EDGE_CURVE ( 'NONE', #77, #27, #263, .T. ) ;
#291 = COLOUR_RGB ( '',1.000000000000000000, 0.000000000000000000, 0.000000000000000000 ) ;
#292 =( CONVERSION_BASED_UNIT ( 'INCH', #147 ) LENGTH_UNIT ( ) NAMED_UNIT ( #160 ) );
#293 = EDGE_LOOP ( 'NONE', ( #208, #29 ) ) ;
#294 = VECTOR ( 'NONE', #32, 39.37007874015748143 ) ;
#295 = EDGE_CURVE ( 'NONE', #236, #191, #95, .T. ) ;
#296 = LENGTH_MEASURE_WITH_UNIT ( LENGTH_MEASURE( 0.02539999999999999897 ), #130 );
#297 = DIRECTION ( 'NONE',  ( -1.000000000000000000, 0.000000000000000000, 0.000000000000000000 ) ) ;
#298 = COLOUR_RGB ( '',1.000000000000000000, 0.000000000000000000, 0.000000000000000000 ) ;
#299 = CARTESIAN_POINT ( 'NONE',  ( 7.582401355855259480E-33, 1.000000000000000000, 0.000000000000000000 ) ) ;
#300 = EDGE_LOOP ( 'NONE', ( #18, #90, #306, #260 ) ) ;
#301 = APPLICATION_PROTOCOL_DEFINITION ( 'draft international standard', 'automotive_design', 1998, #266 ) ;
#302 = EDGE_LOOP ( 'NONE', ( #213, #61 ) ) ;
#303 = EDGE_CURVE ( 'NONE', #21, #191, #307, .T. ) ;
#304 = CARTESIAN_POINT ( 'NONE',  ( 1.171687330204578608E-34, 1.000000000000000000, 0.000000000000000000 ) ) ;
#305 = VERTEX_POINT ( 'NONE', #149 ) ;
#306 = ORIENTED_EDGE ( 'NONE', *, *, #168, .F. ) ;
#307 = CIRCLE ( 'NONE', #151, 0.2500000000000000555 ) ;
#308 = LENGTH_MEASURE_WITH_UNIT ( LENGTH_MEASURE( 0.02539999999999999897 ), #288 );
#309 = SURFACE_SIDE_STYLE ('',( #195 ) ) ;
ENDSEC;
END-ISO-10303-21;
