ISO-10303-21;
HEADER;
FILE_DESCRIPTION (( 'STEP AP214' ),
    '1' );
FILE_NAME ('Micro_RMEM-008-2.STEP',
    '2021-09-01T23:45:06',
    ( '' ),
    ( '' ),
    'SwSTEP 2.0',
    'SolidWorks 2020',
    '' );
FILE_SCHEMA (( 'AUTOMOTIVE_DESIGN' ));
ENDSEC;

DATA;
#1 = CLOSED_SHELL ( 'NONE', ( #266, #100, #222, #259, #220, #282, #115, #299, #51, #13 ) ) ;
#2 = DIMENSIONAL_EXPONENTS ( 1.000000000000000000, 0.0000000000000000000, 0.0000000000000000000, 0.0000000000000000000, 0.0000000000000000000, 0.0000000000000000000, 0.0000000000000000000 ) ;
#3 = VERTEX_POINT ( 'NONE', #42 ) ;
#4 = DIMENSIONAL_EXPONENTS ( 1.000000000000000000, 0.0000000000000000000, 0.0000000000000000000, 0.0000000000000000000, 0.0000000000000000000, 0.0000000000000000000, 0.0000000000000000000 ) ;
#5 = ORIENTED_EDGE ( 'NONE', *, *, #147, .T. ) ;
#6 = SHAPE_DEFINITION_REPRESENTATION ( #7, #72 ) ;
#7 = PRODUCT_DEFINITION_SHAPE ( 'NONE', 'NONE',  #65 ) ;
#8 = ORIENTED_EDGE ( 'NONE', *, *, #292, .F. ) ;
#9 = CIRCLE ( 'NONE', #166, 0.01573225199999999865 ) ;
#10 = VERTEX_POINT ( 'NONE', #133 ) ;
#11 = CARTESIAN_POINT ( 'NONE',  ( 2.359459884030157069E-34, 0.0000000000000000000, 1.926645205517954404E-18 ) ) ;
#12 = DIRECTION ( 'NONE',  ( -1.000000000000000000, 0.0000000000000000000, 1.224646799147353207E-16 ) ) ;
#13 = ADVANCED_FACE ( 'NONE', ( #227 ), #111, .F. ) ;
#14 = AXIS2_PLACEMENT_3D ( 'NONE', #168, #39, #43 ) ;
#15 = DIRECTION ( 'NONE',  ( 0.0000000000000000000, 0.0000000000000000000, -1.000000000000000000 ) ) ;
#16 = DIRECTION ( 'NONE',  ( -1.224646799147353207E-16, -0.0000000000000000000, -1.000000000000000000 ) ) ;
#17 = CARTESIAN_POINT ( 'NONE',  ( 0.0000000000000000000, 0.0000000000000000000, 1.481062999999999574 ) ) ;
#18 = DIRECTION ( 'NONE',  ( -1.000000000000000000, 0.0000000000000000000, 0.0000000000000000000 ) ) ;
#19 = EDGE_CURVE ( 'NONE', #93, #74, #285, .T. ) ;
#20 = AXIS2_PLACEMENT_3D ( 'NONE', #152, #202, #92 ) ;
#21 =( LENGTH_UNIT ( ) NAMED_UNIT ( * ) SI_UNIT ( $, .METRE. ) );
#22 = ORIENTED_EDGE ( 'NONE', *, *, #97, .T. ) ;
#23 = CARTESIAN_POINT ( 'NONE',  ( 1.157144267578351175E-17, 0.0000000000000000000, 0.09448800000000000254 ) ) ;
#24 = DIRECTION ( 'NONE',  ( 0.0000000000000000000, 0.0000000000000000000, 1.000000000000000000 ) ) ;
#25 = APPLICATION_PROTOCOL_DEFINITION ( 'draft international standard', 'automotive_design', 1998, #99 ) ;
#26 = ORIENTED_EDGE ( 'NONE', *, *, #35, .F. ) ;
#27 = CIRCLE ( 'NONE', #58, 0.05905500000000000332 ) ;
#28 = AXIS2_PLACEMENT_3D ( 'NONE', #258, #190, #238 ) ;
#29 = EDGE_LOOP ( 'NONE', ( #66, #279, #117, #183 ) ) ;
#30 = ORIENTED_EDGE ( 'NONE', *, *, #175, .F. ) ;
#31 = EDGE_LOOP ( 'NONE', ( #114, #275, #156, #26 ) ) ;
#32 = CARTESIAN_POINT ( 'NONE',  ( -0.05905500000000000332, 0.0000000000000000000, 1.496062999999999921 ) ) ;
#33 = DIRECTION ( 'NONE',  ( 0.7071067811865482389, 8.659560562354941486E-17, -0.7071067811865469066 ) ) ;
#34 = DIRECTION ( 'NONE',  ( -1.224646799147353207E-16, -0.0000000000000000000, -1.000000000000000000 ) ) ;
#35 = EDGE_CURVE ( 'NONE', #93, #3, #78, .T. ) ;
#36 = COLOUR_RGB ( '',0.7921568627450980005, 0.8196078431372548767, 0.9333333333333333481 ) ;
#37 = LINE ( 'NONE', #140, #192 ) ;
#38 = CARTESIAN_POINT ( 'NONE',  ( 0.01573225200000000906, 0.0000000000000000000, 0.09448800000000000254 ) ) ;
#39 = DIRECTION ( 'NONE',  ( -0.0000000000000000000, -0.0000000000000000000, -1.000000000000000000 ) ) ;
#40 = FACE_OUTER_BOUND ( 'NONE', #49, .T. ) ;
#41 = VECTOR ( 'NONE', #56, 39.37007874015748143 ) ;
#42 = CARTESIAN_POINT ( 'NONE',  ( 0.05905500000000004496, 7.232151672364700045E-18, 0.3401835131082782127 ) ) ;
#43 = DIRECTION ( 'NONE',  ( -1.000000000000000000, 0.0000000000000000000, 0.0000000000000000000 ) ) ;
#44 = UNCERTAINTY_MEASURE_WITH_UNIT (LENGTH_MEASURE( 1.000000000000000082E-05 ), #246, 'distance_accuracy_value', 'NONE');
#45 = LENGTH_MEASURE_WITH_UNIT ( LENGTH_MEASURE( 0.02539999999999999897 ), #21 );
#46 =( GEOMETRIC_REPRESENTATION_CONTEXT ( 3 ) GLOBAL_UNCERTAINTY_ASSIGNED_CONTEXT ( ( #89 ) ) GLOBAL_UNIT_ASSIGNED_CONTEXT ( ( #154, #226, #71 ) ) REPRESENTATION_CONTEXT ( 'NONE', 'WORKASPACE' ) );
#47 =( LENGTH_UNIT ( ) NAMED_UNIT ( * ) SI_UNIT ( $, .METRE. ) );
#48 = ORIENTED_EDGE ( 'NONE', *, *, #207, .T. ) ;
#49 = EDGE_LOOP ( 'NONE', ( #251, #136 ) ) ;
#50 = EDGE_LOOP ( 'NONE', ( #153, #179, #173, #139 ) ) ;
#51 = ADVANCED_FACE ( 'NONE', ( #54 ), #102, .T. ) ;
#52 = VERTEX_POINT ( 'NONE', #142 ) ;
#53 = EDGE_CURVE ( 'NONE', #281, #206, #141, .T. ) ;
#54 = FACE_OUTER_BOUND ( 'NONE', #29, .T. ) ;
#55 = DIRECTION ( 'NONE',  ( -1.224646799147353207E-16, -0.0000000000000000000, -1.000000000000000000 ) ) ;
#56 = DIRECTION ( 'NONE',  ( -1.224646799147353207E-16, -0.0000000000000000000, -1.000000000000000000 ) ) ;
#57 = CARTESIAN_POINT ( 'NONE',  ( 0.0000000000000000000, 0.0000000000000000000, 1.496062999999999921 ) ) ;
#58 = AXIS2_PLACEMENT_3D ( 'NONE', #77, #286, #161 ) ;
#59 = DIRECTION ( 'NONE',  ( 1.000000000000000000, 0.0000000000000000000, 0.0000000000000000000 ) ) ;
#60 = CYLINDRICAL_SURFACE ( 'NONE', #14, 0.05905500000000000332 ) ;
#61 = DIRECTION ( 'NONE',  ( -1.224646799147353207E-16, -0.0000000000000000000, -1.000000000000000000 ) ) ;
#62 = FACE_OUTER_BOUND ( 'NONE', #50, .T. ) ;
#63 = CIRCLE ( 'NONE', #81, 0.04405499999999973326 ) ;
#64 = PRODUCT_DEFINITION_CONTEXT ( 'detailed design', #99, 'design' ) ;
#65 = PRODUCT_DEFINITION ( 'UNKNOWN', '', #127, #64 ) ;
#66 = ORIENTED_EDGE ( 'NONE', *, *, #19, .F. ) ;
#67 = CIRCLE ( 'NONE', #278, 0.04405499999999973326 ) ;
#68 = FILL_AREA_STYLE ('',( #274 ) ) ;
#69 = EDGE_LOOP ( 'NONE', ( #255, #48 ) ) ;
#70 = ORIENTED_EDGE ( 'NONE', *, *, #145, .T. ) ;
#71 =( NAMED_UNIT ( * ) SI_UNIT ( $, .STERADIAN. ) SOLID_ANGLE_UNIT ( ) );
#72 = ADVANCED_BREP_SHAPE_REPRESENTATION ( 'Micro_RMEM-008-2', ( #280, #20 ), #263 ) ;
#73 = ORIENTED_EDGE ( 'NONE', *, *, #250, .T. ) ;
#74 = VERTEX_POINT ( 'NONE', #216 ) ;
#75 = LINE ( 'NONE', #144, #188 ) ;
#76 = AXIS2_PLACEMENT_3D ( 'NONE', #212, #55, #82 ) ;
#77 = CARTESIAN_POINT ( 'NONE',  ( 4.166046504507545479E-17, 0.0000000000000000000, 0.3401835131082782127 ) ) ;
#78 = LINE ( 'NONE', #236, #165 ) ;
#79 = CARTESIAN_POINT ( 'NONE',  ( -0.01573225199999998825, 4.579398438941324335E-18, 0.09448800000000000254 ) ) ;
#80 = AXIS2_PLACEMENT_3D ( 'NONE', #104, #34, #96 ) ;
#81 = AXIS2_PLACEMENT_3D ( 'NONE', #164, #262, #233 ) ;
#82 = DIRECTION ( 'NONE',  ( -1.000000000000000000, 0.0000000000000000000, 0.0000000000000000000 ) ) ;
#83 = SURFACE_STYLE_USAGE ( .BOTH. , #291 ) ;
#84 = CARTESIAN_POINT ( 'NONE',  ( 2.359459884030157069E-34, 0.0000000000000000000, 1.926645205517954404E-18 ) ) ;
#85 = DIRECTION ( 'NONE',  ( -0.7071067811865482389, 0.0000000000000000000, -0.7071067811865469066 ) ) ;
#86 = PRESENTATION_LAYER_ASSIGNMENT (  '', '', ( #284 ) ) ;
#87 = EDGE_LOOP ( 'NONE', ( #94, #211, #73, #109 ) ) ;
#88 = CARTESIAN_POINT ( 'NONE',  ( -0.04405499999999973326, 0.0000000000000000000, 1.496062999999999921 ) ) ;
#89 = UNCERTAINTY_MEASURE_WITH_UNIT (LENGTH_MEASURE( 1.000000000000000082E-05 ), #154, 'distance_accuracy_value', 'NONE');
#90 = MECHANICAL_DESIGN_GEOMETRIC_PRESENTATION_REPRESENTATION (  '', ( #228 ), #237 ) ;
#91 = EDGE_LOOP ( 'NONE', ( #253, #22, #95, #159 ) ) ;
#92 = DIRECTION ( 'NONE',  ( 1.000000000000000000, 0.0000000000000000000, 0.0000000000000000000 ) ) ;
#93 = VERTEX_POINT ( 'NONE', #38 ) ;
#94 = ORIENTED_EDGE ( 'NONE', *, *, #53, .F. ) ;
#95 = ORIENTED_EDGE ( 'NONE', *, *, #103, .T. ) ;
#96 = DIRECTION ( 'NONE',  ( -1.000000000000000000, 0.0000000000000000000, 1.224646799147353207E-16 ) ) ;
#97 = EDGE_CURVE ( 'NONE', #206, #10, #209, .T. ) ;
#98 = FACE_OUTER_BOUND ( 'NONE', #91, .T. ) ;
#99 = APPLICATION_CONTEXT ( 'automotive_design' ) ;
#100 = ADVANCED_FACE ( 'NONE', ( #162 ), #119, .T. ) ;
#101 = CIRCLE ( 'NONE', #110, 0.01573225199999999865 ) ;
#102 = CYLINDRICAL_SURFACE ( 'NONE', #80, 0.01573225199999999865 ) ;
#103 = EDGE_CURVE ( 'NONE', #10, #277, #121, .T. ) ;
#104 = CARTESIAN_POINT ( 'NONE',  ( 0.0000000000000000000, 0.0000000000000000000, 0.0000000000000000000 ) ) ;
#105 = DIRECTION ( 'NONE',  ( 1.224646799147353207E-16, 0.0000000000000000000, 1.000000000000000000 ) ) ;
#106 = EDGE_CURVE ( 'NONE', #3, #277, #27, .T. ) ;
#107 = DIRECTION ( 'NONE',  ( 1.000000000000000000, 0.0000000000000000000, -0.0000000000000000000 ) ) ;
#108 = DIRECTION ( 'NONE',  ( -1.000000000000000000, 0.0000000000000000000, 1.224646799147353207E-16 ) ) ;
#109 = ORIENTED_EDGE ( 'NONE', *, *, #97, .F. ) ;
#110 = AXIS2_PLACEMENT_3D ( 'NONE', #84, #131, #108 ) ;
#111 = PLANE ( 'NONE',  #241 ) ;
#112 = DIMENSIONAL_EXPONENTS ( 1.000000000000000000, 0.0000000000000000000, 0.0000000000000000000, 0.0000000000000000000, 0.0000000000000000000, 0.0000000000000000000, 0.0000000000000000000 ) ;
#113 = EDGE_CURVE ( 'NONE', #93, #196, #224, .T. ) ;
#114 = ORIENTED_EDGE ( 'NONE', *, *, #247, .F. ) ;
#115 = ADVANCED_FACE ( 'NONE', ( #213 ), #203, .T. ) ;
#116 = SURFACE_STYLE_FILL_AREA ( #68 ) ;
#117 = ORIENTED_EDGE ( 'NONE', *, *, #185, .T. ) ;
#118 = ORIENTED_EDGE ( 'NONE', *, *, #103, .F. ) ;
#119 = CONICAL_SURFACE ( 'NONE', #187, 0.01573225199999999865, 0.1745329251994338637 ) ;
#120 = CARTESIAN_POINT ( 'NONE',  ( 0.05905500000000000332, 7.232151672364695422E-18, 1.481062999999999574 ) ) ;
#121 = LINE ( 'NONE', #32, #289 ) ;
#122 = DIRECTION ( 'NONE',  ( -0.0000000000000000000, -0.0000000000000000000, -1.000000000000000000 ) ) ;
#123 = AXIS2_PLACEMENT_3D ( 'NONE', #186, #167, #294 ) ;
#124 = CARTESIAN_POINT ( 'NONE',  ( 1.157144267578351175E-17, 0.0000000000000000000, 0.09448800000000000254 ) ) ;
#125 = CARTESIAN_POINT ( 'NONE',  ( 0.01573225199999999865, 1.926645205517954404E-18, -1.926645205517954404E-18 ) ) ;
#126 = CARTESIAN_POINT ( 'NONE',  ( -0.05905499999999996169, 0.0000000000000000000, 0.3401835131082782127 ) ) ;
#127 = PRODUCT_DEFINITION_FORMATION_WITH_SPECIFIED_SOURCE ( 'ANY', '', #225, .NOT_KNOWN. ) ;
#128 = CARTESIAN_POINT ( 'NONE',  ( 0.0000000000000000000, 0.0000000000000000000, 1.496062999999999921 ) ) ;
#129 = DIRECTION ( 'NONE',  ( 1.000000000000000000, 0.0000000000000000000, 0.0000000000000000000 ) ) ;
#130 = CARTESIAN_POINT ( 'NONE',  ( 0.0000000000000000000, 0.0000000000000000000, 1.496062999999999921 ) ) ;
#131 = DIRECTION ( 'NONE',  ( -1.224646799147353207E-16, -0.0000000000000000000, -1.000000000000000000 ) ) ;
#132 = CIRCLE ( 'NONE', #210, 0.05905500000000000332 ) ;
#133 = CARTESIAN_POINT ( 'NONE',  ( -0.05905500000000000332, 0.0000000000000000000, 1.481062999999999574 ) ) ;
#134 = SURFACE_SIDE_STYLE ('',( #116 ) ) ;
#135 = VECTOR ( 'NONE', #33, 39.37007874015748143 ) ;
#136 = ORIENTED_EDGE ( 'NONE', *, *, #297, .T. ) ;
#137 = CONICAL_SURFACE ( 'NONE', #155, 0.04405499999999973326, 0.7853981633974491672 ) ;
#138 = VERTEX_POINT ( 'NONE', #184 ) ;
#139 = ORIENTED_EDGE ( 'NONE', *, *, #106, .T. ) ;
#140 = CARTESIAN_POINT ( 'NONE',  ( -0.01573225199999999865, 0.0000000000000000000, 1.926645205517954404E-18 ) ) ;
#141 = LINE ( 'NONE', #288, #135 ) ;
#142 = CARTESIAN_POINT ( 'NONE',  ( -0.04405499999999973326, 0.0000000000000000000, 1.496062999999999921 ) ) ;
#143 = LINE ( 'NONE', #235, #248 ) ;
#144 = CARTESIAN_POINT ( 'NONE',  ( -0.01573225199999998825, 1.926645205517954404E-18, 0.09448800000000000254 ) ) ;
#145 = EDGE_CURVE ( 'NONE', #206, #3, #143, .T. ) ;
#146 = DIRECTION ( 'NONE',  ( 1.224646799147353207E-16, 0.0000000000000000000, 1.000000000000000000 ) ) ;
#147 = EDGE_CURVE ( 'NONE', #10, #206, #151, .T. ) ;
#148 = EDGE_LOOP ( 'NONE', ( #182, #181, #8, #270 ) ) ;
#149 = DIRECTION ( 'NONE',  ( 0.0000000000000000000, 0.0000000000000000000, 1.000000000000000000 ) ) ;
#150 = LENGTH_MEASURE_WITH_UNIT ( LENGTH_MEASURE( 0.02539999999999999897 ), #177 );
#151 = CIRCLE ( 'NONE', #28, 0.05905500000000000332 ) ;
#152 = CARTESIAN_POINT ( 'NONE',  ( 0.0000000000000000000, 0.0000000000000000000, 0.0000000000000000000 ) ) ;
#153 = ORIENTED_EDGE ( 'NONE', *, *, #172, .F. ) ;
#154 =( CONVERSION_BASED_UNIT ( 'INCH', #254 ) LENGTH_UNIT ( ) NAMED_UNIT ( #4 ) );
#155 = AXIS2_PLACEMENT_3D ( 'NONE', #130, #240, #18 ) ;
#156 = ORIENTED_EDGE ( 'NONE', *, *, #175, .T. ) ;
#157 = PRESENTATION_STYLE_ASSIGNMENT (( #273 ) ) ;
#158 = EDGE_LOOP ( 'NONE', ( #5, #70, #30, #118 ) ) ;
#159 = ORIENTED_EDGE ( 'NONE', *, *, #106, .F. ) ;
#160 = DIRECTION ( 'NONE',  ( -1.224646799147353207E-16, -0.0000000000000000000, -1.000000000000000000 ) ) ;
#161 = DIRECTION ( 'NONE',  ( 1.000000000000000000, 0.0000000000000000000, 0.0000000000000000000 ) ) ;
#162 = FACE_OUTER_BOUND ( 'NONE', #31, .T. ) ;
#163 = APPLICATION_CONTEXT ( 'automotive_design' ) ;
#164 = CARTESIAN_POINT ( 'NONE',  ( 0.0000000000000000000, 0.0000000000000000000, 1.496062999999999921 ) ) ;
#165 = VECTOR ( 'NONE', #234, 39.37007874015748143 ) ;
#166 = AXIS2_PLACEMENT_3D ( 'NONE', #11, #160, #12 ) ;
#167 = DIRECTION ( 'NONE',  ( -0.0000000000000000000, -0.0000000000000000000, -1.000000000000000000 ) ) ;
#168 = CARTESIAN_POINT ( 'NONE',  ( 0.0000000000000000000, 0.0000000000000000000, 1.496062999999999921 ) ) ;
#169 = CONICAL_SURFACE ( 'NONE', #242, 0.01573225199999999865, 0.1745329251994338637 ) ;
#170 = AXIS2_PLACEMENT_3D ( 'NONE', #23, #61, #194 ) ;
#171 = CARTESIAN_POINT ( 'NONE',  ( 0.0000000000000000000, 0.0000000000000000000, 0.0000000000000000000 ) ) ;
#172 = EDGE_CURVE ( 'NONE', #196, #277, #75, .T. ) ;
#173 = ORIENTED_EDGE ( 'NONE', *, *, #35, .T. ) ;
#174 = DIRECTION ( 'NONE',  ( -1.224646799147353207E-16, -0.0000000000000000000, -1.000000000000000000 ) ) ;
#175 = EDGE_CURVE ( 'NONE', #277, #3, #132, .T. ) ;
#176 =( NAMED_UNIT ( * ) PLANE_ANGLE_UNIT ( ) SI_UNIT ( $, .RADIAN. ) );
#177 =( LENGTH_UNIT ( ) NAMED_UNIT ( * ) SI_UNIT ( $, .METRE. ) );
#178 = COLOUR_RGB ( '',0.7921568627450980005, 0.8196078431372548767, 0.9333333333333333481 ) ;
#179 = ORIENTED_EDGE ( 'NONE', *, *, #113, .F. ) ;
#180 =( CONVERSION_BASED_UNIT ( 'INCH', #150 ) LENGTH_UNIT ( ) NAMED_UNIT ( #2 ) );
#181 = ORIENTED_EDGE ( 'NONE', *, *, #19, .T. ) ;
#182 = ORIENTED_EDGE ( 'NONE', *, *, #247, .T. ) ;
#183 = ORIENTED_EDGE ( 'NONE', *, *, #207, .F. ) ;
#184 = CARTESIAN_POINT ( 'NONE',  ( -0.01573225199999999865, 0.0000000000000000000, 3.853290411035908808E-18 ) ) ;
#185 = EDGE_CURVE ( 'NONE', #196, #138, #37, .T. ) ;
#186 = CARTESIAN_POINT ( 'NONE',  ( 0.0000000000000000000, 0.0000000000000000000, 1.496062999999999921 ) ) ;
#187 = AXIS2_PLACEMENT_3D ( 'NONE', #124, #105, #191 ) ;
#188 = VECTOR ( 'NONE', #215, 39.37007874015747433 ) ;
#189 = DIRECTION ( 'NONE',  ( -0.0000000000000000000, -0.0000000000000000000, -1.000000000000000000 ) ) ;
#190 = DIRECTION ( 'NONE',  ( 0.0000000000000000000, 0.0000000000000000000, -1.000000000000000000 ) ) ;
#191 = DIRECTION ( 'NONE',  ( 1.000000000000000000, 0.0000000000000000000, 0.0000000000000000000 ) ) ;
#192 = VECTOR ( 'NONE', #16, 39.37007874015748143 ) ;
#193 =( NAMED_UNIT ( * ) SI_UNIT ( $, .STERADIAN. ) SOLID_ANGLE_UNIT ( ) );
#194 = DIRECTION ( 'NONE',  ( -1.000000000000000000, 0.0000000000000000000, 0.0000000000000000000 ) ) ;
#195 = FACE_OUTER_BOUND ( 'NONE', #158, .T. ) ;
#196 = VERTEX_POINT ( 'NONE', #79 ) ;
#197 = PRESENTATION_LAYER_ASSIGNMENT (  '', '', ( #228 ) ) ;
#198 = CARTESIAN_POINT ( 'NONE',  ( 0.04405499999999973326, 6.313666573004162521E-18, 1.496062999999999921 ) ) ;
#199 = DIRECTION ( 'NONE',  ( 1.000000000000000000, 0.0000000000000000000, 0.0000000000000000000 ) ) ;
#200 = UNCERTAINTY_MEASURE_WITH_UNIT (LENGTH_MEASURE( 1.000000000000000082E-05 ), #180, 'distance_accuracy_value', 'NONE');
#201 = AXIS2_PLACEMENT_3D ( 'NONE', #17, #15, #59 ) ;
#202 = DIRECTION ( 'NONE',  ( 0.0000000000000000000, 0.0000000000000000000, 1.000000000000000000 ) ) ;
#203 = CONICAL_SURFACE ( 'NONE', #268, 0.04405499999999973326, 0.7853981633974491672 ) ;
#204 = CARTESIAN_POINT ( 'NONE',  ( 0.0000000000000000000, 0.0000000000000000000, 0.0000000000000000000 ) ) ;
#205 = EDGE_CURVE ( 'NONE', #52, #281, #63, .T. ) ;
#206 = VERTEX_POINT ( 'NONE', #120 ) ;
#207 = EDGE_CURVE ( 'NONE', #74, #138, #9, .T. ) ;
#208 = DIRECTION ( 'NONE',  ( 0.0000000000000000000, 0.0000000000000000000, 1.000000000000000000 ) ) ;
#209 = CIRCLE ( 'NONE', #201, 0.05905500000000000332 ) ;
#210 = AXIS2_PLACEMENT_3D ( 'NONE', #260, #287, #256 ) ;
#211 = ORIENTED_EDGE ( 'NONE', *, *, #205, .F. ) ;
#212 = CARTESIAN_POINT ( 'NONE',  ( 1.157144267578351175E-17, 0.0000000000000000000, 0.09448800000000000254 ) ) ;
#213 = FACE_OUTER_BOUND ( 'NONE', #87, .T. ) ;
#214 = CYLINDRICAL_SURFACE ( 'NONE', #123, 0.05905500000000000332 ) ;
#215 = DIRECTION ( 'NONE',  ( -0.1736481776669311639, 2.126576849575783008E-17, 0.9848077530122080203 ) ) ;
#216 = CARTESIAN_POINT ( 'NONE',  ( 0.01573225199999999865, 1.926645205517954404E-18, 0.0000000000000000000 ) ) ;
#217 = FILL_AREA_STYLE_COLOUR ( '', #36 ) ;
#218 = VECTOR ( 'NONE', #85, 39.37007874015748143 ) ;
#219 = FILL_AREA_STYLE ('',( #217 ) ) ;
#220 = ADVANCED_FACE ( 'NONE', ( #98 ), #214, .T. ) ;
#221 = ORIENTED_EDGE ( 'NONE', *, *, #53, .T. ) ;
#222 = ADVANCED_FACE ( 'NONE', ( #265 ), #137, .T. ) ;
#223 = FACE_OUTER_BOUND ( 'NONE', #148, .T. ) ;
#224 = CIRCLE ( 'NONE', #76, 0.01573225199999999865 ) ;
#225 = PRODUCT ( 'Micro_RMEM-008-2', 'Micro_RMEM-008-2', '', ( #231 ) ) ;
#226 =( NAMED_UNIT ( * ) PLANE_ANGLE_UNIT ( ) SI_UNIT ( $, .RADIAN. ) );
#227 = FACE_OUTER_BOUND ( 'NONE', #69, .T. ) ;
#228 = STYLED_ITEM ( 'NONE', ( #293 ), #280 ) ;
#229 = DIRECTION ( 'NONE',  ( 1.000000000000000000, 0.0000000000000000000, -0.0000000000000000000 ) ) ;
#230 = ORIENTED_EDGE ( 'NONE', *, *, #147, .F. ) ;
#231 = PRODUCT_CONTEXT ( 'NONE', #163, 'mechanical' ) ;
#232 = ORIENTED_EDGE ( 'NONE', *, *, #297, .F. ) ;
#233 = DIRECTION ( 'NONE',  ( 1.000000000000000000, 0.0000000000000000000, 0.0000000000000000000 ) ) ;
#234 = DIRECTION ( 'NONE',  ( 0.1736481776669313581, 0.0000000000000000000, 0.9848077530122077983 ) ) ;
#235 = CARTESIAN_POINT ( 'NONE',  ( 0.05905500000000000332, 7.232151672364695422E-18, 1.496062999999999921 ) ) ;
#236 = CARTESIAN_POINT ( 'NONE',  ( 0.01573225200000000906, 0.0000000000000000000, 0.09448800000000000254 ) ) ;
#237 =( GEOMETRIC_REPRESENTATION_CONTEXT ( 3 ) GLOBAL_UNCERTAINTY_ASSIGNED_CONTEXT ( ( #44 ) ) GLOBAL_UNIT_ASSIGNED_CONTEXT ( ( #246, #244, #193 ) ) REPRESENTATION_CONTEXT ( 'NONE', 'WORKASPACE' ) );
#238 = DIRECTION ( 'NONE',  ( 1.000000000000000000, 0.0000000000000000000, 0.0000000000000000000 ) ) ;
#239 = PRODUCT_RELATED_PRODUCT_CATEGORY ( 'part', '', ( #225 ) ) ;
#240 = DIRECTION ( 'NONE',  ( 0.0000000000000000000, 0.0000000000000000000, -1.000000000000000000 ) ) ;
#241 = AXIS2_PLACEMENT_3D ( 'NONE', #204, #208, #229 ) ;
#242 = AXIS2_PLACEMENT_3D ( 'NONE', #298, #146, #129 ) ;
#243 = CYLINDRICAL_SURFACE ( 'NONE', #290, 0.01573225199999999865 ) ;
#244 =( NAMED_UNIT ( * ) PLANE_ANGLE_UNIT ( ) SI_UNIT ( $, .RADIAN. ) );
#245 = ORIENTED_EDGE ( 'NONE', *, *, #250, .F. ) ;
#246 =( CONVERSION_BASED_UNIT ( 'INCH', #45 ) LENGTH_UNIT ( ) NAMED_UNIT ( #112 ) );
#247 = EDGE_CURVE ( 'NONE', #196, #93, #272, .T. ) ;
#248 = VECTOR ( 'NONE', #122, 39.37007874015748143 ) ;
#249 =( NAMED_UNIT ( * ) SI_UNIT ( $, .STERADIAN. ) SOLID_ANGLE_UNIT ( ) );
#250 = EDGE_CURVE ( 'NONE', #52, #10, #264, .T. ) ;
#251 = ORIENTED_EDGE ( 'NONE', *, *, #205, .T. ) ;
#252 = MECHANICAL_DESIGN_GEOMETRIC_PRESENTATION_REPRESENTATION (  '', ( #284 ), #46 ) ;
#253 = ORIENTED_EDGE ( 'NONE', *, *, #145, .F. ) ;
#254 = LENGTH_MEASURE_WITH_UNIT ( LENGTH_MEASURE( 0.02539999999999999897 ), #47 );
#255 = ORIENTED_EDGE ( 'NONE', *, *, #292, .T. ) ;
#256 = DIRECTION ( 'NONE',  ( 1.000000000000000000, 0.0000000000000000000, 0.0000000000000000000 ) ) ;
#257 = AXIS2_PLACEMENT_3D ( 'NONE', #128, #149, #107 ) ;
#258 = CARTESIAN_POINT ( 'NONE',  ( 0.0000000000000000000, 0.0000000000000000000, 1.481062999999999574 ) ) ;
#259 = ADVANCED_FACE ( 'NONE', ( #195 ), #60, .T. ) ;
#260 = CARTESIAN_POINT ( 'NONE',  ( 4.166046504507545479E-17, 0.0000000000000000000, 0.3401835131082782127 ) ) ;
#261 = DIRECTION ( 'NONE',  ( 0.0000000000000000000, 0.0000000000000000000, -1.000000000000000000 ) ) ;
#262 = DIRECTION ( 'NONE',  ( 0.0000000000000000000, 0.0000000000000000000, 1.000000000000000000 ) ) ;
#263 =( GEOMETRIC_REPRESENTATION_CONTEXT ( 3 ) GLOBAL_UNCERTAINTY_ASSIGNED_CONTEXT ( ( #200 ) ) GLOBAL_UNIT_ASSIGNED_CONTEXT ( ( #180, #176, #249 ) ) REPRESENTATION_CONTEXT ( 'NONE', 'WORKASPACE' ) );
#264 = LINE ( 'NONE', #88, #218 ) ;
#265 = FACE_OUTER_BOUND ( 'NONE', #295, .T. ) ;
#266 = ADVANCED_FACE ( 'NONE', ( #223 ), #243, .T. ) ;
#267 = CARTESIAN_POINT ( 'NONE',  ( 0.0000000000000000000, 0.0000000000000000000, 1.496062999999999921 ) ) ;
#268 = AXIS2_PLACEMENT_3D ( 'NONE', #57, #261, #283 ) ;
#269 = SURFACE_STYLE_FILL_AREA ( #219 ) ;
#270 = ORIENTED_EDGE ( 'NONE', *, *, #185, .F. ) ;
#271 = DIRECTION ( 'NONE',  ( -1.000000000000000000, 0.0000000000000000000, 1.224646799147353207E-16 ) ) ;
#272 = CIRCLE ( 'NONE', #170, 0.01573225199999999865 ) ;
#273 = SURFACE_STYLE_USAGE ( .BOTH. , #134 ) ;
#274 = FILL_AREA_STYLE_COLOUR ( '', #178 ) ;
#275 = ORIENTED_EDGE ( 'NONE', *, *, #172, .T. ) ;
#276 = APPLICATION_PROTOCOL_DEFINITION ( 'draft international standard', 'automotive_design', 1998, #163 ) ;
#277 = VERTEX_POINT ( 'NONE', #126 ) ;
#278 = AXIS2_PLACEMENT_3D ( 'NONE', #267, #24, #199 ) ;
#279 = ORIENTED_EDGE ( 'NONE', *, *, #113, .T. ) ;
#280 = MANIFOLD_SOLID_BREP ( 'Cut-Revolve1', #1 ) ;
#281 = VERTEX_POINT ( 'NONE', #198 ) ;
#282 = ADVANCED_FACE ( 'NONE', ( #40 ), #296, .T. ) ;
#283 = DIRECTION ( 'NONE',  ( -1.000000000000000000, 0.0000000000000000000, 0.0000000000000000000 ) ) ;
#284 = STYLED_ITEM ( 'NONE', ( #157 ), #72 ) ;
#285 = LINE ( 'NONE', #125, #41 ) ;
#286 = DIRECTION ( 'NONE',  ( -1.224646799147353207E-16, -0.0000000000000000000, -1.000000000000000000 ) ) ;
#287 = DIRECTION ( 'NONE',  ( -1.224646799147353207E-16, -0.0000000000000000000, -1.000000000000000000 ) ) ;
#288 = CARTESIAN_POINT ( 'NONE',  ( 0.04405499999999973326, 5.395181473643630390E-18, 1.496062999999999921 ) ) ;
#289 = VECTOR ( 'NONE', #189, 39.37007874015748143 ) ;
#290 = AXIS2_PLACEMENT_3D ( 'NONE', #171, #174, #271 ) ;
#291 = SURFACE_SIDE_STYLE ('',( #269 ) ) ;
#292 = EDGE_CURVE ( 'NONE', #138, #74, #101, .T. ) ;
#293 = PRESENTATION_STYLE_ASSIGNMENT (( #83 ) ) ;
#294 = DIRECTION ( 'NONE',  ( -1.000000000000000000, 0.0000000000000000000, 0.0000000000000000000 ) ) ;
#295 = EDGE_LOOP ( 'NONE', ( #232, #221, #230, #245 ) ) ;
#296 = PLANE ( 'NONE',  #257 ) ;
#297 = EDGE_CURVE ( 'NONE', #281, #52, #67, .T. ) ;
#298 = CARTESIAN_POINT ( 'NONE',  ( 1.157144267578351175E-17, 0.0000000000000000000, 0.09448800000000000254 ) ) ;
#299 = ADVANCED_FACE ( 'NONE', ( #62 ), #169, .T. ) ;
ENDSEC;
END-ISO-10303-21;
