ISO-10303-21;
HEADER;
FILE_DESCRIPTION (( 'STEP AP214' ),
    '1' );
FILE_NAME ('24587.STEP',
    '2023-06-22T17:21:47',
    ( '' ),
    ( '' ),
    'SwSTEP 2.0',
    'SolidWorks 2023',
    '' );
FILE_SCHEMA (( 'AUTOMOTIVE_DESIGN' ));
ENDSEC;

DATA;
#1 = DIRECTION ( 'NONE',  ( -0.000000000000000000, -1.000000000000000000, -0.000000000000000000 ) ) ;
#2 = AXIS2_PLACEMENT_3D ( 'NONE', #229, #253, #36 ) ;
#3 = DIMENSIONAL_EXPONENTS ( 1.000000000000000000, 0.000000000000000000, 0.000000000000000000, 0.000000000000000000, 0.000000000000000000, 0.000000000000000000, 0.000000000000000000 ) ;
#4 = CARTESIAN_POINT ( 'NONE',  ( 0.000000000000000000, 0.000000000000000000, 0.000000000000000000 ) ) ;
#5 = EDGE_CURVE ( 'NONE', #69, #42, #76, .T. ) ;
#6 = CARTESIAN_POINT ( 'NONE',  ( -0.5000000000000000000, 4.125000000000000000, 0.000000000000000000 ) ) ;
#7 = AXIS2_PLACEMENT_3D ( 'NONE', #4, #220, #243 ) ;
#8 = PLANE ( 'NONE',  #285 ) ;
#9 = FILL_AREA_STYLE_COLOUR ( '', #265 ) ;
#10 = DIRECTION ( 'NONE',  ( -1.000000000000000000, -4.259641040512529009E-17, 0.000000000000000000 ) ) ;
#11 = UNCERTAINTY_MEASURE_WITH_UNIT (LENGTH_MEASURE( 1.000000000000000082E-05 ), #218, 'distance_accuracy_value', 'NONE');
#12 = ORIENTED_EDGE ( 'NONE', *, *, #33, .F. ) ;
#13 = PRESENTATION_LAYER_ASSIGNMENT (  '', '', ( #266 ) ) ;
#14 = PLANE ( 'NONE',  #2 ) ;
#15 = FILL_AREA_STYLE_COLOUR ( '', #232 ) ;
#16 = CARTESIAN_POINT ( 'NONE',  ( -1.224646799147351975E-16, 7.000000000000000000, 0.000000000000000000 ) ) ;
#17 = ORIENTED_EDGE ( 'NONE', *, *, #28, .F. ) ;
#18 = LENGTH_MEASURE_WITH_UNIT ( LENGTH_MEASURE( 0.02539999999999999897 ), #191 );
#19 =( NAMED_UNIT ( * ) SI_UNIT ( $, .STERADIAN. ) SOLID_ANGLE_UNIT ( ) );
#20 = DIRECTION ( 'NONE',  ( -1.000000000000000000, 0.000000000000000000, 0.000000000000000000 ) ) ;
#21 =( NAMED_UNIT ( * ) PLANE_ANGLE_UNIT ( ) SI_UNIT ( $, .RADIAN. ) );
#22 = CARTESIAN_POINT ( 'NONE',  ( 0.5000000000000000000, 4.125000000000000000, 6.123233995736767268E-17 ) ) ;
#23 = MECHANICAL_DESIGN_GEOMETRIC_PRESENTATION_REPRESENTATION (  '', ( #173 ), #65 ) ;
#24 = DIRECTION ( 'NONE',  ( 0.000000000000000000, 1.000000000000000000, 0.000000000000000000 ) ) ;
#25 = DIMENSIONAL_EXPONENTS ( 1.000000000000000000, 0.000000000000000000, 0.000000000000000000, 0.000000000000000000, 0.000000000000000000, 0.000000000000000000, 0.000000000000000000 ) ;
#26 = LINE ( 'NONE', #192, #108 ) ;
#27 = ADVANCED_FACE ( 'NONE', ( #39 ), #252, .T. ) ;
#28 = EDGE_CURVE ( 'NONE', #231, #183, #40, .T. ) ;
#29 = LENGTH_MEASURE_WITH_UNIT ( LENGTH_MEASURE( 0.02539999999999999897 ), #286 );
#30 =( CONVERSION_BASED_UNIT ( 'INCH', #29 ) LENGTH_UNIT ( ) NAMED_UNIT ( #3 ) );
#31 = UNCERTAINTY_MEASURE_WITH_UNIT (LENGTH_MEASURE( 1.000000000000000082E-05 ), #44, 'distance_accuracy_value', 'NONE');
#32 = CARTESIAN_POINT ( 'NONE',  ( 0.000000000000000000, 4.125000000000000000, -0.5000000000000000000 ) ) ;
#33 = EDGE_CURVE ( 'NONE', #62, #203, #233, .T. ) ;
#34 = STYLED_ITEM ( 'NONE', ( #132 ), #222 ) ;
#35 = DIRECTION ( 'NONE',  ( -1.000000000000000000, 0.000000000000000000, 0.000000000000000000 ) ) ;
#36 = DIRECTION ( 'NONE',  ( 1.000000000000000000, 4.259641040512529009E-17, 0.000000000000000000 ) ) ;
#37 = ORIENTED_EDGE ( 'NONE', *, *, #154, .F. ) ;
#38 = DIRECTION ( 'NONE',  ( 0.000000000000000000, -1.000000000000000000, -0.000000000000000000 ) ) ;
#39 = FACE_OUTER_BOUND ( 'NONE', #112, .T. ) ;
#40 = CIRCLE ( 'NONE', #103, 0.5000000000000000000 ) ;
#41 = DIRECTION ( 'NONE',  ( -4.259641040512529009E-17, 1.000000000000000000, 0.000000000000000000 ) ) ;
#42 = VERTEX_POINT ( 'NONE', #306 ) ;
#43 = VECTOR ( 'NONE', #1, 39.37007874015748143 ) ;
#44 =( CONVERSION_BASED_UNIT ( 'INCH', #258 ) LENGTH_UNIT ( ) NAMED_UNIT ( #25 ) );
#45 = PRODUCT_CONTEXT ( 'NONE', #270, 'mechanical' ) ;
#46 =( NAMED_UNIT ( * ) SI_UNIT ( $, .STERADIAN. ) SOLID_ANGLE_UNIT ( ) );
#47 = STYLED_ITEM ( 'NONE', ( #210 ), #134 ) ;
#48 =( NAMED_UNIT ( * ) SI_UNIT ( $, .STERADIAN. ) SOLID_ANGLE_UNIT ( ) );
#49 = AXIS2_PLACEMENT_3D ( 'NONE', #307, #237, #100 ) ;
#50 = EDGE_CURVE ( 'NONE', #183, #231, #80, .T. ) ;
#51 = CARTESIAN_POINT ( 'NONE',  ( 0.000000000000000000, 4.125000000000000000, 0.000000000000000000 ) ) ;
#52 = SURFACE_STYLE_FILL_AREA ( #109 ) ;
#53 = STYLED_ITEM ( 'NONE', ( #64 ), #27 ) ;
#54 =( NAMED_UNIT ( * ) SI_UNIT ( $, .STERADIAN. ) SOLID_ANGLE_UNIT ( ) );
#55 = AXIS2_PLACEMENT_3D ( 'NONE', #66, #136, #144 ) ;
#56 = MECHANICAL_DESIGN_GEOMETRIC_PRESENTATION_REPRESENTATION (  '', ( #140 ), #153 ) ;
#57 = SURFACE_SIDE_STYLE ('',( #195 ) ) ;
#58 = PRODUCT_DEFINITION ( 'UNKNOWN', '', #142, #106 ) ;
#59 = FACE_OUTER_BOUND ( 'NONE', #269, .T. ) ;
#60 = SURFACE_SIDE_STYLE ('',( #82 ) ) ;
#61 = UNCERTAINTY_MEASURE_WITH_UNIT (LENGTH_MEASURE( 1.000000000000000082E-05 ), #170, 'distance_accuracy_value', 'NONE');
#62 = VERTEX_POINT ( 'NONE', #22 ) ;
#63 = CARTESIAN_POINT ( 'NONE',  ( 0.000000000000000000, 0.000000000000000000, 0.000000000000000000 ) ) ;
#64 = PRESENTATION_STYLE_ASSIGNMENT (( #273 ) ) ;
#65 =( GEOMETRIC_REPRESENTATION_CONTEXT ( 3 ) GLOBAL_UNCERTAINTY_ASSIGNED_CONTEXT ( ( #219 ) ) GLOBAL_UNIT_ASSIGNED_CONTEXT ( ( #30, #104, #54 ) ) REPRESENTATION_CONTEXT ( 'NONE', 'WORKASPACE' ) );
#66 = CARTESIAN_POINT ( 'NONE',  ( 0.000000000000000000, 0.000000000000000000, 0.000000000000000000 ) ) ;
#67 = ORIENTED_EDGE ( 'NONE', *, *, #33, .T. ) ;
#68 = DIRECTION ( 'NONE',  ( -0.000000000000000000, -1.000000000000000000, -0.000000000000000000 ) ) ;
#69 = VERTEX_POINT ( 'NONE', #257 ) ;
#70 = CARTESIAN_POINT ( 'NONE',  ( 0.000000000000000000, 4.125000000000000000, 0.000000000000000000 ) ) ;
#71 = COLOUR_RGB ( '',0.7921568627450980005, 0.8196078431372548767, 0.9333333333333333481 ) ;
#72 = SURFACE_STYLE_USAGE ( .BOTH. , #281 ) ;
#73 = ADVANCED_FACE ( 'NONE', ( #308 ), #77, .T. ) ;
#74 = CARTESIAN_POINT ( 'NONE',  ( -1.224646799147351975E-16, 7.000000000000000000, 0.000000000000000000 ) ) ;
#75 = EDGE_CURVE ( 'NONE', #203, #62, #213, .T. ) ;
#76 = CIRCLE ( 'NONE', #138, 0.5000000000000000000 ) ;
#77 = CYLINDRICAL_SURFACE ( 'NONE', #236, 0.5000000000000001110 ) ;
#78 = DIMENSIONAL_EXPONENTS ( 1.000000000000000000, 0.000000000000000000, 0.000000000000000000, 0.000000000000000000, 0.000000000000000000, 0.000000000000000000, 0.000000000000000000 ) ;
#79 = CARTESIAN_POINT ( 'NONE',  ( 0.5000000000000000000, 7.000000000000000000, 6.123233995736767268E-17 ) ) ;
#80 = CIRCLE ( 'NONE', #83, 0.5000000000000000000 ) ;
#81 = FILL_AREA_STYLE ('',( #240 ) ) ;
#82 = SURFACE_STYLE_FILL_AREA ( #111 ) ;
#83 = AXIS2_PLACEMENT_3D ( 'NONE', #99, #148, #238 ) ;
#84 = ORIENTED_EDGE ( 'NONE', *, *, #282, .F. ) ;
#85 = DIRECTION ( 'NONE',  ( 0.000000000000000000, 0.000000000000000000, -1.000000000000000000 ) ) ;
#86 = UNCERTAINTY_MEASURE_WITH_UNIT (LENGTH_MEASURE( 1.000000000000000082E-05 ), #162, 'distance_accuracy_value', 'NONE');
#87 = SURFACE_STYLE_FILL_AREA ( #295 ) ;
#88 = EDGE_CURVE ( 'NONE', #62, #164, #26, .T. ) ;
#89 = SURFACE_STYLE_FILL_AREA ( #116 ) ;
#90 = DIRECTION ( 'NONE',  ( -4.259641040512529009E-17, 1.000000000000000000, -0.000000000000000000 ) ) ;
#91 = ORIENTED_EDGE ( 'NONE', *, *, #88, .T. ) ;
#92 = MECHANICAL_DESIGN_GEOMETRIC_PRESENTATION_REPRESENTATION (  '', ( #266 ), #208 ) ;
#93 = PLANE ( 'NONE',  #114 ) ;
#94 = EDGE_LOOP ( 'NONE', ( #227, #224, #146, #37 ) ) ;
#95 = DIRECTION ( 'NONE',  ( -1.000000000000000000, 0.000000000000000000, 0.000000000000000000 ) ) ;
#96 = PRESENTATION_LAYER_ASSIGNMENT (  '', '', ( #53 ) ) ;
#97 = AXIS2_PLACEMENT_3D ( 'NONE', #157, #246, #35 ) ;
#98 = CIRCLE ( 'NONE', #97, 0.5000000000000001110 ) ;
#99 = CARTESIAN_POINT ( 'NONE',  ( 0.000000000000000000, 4.125000000000000000, 0.000000000000000000 ) ) ;
#100 = DIRECTION ( 'NONE',  ( 1.000000000000000000, 0.000000000000000000, 0.000000000000000000 ) ) ;
#101 = FILL_AREA_STYLE_COLOUR ( '', #131 ) ;
#102 = DIMENSIONAL_EXPONENTS ( 1.000000000000000000, 0.000000000000000000, 0.000000000000000000, 0.000000000000000000, 0.000000000000000000, 0.000000000000000000, 0.000000000000000000 ) ;
#103 = AXIS2_PLACEMENT_3D ( 'NONE', #151, #168, #215 ) ;
#104 =( NAMED_UNIT ( * ) PLANE_ANGLE_UNIT ( ) SI_UNIT ( $, .RADIAN. ) );
#105 =( LENGTH_UNIT ( ) NAMED_UNIT ( * ) SI_UNIT ( $, .METRE. ) );
#106 = PRODUCT_DEFINITION_CONTEXT ( 'detailed design', #185, 'design' ) ;
#107 =( NAMED_UNIT ( * ) PLANE_ANGLE_UNIT ( ) SI_UNIT ( $, .RADIAN. ) );
#108 = VECTOR ( 'NONE', #152, 39.37007874015748143 ) ;
#109 = FILL_AREA_STYLE ('',( #289 ) ) ;
#110 = ADVANCED_FACE ( 'NONE', ( #283 ), #284, .T. ) ;
#111 = FILL_AREA_STYLE ('',( #9 ) ) ;
#112 = EDGE_LOOP ( 'NONE', ( #275, #17 ) ) ;
#113 = SURFACE_STYLE_USAGE ( .BOTH. , #60 ) ;
#114 = AXIS2_PLACEMENT_3D ( 'NONE', #115, #41, #10 ) ;
#115 = CARTESIAN_POINT ( 'NONE',  ( 4.536135448504664961E-34, 4.125000000000000000, 0.000000000000000000 ) ) ;
#116 = FILL_AREA_STYLE ('',( #15 ) ) ;
#117 = SURFACE_STYLE_USAGE ( .BOTH. , #179 ) ;
#118 = ORIENTED_EDGE ( 'NONE', *, *, #88, .F. ) ;
#119 = CARTESIAN_POINT ( 'NONE',  ( 6.123233995736766036E-17, 4.125000000000000000, 0.5000000000000000000 ) ) ;
#120 = EDGE_LOOP ( 'NONE', ( #277, #177, #254, #141 ) ) ;
#121 = PRESENTATION_LAYER_ASSIGNMENT (  '', '', ( #34 ) ) ;
#122 =( NAMED_UNIT ( * ) PLANE_ANGLE_UNIT ( ) SI_UNIT ( $, .RADIAN. ) );
#123 = CARTESIAN_POINT ( 'NONE',  ( 0.000000000000000000, 4.125000000000000000, 0.000000000000000000 ) ) ;
#124 =( NAMED_UNIT ( * ) PLANE_ANGLE_UNIT ( ) SI_UNIT ( $, .RADIAN. ) );
#125 = MECHANICAL_DESIGN_GEOMETRIC_PRESENTATION_REPRESENTATION (  '', ( #47 ), #163 ) ;
#126 = DIRECTION ( 'NONE',  ( 0.000000000000000000, -0.000000000000000000, 1.000000000000000000 ) ) ;
#127 = APPLICATION_PROTOCOL_DEFINITION ( 'draft international standard', 'automotive_design', 1998, #270 ) ;
#128 = LINE ( 'NONE', #288, #43 ) ;
#129 = PRODUCT_RELATED_PRODUCT_CATEGORY ( 'part', '', ( #161 ) ) ;
#130 = CLOSED_SHELL ( 'NONE', ( #303, #27, #172, #228 ) ) ;
#131 = COLOUR_RGB ( '',0.7921568627450980005, 0.8196078431372548767, 0.9333333333333333481 ) ;
#132 = PRESENTATION_STYLE_ASSIGNMENT (( #290 ) ) ;
#133 = DIMENSIONAL_EXPONENTS ( 1.000000000000000000, 0.000000000000000000, 0.000000000000000000, 0.000000000000000000, 0.000000000000000000, 0.000000000000000000, 0.000000000000000000 ) ;
#134 = MANIFOLD_SOLID_BREP ( 'Revolve - Cutting Edge', #130 ) ;
#135 = CYLINDRICAL_SURFACE ( 'NONE', #280, 0.5000000000000000000 ) ;
#136 = DIRECTION ( 'NONE',  ( -0.000000000000000000, -1.000000000000000000, -0.000000000000000000 ) ) ;
#137 = ORIENTED_EDGE ( 'NONE', *, *, #262, .T. ) ;
#138 = AXIS2_PLACEMENT_3D ( 'NONE', #63, #160, #250 ) ;
#139 =( LENGTH_UNIT ( ) NAMED_UNIT ( * ) SI_UNIT ( $, .METRE. ) );
#140 = STYLED_ITEM ( 'NONE', ( #247 ), #303 ) ;
#141 = ORIENTED_EDGE ( 'NONE', *, *, #5, .F. ) ;
#142 = PRODUCT_DEFINITION_FORMATION_WITH_SPECIFIED_SOURCE ( 'ANY', '', #161, .NOT_KNOWN. ) ;
#143 = LINE ( 'NONE', #176, #268 ) ;
#144 = DIRECTION ( 'NONE',  ( 0.000000000000000000, 0.000000000000000000, -1.000000000000000000 ) ) ;
#145 =( CONVERSION_BASED_UNIT ( 'INCH', #249 ) LENGTH_UNIT ( ) NAMED_UNIT ( #102 ) );
#146 = ORIENTED_EDGE ( 'NONE', *, *, #267, .F. ) ;
#147 = APPLICATION_PROTOCOL_DEFINITION ( 'draft international standard', 'automotive_design', 1998, #185 ) ;
#148 = DIRECTION ( 'NONE',  ( -0.000000000000000000, -1.000000000000000000, -0.000000000000000000 ) ) ;
#149 =( NAMED_UNIT ( * ) PLANE_ANGLE_UNIT ( ) SI_UNIT ( $, .RADIAN. ) );
#150 = COLOUR_RGB ( '',1.000000000000000000, 0.000000000000000000, 0.000000000000000000 ) ;
#151 = CARTESIAN_POINT ( 'NONE',  ( 0.000000000000000000, 4.125000000000000000, 0.000000000000000000 ) ) ;
#152 = DIRECTION ( 'NONE',  ( -4.259641040512529009E-17, 1.000000000000000000, -0.000000000000000000 ) ) ;
#153 =( GEOMETRIC_REPRESENTATION_CONTEXT ( 3 ) GLOBAL_UNCERTAINTY_ASSIGNED_CONTEXT ( ( #226 ) ) GLOBAL_UNIT_ASSIGNED_CONTEXT ( ( #145, #122, #48 ) ) REPRESENTATION_CONTEXT ( 'NONE', 'WORKASPACE' ) );
#154 = EDGE_CURVE ( 'NONE', #183, #42, #128, .T. ) ;
#155 =( NAMED_UNIT ( * ) SI_UNIT ( $, .STERADIAN. ) SOLID_ANGLE_UNIT ( ) );
#156 = AXIS2_PLACEMENT_3D ( 'NONE', #74, #304, #95 ) ;
#157 = CARTESIAN_POINT ( 'NONE',  ( -1.224646799147351975E-16, 7.000000000000000000, 0.000000000000000000 ) ) ;
#158 = PRESENTATION_STYLE_ASSIGNMENT (( #117 ) ) ;
#159 = ORIENTED_EDGE ( 'NONE', *, *, #282, .T. ) ;
#160 = DIRECTION ( 'NONE',  ( -0.000000000000000000, -1.000000000000000000, -0.000000000000000000 ) ) ;
#161 = PRODUCT ( '24587', '24587', '', ( #45 ) ) ;
#162 =( CONVERSION_BASED_UNIT ( 'INCH', #298 ) LENGTH_UNIT ( ) NAMED_UNIT ( #197 ) );
#163 =( GEOMETRIC_REPRESENTATION_CONTEXT ( 3 ) GLOBAL_UNCERTAINTY_ASSIGNED_CONTEXT ( ( #61 ) ) GLOBAL_UNIT_ASSIGNED_CONTEXT ( ( #170, #124, #200 ) ) REPRESENTATION_CONTEXT ( 'NONE', 'WORKASPACE' ) );
#164 = VERTEX_POINT ( 'NONE', #79 ) ;
#165 =( NAMED_UNIT ( * ) PLANE_ANGLE_UNIT ( ) SI_UNIT ( $, .RADIAN. ) );
#166 = VERTEX_POINT ( 'NONE', #196 ) ;
#167 = EDGE_LOOP ( 'NONE', ( #118, #67, #159, #297 ) ) ;
#168 = DIRECTION ( 'NONE',  ( -0.000000000000000000, -1.000000000000000000, -0.000000000000000000 ) ) ;
#169 = LENGTH_MEASURE_WITH_UNIT ( LENGTH_MEASURE( 0.02539999999999999897 ), #278 );
#170 =( CONVERSION_BASED_UNIT ( 'INCH', #18 ) LENGTH_UNIT ( ) NAMED_UNIT ( #133 ) );
#171 =( GEOMETRIC_REPRESENTATION_CONTEXT ( 3 ) GLOBAL_UNCERTAINTY_ASSIGNED_CONTEXT ( ( #296 ) ) GLOBAL_UNIT_ASSIGNED_CONTEXT ( ( #214, #21, #19 ) ) REPRESENTATION_CONTEXT ( 'NONE', 'WORKASPACE' ) );
#172 = ADVANCED_FACE ( 'NONE', ( #287 ), #261, .T. ) ;
#173 = STYLED_ITEM ( 'NONE', ( #174 ), #172 ) ;
#174 = PRESENTATION_STYLE_ASSIGNMENT (( #263 ) ) ;
#175 = AXIS2_PLACEMENT_3D ( 'NONE', #16, #90, #274 ) ;
#176 = CARTESIAN_POINT ( 'NONE',  ( 6.123233995736766036E-17, 0.000000000000000000, 0.5000000000000000000 ) ) ;
#177 = ORIENTED_EDGE ( 'NONE', *, *, #28, .T. ) ;
#178 = EDGE_LOOP ( 'NONE', ( #292, #12 ) ) ;
#179 = SURFACE_SIDE_STYLE ('',( #87 ) ) ;
#180 = SURFACE_SIDE_STYLE ('',( #89 ) ) ;
#181 = FACE_OUTER_BOUND ( 'NONE', #234, .T. ) ;
#182 = MECHANICAL_DESIGN_GEOMETRIC_PRESENTATION_REPRESENTATION (  '', ( #34 ), #241 ) ;
#183 = VERTEX_POINT ( 'NONE', #32 ) ;
#184 = LINE ( 'NONE', #223, #225 ) ;
#185 = APPLICATION_CONTEXT ( 'automotive_design' ) ;
#186 = CARTESIAN_POINT ( 'NONE',  ( 0.000000000000000000, 0.000000000000000000, 0.000000000000000000 ) ) ;
#187 = DIRECTION ( 'NONE',  ( -4.259641040512529009E-17, 1.000000000000000000, -0.000000000000000000 ) ) ;
#188 = SHAPE_DEFINITION_REPRESENTATION ( #202, #198 ) ;
#189 = FILL_AREA_STYLE ('',( #101 ) ) ;
#190 = CIRCLE ( 'NONE', #55, 0.5000000000000000000 ) ;
#191 =( LENGTH_UNIT ( ) NAMED_UNIT ( * ) SI_UNIT ( $, .METRE. ) );
#192 = CARTESIAN_POINT ( 'NONE',  ( 0.4999999999999999445, 7.000000000000000000, 6.123233995736767268E-17 ) ) ;
#193 = SURFACE_STYLE_FILL_AREA ( #189 ) ;
#194 = PRESENTATION_LAYER_ASSIGNMENT (  '', '', ( #47 ) ) ;
#195 = SURFACE_STYLE_FILL_AREA ( #81 ) ;
#196 = CARTESIAN_POINT ( 'NONE',  ( -0.5000000000000002220, 7.000000000000000000, 0.000000000000000000 ) ) ;
#197 = DIMENSIONAL_EXPONENTS ( 1.000000000000000000, 0.000000000000000000, 0.000000000000000000, 0.000000000000000000, 0.000000000000000000, 0.000000000000000000, 0.000000000000000000 ) ;
#198 = ADVANCED_BREP_SHAPE_REPRESENTATION ( '24587', ( #134, #222, #49 ), #171 ) ;
#199 = AXIS2_PLACEMENT_3D ( 'NONE', #51, #212, #217 ) ;
#200 =( NAMED_UNIT ( * ) SI_UNIT ( $, .STERADIAN. ) SOLID_ANGLE_UNIT ( ) );
#201 = LENGTH_MEASURE_WITH_UNIT ( LENGTH_MEASURE( 0.02539999999999999897 ), #105 );
#202 = PRODUCT_DEFINITION_SHAPE ( 'NONE', 'NONE',  #58 ) ;
#203 = VERTEX_POINT ( 'NONE', #6 ) ;
#204 =( NAMED_UNIT ( * ) SI_UNIT ( $, .STERADIAN. ) SOLID_ANGLE_UNIT ( ) );
#205 = FACE_OUTER_BOUND ( 'NONE', #178, .T. ) ;
#206 = ORIENTED_EDGE ( 'NONE', *, *, #262, .F. ) ;
#207 = CLOSED_SHELL ( 'NONE', ( #110, #259, #73, #256 ) ) ;
#208 =( GEOMETRIC_REPRESENTATION_CONTEXT ( 3 ) GLOBAL_UNCERTAINTY_ASSIGNED_CONTEXT ( ( #86 ) ) GLOBAL_UNIT_ASSIGNED_CONTEXT ( ( #162, #165, #204 ) ) REPRESENTATION_CONTEXT ( 'NONE', 'WORKASPACE' ) );
#209 = ORIENTED_EDGE ( 'NONE', *, *, #299, .T. ) ;
#210 = PRESENTATION_STYLE_ASSIGNMENT (( #72 ) ) ;
#211 = DIRECTION ( 'NONE',  ( -4.259641040512529009E-17, 1.000000000000000000, -0.000000000000000000 ) ) ;
#212 = DIRECTION ( 'NONE',  ( -4.259641040512529009E-17, 1.000000000000000000, -0.000000000000000000 ) ) ;
#213 = CIRCLE ( 'NONE', #251, 0.5000000000000000000 ) ;
#214 =( CONVERSION_BASED_UNIT ( 'INCH', #169 ) LENGTH_UNIT ( ) NAMED_UNIT ( #216 ) );
#215 = DIRECTION ( 'NONE',  ( 0.000000000000000000, 0.000000000000000000, -1.000000000000000000 ) ) ;
#216 = DIMENSIONAL_EXPONENTS ( 1.000000000000000000, 0.000000000000000000, 0.000000000000000000, 0.000000000000000000, 0.000000000000000000, 0.000000000000000000, 0.000000000000000000 ) ;
#217 = DIRECTION ( 'NONE',  ( -1.000000000000000000, 0.000000000000000000, 0.000000000000000000 ) ) ;
#218 =( CONVERSION_BASED_UNIT ( 'INCH', #201 ) LENGTH_UNIT ( ) NAMED_UNIT ( #78 ) );
#219 = UNCERTAINTY_MEASURE_WITH_UNIT (LENGTH_MEASURE( 1.000000000000000082E-05 ), #30, 'distance_accuracy_value', 'NONE');
#220 = DIRECTION ( 'NONE',  ( -0.000000000000000000, -1.000000000000000000, -0.000000000000000000 ) ) ;
#221 = COLOUR_RGB ( '',1.000000000000000000, 0.000000000000000000, 0.000000000000000000 ) ;
#222 = MANIFOLD_SOLID_BREP ( 'Revolve - Tool Body (Straight Shanked)', #207 ) ;
#223 = CARTESIAN_POINT ( 'NONE',  ( -0.5000000000000002220, 7.000000000000000000, 0.000000000000000000 ) ) ;
#224 = ORIENTED_EDGE ( 'NONE', *, *, #245, .T. ) ;
#225 = VECTOR ( 'NONE', #276, 39.37007874015748143 ) ;
#226 = UNCERTAINTY_MEASURE_WITH_UNIT (LENGTH_MEASURE( 1.000000000000000082E-05 ), #145, 'distance_accuracy_value', 'NONE');
#227 = ORIENTED_EDGE ( 'NONE', *, *, #50, .T. ) ;
#228 = ADVANCED_FACE ( 'NONE', ( #59 ), #8, .T. ) ;
#229 = CARTESIAN_POINT ( 'NONE',  ( 0.5000000000000000000, 7.000000000000000000, 0.000000000000000000 ) ) ;
#230 = ORIENTED_EDGE ( 'NONE', *, *, #267, .T. ) ;
#231 = VERTEX_POINT ( 'NONE', #119 ) ;
#232 = COLOUR_RGB ( '',1.000000000000000000, 0.000000000000000000, 0.000000000000000000 ) ;
#233 = CIRCLE ( 'NONE', #199, 0.5000000000000000000 ) ;
#234 = EDGE_LOOP ( 'NONE', ( #137, #209 ) ) ;
#235 = CARTESIAN_POINT ( 'NONE',  ( -1.224646799147351975E-16, 7.000000000000000000, 0.000000000000000000 ) ) ;
#236 = AXIS2_PLACEMENT_3D ( 'NONE', #235, #187, #20 ) ;
#237 = DIRECTION ( 'NONE',  ( 0.000000000000000000, 0.000000000000000000, 1.000000000000000000 ) ) ;
#238 = DIRECTION ( 'NONE',  ( 0.000000000000000000, 0.000000000000000000, -1.000000000000000000 ) ) ;
#239 = FILL_AREA_STYLE_COLOUR ( '', #221 ) ;
#240 = FILL_AREA_STYLE_COLOUR ( '', #150 ) ;
#241 =( GEOMETRIC_REPRESENTATION_CONTEXT ( 3 ) GLOBAL_UNCERTAINTY_ASSIGNED_CONTEXT ( ( #11 ) ) GLOBAL_UNIT_ASSIGNED_CONTEXT ( ( #218, #107, #155 ) ) REPRESENTATION_CONTEXT ( 'NONE', 'WORKASPACE' ) );
#242 = SURFACE_SIDE_STYLE ('',( #52 ) ) ;
#243 = DIRECTION ( 'NONE',  ( 0.000000000000000000, 0.000000000000000000, -1.000000000000000000 ) ) ;
#244 =( GEOMETRIC_REPRESENTATION_CONTEXT ( 3 ) GLOBAL_UNCERTAINTY_ASSIGNED_CONTEXT ( ( #31 ) ) GLOBAL_UNIT_ASSIGNED_CONTEXT ( ( #44, #149, #46 ) ) REPRESENTATION_CONTEXT ( 'NONE', 'WORKASPACE' ) );
#245 = EDGE_CURVE ( 'NONE', #231, #69, #143, .T. ) ;
#246 = DIRECTION ( 'NONE',  ( -4.259641040512529009E-17, 1.000000000000000000, -0.000000000000000000 ) ) ;
#247 = PRESENTATION_STYLE_ASSIGNMENT (( #113 ) ) ;
#248 = EDGE_LOOP ( 'NONE', ( #272, #91, #206, #84 ) ) ;
#249 = LENGTH_MEASURE_WITH_UNIT ( LENGTH_MEASURE( 0.02539999999999999897 ), #294 );
#250 = DIRECTION ( 'NONE',  ( 0.000000000000000000, 0.000000000000000000, -1.000000000000000000 ) ) ;
#251 = AXIS2_PLACEMENT_3D ( 'NONE', #123, #211, #309 ) ;
#252 = PLANE ( 'NONE',  #300 ) ;
#253 = DIRECTION ( 'NONE',  ( 4.259641040512529009E-17, -1.000000000000000000, 0.000000000000000000 ) ) ;
#254 = ORIENTED_EDGE ( 'NONE', *, *, #154, .T. ) ;
#255 = DIRECTION ( 'NONE',  ( 0.000000000000000000, 0.000000000000000000, -1.000000000000000000 ) ) ;
#256 = ADVANCED_FACE ( 'NONE', ( #181 ), #14, .F. ) ;
#257 = CARTESIAN_POINT ( 'NONE',  ( 6.123233995736766036E-17, 0.000000000000000000, 0.5000000000000000000 ) ) ;
#258 = LENGTH_MEASURE_WITH_UNIT ( LENGTH_MEASURE( 0.02539999999999999897 ), #260 );
#259 = ADVANCED_FACE ( 'NONE', ( #205 ), #93, .F. ) ;
#260 =( LENGTH_UNIT ( ) NAMED_UNIT ( * ) SI_UNIT ( $, .METRE. ) );
#261 = CYLINDRICAL_SURFACE ( 'NONE', #7, 0.5000000000000000000 ) ;
#262 = EDGE_CURVE ( 'NONE', #166, #164, #279, .T. ) ;
#263 = SURFACE_STYLE_USAGE ( .BOTH. , #57 ) ;
#264 = MECHANICAL_DESIGN_GEOMETRIC_PRESENTATION_REPRESENTATION (  '', ( #53 ), #244 ) ;
#265 = COLOUR_RGB ( '',1.000000000000000000, 0.000000000000000000, 0.000000000000000000 ) ;
#266 = STYLED_ITEM ( 'NONE', ( #158 ), #228 ) ;
#267 = EDGE_CURVE ( 'NONE', #42, #69, #190, .T. ) ;
#268 = VECTOR ( 'NONE', #291, 39.37007874015748143 ) ;
#269 = EDGE_LOOP ( 'NONE', ( #230, #302 ) ) ;
#270 = APPLICATION_CONTEXT ( 'automotive_design' ) ;
#271 = FACE_OUTER_BOUND ( 'NONE', #94, .T. ) ;
#272 = ORIENTED_EDGE ( 'NONE', *, *, #75, .T. ) ;
#273 = SURFACE_STYLE_USAGE ( .BOTH. , #180 ) ;
#274 = DIRECTION ( 'NONE',  ( -1.000000000000000000, 0.000000000000000000, 0.000000000000000000 ) ) ;
#275 = ORIENTED_EDGE ( 'NONE', *, *, #50, .F. ) ;
#276 = DIRECTION ( 'NONE',  ( -4.259641040512529009E-17, 1.000000000000000000, -0.000000000000000000 ) ) ;
#277 = ORIENTED_EDGE ( 'NONE', *, *, #245, .F. ) ;
#278 =( LENGTH_UNIT ( ) NAMED_UNIT ( * ) SI_UNIT ( $, .METRE. ) );
#279 = CIRCLE ( 'NONE', #175, 0.5000000000000001110 ) ;
#280 = AXIS2_PLACEMENT_3D ( 'NONE', #186, #68, #255 ) ;
#281 = SURFACE_SIDE_STYLE ('',( #193 ) ) ;
#282 = EDGE_CURVE ( 'NONE', #203, #166, #184, .T. ) ;
#283 = FACE_OUTER_BOUND ( 'NONE', #248, .T. ) ;
#284 = CYLINDRICAL_SURFACE ( 'NONE', #156, 0.5000000000000001110 ) ;
#285 = AXIS2_PLACEMENT_3D ( 'NONE', #301, #38, #85 ) ;
#286 =( LENGTH_UNIT ( ) NAMED_UNIT ( * ) SI_UNIT ( $, .METRE. ) );
#287 = FACE_OUTER_BOUND ( 'NONE', #120, .T. ) ;
#288 = CARTESIAN_POINT ( 'NONE',  ( 0.000000000000000000, 0.000000000000000000, -0.5000000000000000000 ) ) ;
#289 = FILL_AREA_STYLE_COLOUR ( '', #71 ) ;
#290 = SURFACE_STYLE_USAGE ( .BOTH. , #242 ) ;
#291 = DIRECTION ( 'NONE',  ( -0.000000000000000000, -1.000000000000000000, -0.000000000000000000 ) ) ;
#292 = ORIENTED_EDGE ( 'NONE', *, *, #75, .F. ) ;
#293 = PRESENTATION_LAYER_ASSIGNMENT (  '', '', ( #173 ) ) ;
#294 =( LENGTH_UNIT ( ) NAMED_UNIT ( * ) SI_UNIT ( $, .METRE. ) );
#295 = FILL_AREA_STYLE ('',( #239 ) ) ;
#296 = UNCERTAINTY_MEASURE_WITH_UNIT (LENGTH_MEASURE( 1.000000000000000082E-05 ), #214, 'distance_accuracy_value', 'NONE');
#297 = ORIENTED_EDGE ( 'NONE', *, *, #299, .F. ) ;
#298 = LENGTH_MEASURE_WITH_UNIT ( LENGTH_MEASURE( 0.02539999999999999897 ), #139 );
#299 = EDGE_CURVE ( 'NONE', #164, #166, #98, .T. ) ;
#300 = AXIS2_PLACEMENT_3D ( 'NONE', #70, #24, #126 ) ;
#301 = CARTESIAN_POINT ( 'NONE',  ( 0.000000000000000000, 0.000000000000000000, 0.000000000000000000 ) ) ;
#302 = ORIENTED_EDGE ( 'NONE', *, *, #5, .T. ) ;
#303 = ADVANCED_FACE ( 'NONE', ( #271 ), #135, .T. ) ;
#304 = DIRECTION ( 'NONE',  ( -4.259641040512529009E-17, 1.000000000000000000, -0.000000000000000000 ) ) ;
#305 = PRESENTATION_LAYER_ASSIGNMENT (  '', '', ( #140 ) ) ;
#306 = CARTESIAN_POINT ( 'NONE',  ( 0.000000000000000000, 0.000000000000000000, -0.5000000000000000000 ) ) ;
#307 = CARTESIAN_POINT ( 'NONE',  ( 0.000000000000000000, 0.000000000000000000, 0.000000000000000000 ) ) ;
#308 = FACE_OUTER_BOUND ( 'NONE', #167, .T. ) ;
#309 = DIRECTION ( 'NONE',  ( -1.000000000000000000, 0.000000000000000000, 0.000000000000000000 ) ) ;
ENDSEC;
END-ISO-10303-21;
