ISO-10303-21;
HEADER;
FILE_DESCRIPTION (( 'STEP AP214' ),
    '1' );
FILE_NAME ('06333.STEP',
    '2023-07-05T16:01:48',
    ( '' ),
    ( '' ),
    'SwSTEP 2.0',
    'SolidWorks 2023',
    '' );
FILE_SCHEMA (( 'AUTOMOTIVE_DESIGN' ));
ENDSEC;

DATA;
#1 = VECTOR ( 'NONE', #32, 39.37007874015748143 ) ;
#2 = DIRECTION ( 'NONE',  ( 0.000000000000000000, 0.000000000000000000, 1.000000000000000000 ) ) ;
#3 = DIRECTION ( 'NONE',  ( 0.000000000000000000, 0.000000000000000000, -1.000000000000000000 ) ) ;
#4 = DIMENSIONAL_EXPONENTS ( 1.000000000000000000, 0.000000000000000000, 0.000000000000000000, 0.000000000000000000, 0.000000000000000000, 0.000000000000000000, 0.000000000000000000 ) ;
#5 = SHAPE_DEFINITION_REPRESENTATION ( #178, #264 ) ;
#6 = CONICAL_SURFACE ( 'NONE', #219, 22.73032555864674009, 0.5235987755982999259 ) ;
#7 = EDGE_CURVE ( 'NONE', #152, #243, #192, .T. ) ;
#8 = FACE_OUTER_BOUND ( 'NONE', #118, .T. ) ;
#9 = LINE ( 'NONE', #191, #108 ) ;
#10 = LENGTH_MEASURE_WITH_UNIT ( LENGTH_MEASURE( 0.02539999999999999897 ), #125 );
#11 = FILL_AREA_STYLE ('',( #111 ) ) ;
#12 = PRESENTATION_STYLE_ASSIGNMENT (( #196 ) ) ;
#13 = UNCERTAINTY_MEASURE_WITH_UNIT (LENGTH_MEASURE( 1.000000000000000082E-05 ), #204, 'distance_accuracy_value', 'NONE');
#14 =( NAMED_UNIT ( * ) SI_UNIT ( $, .STERADIAN. ) SOLID_ANGLE_UNIT ( ) );
#15 = STYLED_ITEM ( 'NONE', ( #253 ), #77 ) ;
#16 = CIRCLE ( 'NONE', #105, 0.09374999999999966693 ) ;
#17 =( NAMED_UNIT ( * ) SI_UNIT ( $, .STERADIAN. ) SOLID_ANGLE_UNIT ( ) );
#18 = CARTESIAN_POINT ( 'NONE',  ( 0.000000000000000000, 0.1623797632095818344, 0.000000000000000000 ) ) ;
#19 = ADVANCED_FACE ( 'NONE', ( #248 ), #208, .F. ) ;
#20 = ORIENTED_EDGE ( 'NONE', *, *, #214, .T. ) ;
#21 = AXIS2_PLACEMENT_3D ( 'NONE', #144, #143, #68 ) ;
#22 = STYLED_ITEM ( 'NONE', ( #12 ), #207 ) ;
#23 = CARTESIAN_POINT ( 'NONE',  ( 3.286754617377316716E-16, 0.1623797632095817234, 0.000000000000000000 ) ) ;
#24 = COLOUR_RGB ( '',1.000000000000000000, 0.000000000000000000, 0.000000000000000000 ) ;
#25 =( NAMED_UNIT ( * ) SI_UNIT ( $, .STERADIAN. ) SOLID_ANGLE_UNIT ( ) );
#26 = FILL_AREA_STYLE_COLOUR ( '', #197 ) ;
#27 = DIRECTION ( 'NONE',  ( -1.122162118671284194E-16, 1.000000000000000000, -0.000000000000000000 ) ) ;
#28 = CONICAL_SURFACE ( 'NONE', #247, 22.73032555864674009, 0.5235987755982999259 ) ;
#29 = CYLINDRICAL_SURFACE ( 'NONE', #21, 0.09374999999999976408 ) ;
#30 = DIRECTION ( 'NONE',  ( 0.000000000000000000, 0.000000000000000000, 1.000000000000000000 ) ) ;
#31 = FILL_AREA_STYLE_COLOUR ( '', #190 ) ;
#32 = DIRECTION ( 'NONE',  ( -1.122162118671284194E-16, 1.000000000000000000, -0.000000000000000000 ) ) ;
#33 = SURFACE_SIDE_STYLE ('',( #90 ) ) ;
#34 = PRESENTATION_LAYER_ASSIGNMENT (  '', '', ( #15 ) ) ;
#35 =( NAMED_UNIT ( * ) SI_UNIT ( $, .STERADIAN. ) SOLID_ANGLE_UNIT ( ) );
#36 = DIRECTION ( 'NONE',  ( -1.122162118671284194E-16, 1.000000000000000000, -0.000000000000000000 ) ) ;
#37 = ORIENTED_EDGE ( 'NONE', *, *, #223, .F. ) ;
#38 = AXIS2_PLACEMENT_3D ( 'NONE', #251, #106, #67 ) ;
#39 = ORIENTED_EDGE ( 'NONE', *, *, #133, .F. ) ;
#40 = CARTESIAN_POINT ( 'NONE',  ( 0.09374999999999997224, 2.000000000000000000, 1.148106374200641398E-17 ) ) ;
#41 = LINE ( 'NONE', #142, #49 ) ;
#42 = LENGTH_MEASURE_WITH_UNIT ( LENGTH_MEASURE( 0.02539999999999999897 ), #139 );
#43 = APPLICATION_PROTOCOL_DEFINITION ( 'draft international standard', 'automotive_design', 1998, #170 ) ;
#44 = DIRECTION ( 'NONE',  ( 6.123233995736777129E-17, 0.8660254037844380415, -0.5000000000000008882 ) ) ;
#45 = AXIS2_PLACEMENT_3D ( 'NONE', #187, #85, #3 ) ;
#46 = VERTEX_POINT ( 'NONE', #40 ) ;
#47 = SURFACE_STYLE_USAGE ( .BOTH. , #33 ) ;
#48 = DIRECTION ( 'NONE',  ( 0.000000000000000000, 0.000000000000000000, 1.000000000000000000 ) ) ;
#49 = VECTOR ( 'NONE', #103, 39.37007874015748143 ) ;
#50 = EDGE_CURVE ( 'NONE', #200, #46, #9, .T. ) ;
#51 = SURFACE_STYLE_FILL_AREA ( #149 ) ;
#52 = FILL_AREA_STYLE ('',( #31 ) ) ;
#53 = CARTESIAN_POINT ( 'NONE',  ( 0.000000000000000000, 0.1623797632095818344, 0.000000000000000000 ) ) ;
#54 = CLOSED_SHELL ( 'NONE', ( #189, #207, #174 ) ) ;
#55 = ORIENTED_EDGE ( 'NONE', *, *, #263, .T. ) ;
#56 = AXIS2_PLACEMENT_3D ( 'NONE', #53, #134, #183 ) ;
#57 = ORIENTED_EDGE ( 'NONE', *, *, #50, .T. ) ;
#58 = CARTESIAN_POINT ( 'NONE',  ( 1.224646799147353700E-16, 2.000000000000000000, 0.000000000000000000 ) ) ;
#59 = LENGTH_MEASURE_WITH_UNIT ( LENGTH_MEASURE( 0.02539999999999999897 ), #244 );
#60 = ORIENTED_EDGE ( 'NONE', *, *, #214, .F. ) ;
#61 = AXIS2_PLACEMENT_3D ( 'NONE', #86, #27, #140 ) ;
#62 = SURFACE_STYLE_FILL_AREA ( #262 ) ;
#63 = SURFACE_STYLE_FILL_AREA ( #124 ) ;
#64 = SURFACE_SIDE_STYLE ('',( #63 ) ) ;
#65 = STYLED_ITEM ( 'NONE', ( #255 ), #174 ) ;
#66 = PRODUCT_CONTEXT ( 'NONE', #95, 'mechanical' ) ;
#67 = DIRECTION ( 'NONE',  ( -1.000000000000000000, 0.000000000000000000, 0.000000000000000000 ) ) ;
#68 = DIRECTION ( 'NONE',  ( -1.000000000000000000, 0.000000000000000000, 0.000000000000000000 ) ) ;
#69 = PRESENTATION_STYLE_ASSIGNMENT (( #217 ) ) ;
#70 = DIRECTION ( 'NONE',  ( 0.000000000000000000, 1.000000000000000000, 0.000000000000000000 ) ) ;
#71 = PRODUCT_DEFINITION_CONTEXT ( 'detailed design', #170, 'design' ) ;
#72 = AXIS2_PLACEMENT_3D ( 'NONE', #58, #135, #82 ) ;
#73 = FACE_OUTER_BOUND ( 'NONE', #80, .T. ) ;
#74 =( LENGTH_UNIT ( ) NAMED_UNIT ( * ) SI_UNIT ( $, .METRE. ) );
#75 = ORIENTED_EDGE ( 'NONE', *, *, #223, .T. ) ;
#76 = MECHANICAL_DESIGN_GEOMETRIC_PRESENTATION_REPRESENTATION (  '', ( #22 ), #89 ) ;
#77 = MANIFOLD_SOLID_BREP ( 'Revolve - Cutting Edge', #54 ) ;
#78 = SURFACE_SIDE_STYLE ('',( #62 ) ) ;
#79 = FILL_AREA_STYLE_COLOUR ( '', #127 ) ;
#80 = EDGE_LOOP ( 'NONE', ( #101, #60 ) ) ;
#81 = PRODUCT_RELATED_PRODUCT_CATEGORY ( 'part', '', ( #157 ) ) ;
#82 = DIRECTION ( 'NONE',  ( -1.000000000000000000, 0.000000000000000000, 0.000000000000000000 ) ) ;
#83 = EDGE_LOOP ( 'NONE', ( #162, #57, #225, #97 ) ) ;
#84 = FACE_OUTER_BOUND ( 'NONE', #83, .T. ) ;
#85 = DIRECTION ( 'NONE',  ( -0.000000000000000000, -1.000000000000000000, -0.000000000000000000 ) ) ;
#86 = CARTESIAN_POINT ( 'NONE',  ( 1.224646799147353700E-16, 2.000000000000000000, 0.000000000000000000 ) ) ;
#87 = CARTESIAN_POINT ( 'NONE',  ( 0.09374999999999998612, 2.000000000000000000, 0.000000000000000000 ) ) ;
#88 = MECHANICAL_DESIGN_GEOMETRIC_PRESENTATION_REPRESENTATION (  '', ( #15 ), #213 ) ;
#89 =( GEOMETRIC_REPRESENTATION_CONTEXT ( 3 ) GLOBAL_UNCERTAINTY_ASSIGNED_CONTEXT ( ( #13 ) ) GLOBAL_UNIT_ASSIGNED_CONTEXT ( ( #204, #96, #17 ) ) REPRESENTATION_CONTEXT ( 'NONE', 'WORKASPACE' ) );
#90 = SURFACE_STYLE_FILL_AREA ( #11 ) ;
#91 = EDGE_CURVE ( 'NONE', #161, #243, #159, .T. ) ;
#92 =( GEOMETRIC_REPRESENTATION_CONTEXT ( 3 ) GLOBAL_UNCERTAINTY_ASSIGNED_CONTEXT ( ( #129 ) ) GLOBAL_UNIT_ASSIGNED_CONTEXT ( ( #172, #145, #14 ) ) REPRESENTATION_CONTEXT ( 'NONE', 'WORKASPACE' ) );
#93 = ORIENTED_EDGE ( 'NONE', *, *, #91, .T. ) ;
#94 = CARTESIAN_POINT ( 'NONE',  ( -0.09374999999999934774, 0.1623797632095817234, 0.000000000000000000 ) ) ;
#95 = APPLICATION_CONTEXT ( 'automotive_design' ) ;
#96 =( NAMED_UNIT ( * ) PLANE_ANGLE_UNIT ( ) SI_UNIT ( $, .RADIAN. ) );
#97 = ORIENTED_EDGE ( 'NONE', *, *, #167, .F. ) ;
#98 = ADVANCED_FACE ( 'NONE', ( #8 ), #209, .F. ) ;
#99 = DIRECTION ( 'NONE',  ( -1.122162118671284194E-16, 1.000000000000000000, -0.000000000000000000 ) ) ;
#100 = ORIENTED_EDGE ( 'NONE', *, *, #167, .T. ) ;
#101 = ORIENTED_EDGE ( 'NONE', *, *, #91, .F. ) ;
#102 = SURFACE_STYLE_USAGE ( .BOTH. , #64 ) ;
#103 = DIRECTION ( 'NONE',  ( 0.000000000000000000, 0.8660254037844380415, 0.5000000000000008882 ) ) ;
#104 = AXIS2_PLACEMENT_3D ( 'NONE', #87, #121, #226 ) ;
#105 = AXIS2_PLACEMENT_3D ( 'NONE', #23, #99, #242 ) ;
#106 = DIRECTION ( 'NONE',  ( -1.122162118671284194E-16, 1.000000000000000000, -0.000000000000000000 ) ) ;
#107 =( CONVERSION_BASED_UNIT ( 'INCH', #42 ) LENGTH_UNIT ( ) NAMED_UNIT ( #130 ) );
#108 = VECTOR ( 'NONE', #249, 39.37007874015748143 ) ;
#109 = STYLED_ITEM ( 'NONE', ( #154 ), #256 ) ;
#110 = ADVANCED_FACE ( 'NONE', ( #84 ), #164, .T. ) ;
#111 = FILL_AREA_STYLE_COLOUR ( '', #141 ) ;
#112 = SURFACE_STYLE_FILL_AREA ( #52 ) ;
#113 = UNCERTAINTY_MEASURE_WITH_UNIT (LENGTH_MEASURE( 1.000000000000000082E-05 ), #211, 'distance_accuracy_value', 'NONE');
#114 = CIRCLE ( 'NONE', #38, 0.09374999999999966693 ) ;
#115 = ORIENTED_EDGE ( 'NONE', *, *, #133, .T. ) ;
#116 = DIRECTION ( 'NONE',  ( -0.000000000000000000, -1.000000000000000000, -0.000000000000000000 ) ) ;
#117 = DIRECTION ( 'NONE',  ( 0.000000000000000000, 0.000000000000000000, -1.000000000000000000 ) ) ;
#118 = EDGE_LOOP ( 'NONE', ( #156, #180 ) ) ;
#119 = MECHANICAL_DESIGN_GEOMETRIC_PRESENTATION_REPRESENTATION (  '', ( #147 ), #92 ) ;
#120 =( GEOMETRIC_REPRESENTATION_CONTEXT ( 3 ) GLOBAL_UNCERTAINTY_ASSIGNED_CONTEXT ( ( #173 ) ) GLOBAL_UNIT_ASSIGNED_CONTEXT ( ( #199, #151, #233 ) ) REPRESENTATION_CONTEXT ( 'NONE', 'WORKASPACE' ) );
#121 = DIRECTION ( 'NONE',  ( 1.122162118671284194E-16, -1.000000000000000000, 0.000000000000000000 ) ) ;
#122 = CARTESIAN_POINT ( 'NONE',  ( 0.000000000000000000, 0.000000000000000000, 0.000000000000000000 ) ) ;
#123 = ADVANCED_FACE ( 'NONE', ( #229 ), #29, .T. ) ;
#124 = FILL_AREA_STYLE ('',( #26 ) ) ;
#125 =( LENGTH_UNIT ( ) NAMED_UNIT ( * ) SI_UNIT ( $, .METRE. ) );
#126 = DIRECTION ( 'NONE',  ( 0.000000000000000000, 1.000000000000000000, 0.000000000000000000 ) ) ;
#127 = COLOUR_RGB ( '',0.7921568627450980005, 0.8196078431372548767, 0.9333333333333333481 ) ;
#128 = CARTESIAN_POINT ( 'NONE',  ( 0.000000000000000000, 39.37007874015748143, 0.000000000000000000 ) ) ;
#129 = UNCERTAINTY_MEASURE_WITH_UNIT (LENGTH_MEASURE( 1.000000000000000082E-05 ), #172, 'distance_accuracy_value', 'NONE');
#130 = DIMENSIONAL_EXPONENTS ( 1.000000000000000000, 0.000000000000000000, 0.000000000000000000, 0.000000000000000000, 0.000000000000000000, 0.000000000000000000, 0.000000000000000000 ) ;
#131 = FACE_OUTER_BOUND ( 'NONE', #222, .T. ) ;
#132 =( GEOMETRIC_REPRESENTATION_CONTEXT ( 3 ) GLOBAL_UNCERTAINTY_ASSIGNED_CONTEXT ( ( #113 ) ) GLOBAL_UNIT_ASSIGNED_CONTEXT ( ( #211, #198, #257 ) ) REPRESENTATION_CONTEXT ( 'NONE', 'WORKASPACE' ) );
#133 = EDGE_CURVE ( 'NONE', #152, #161, #41, .T. ) ;
#134 = DIRECTION ( 'NONE',  ( 0.000000000000000000, 1.000000000000000000, 0.000000000000000000 ) ) ;
#135 = DIRECTION ( 'NONE',  ( -1.122162118671284194E-16, 1.000000000000000000, -0.000000000000000000 ) ) ;
#136 = VERTEX_POINT ( 'NONE', #250 ) ;
#137 =( GEOMETRIC_REPRESENTATION_CONTEXT ( 3 ) GLOBAL_UNCERTAINTY_ASSIGNED_CONTEXT ( ( #239 ) ) GLOBAL_UNIT_ASSIGNED_CONTEXT ( ( #155, #179, #35 ) ) REPRESENTATION_CONTEXT ( 'NONE', 'WORKASPACE' ) );
#138 = EDGE_LOOP ( 'NONE', ( #245, #55, #100, #37 ) ) ;
#139 =( LENGTH_UNIT ( ) NAMED_UNIT ( * ) SI_UNIT ( $, .METRE. ) );
#140 = DIRECTION ( 'NONE',  ( -1.000000000000000000, 0.000000000000000000, 0.000000000000000000 ) ) ;
#141 = COLOUR_RGB ( '',1.000000000000000000, 0.000000000000000000, 0.000000000000000000 ) ;
#142 = CARTESIAN_POINT ( 'NONE',  ( 0.000000000000000000, 0.000000000000000000, 0.000000000000000000 ) ) ;
#143 = DIRECTION ( 'NONE',  ( -1.122162118671284194E-16, 1.000000000000000000, -0.000000000000000000 ) ) ;
#144 = CARTESIAN_POINT ( 'NONE',  ( 1.224646799147353700E-16, 2.000000000000000000, 0.000000000000000000 ) ) ;
#145 =( NAMED_UNIT ( * ) PLANE_ANGLE_UNIT ( ) SI_UNIT ( $, .RADIAN. ) );
#146 = CARTESIAN_POINT ( 'NONE',  ( 0.000000000000000000, 39.37007874015748143, 0.000000000000000000 ) ) ;
#147 = STYLED_ITEM ( 'NONE', ( #69 ), #189 ) ;
#148 = AXIS2_PLACEMENT_3D ( 'NONE', #18, #116, #117 ) ;
#149 = FILL_AREA_STYLE ('',( #238 ) ) ;
#150 = SURFACE_STYLE_USAGE ( .BOTH. , #78 ) ;
#151 =( NAMED_UNIT ( * ) PLANE_ANGLE_UNIT ( ) SI_UNIT ( $, .RADIAN. ) );
#152 = VERTEX_POINT ( 'NONE', #168 ) ;
#153 = EDGE_CURVE ( 'NONE', #265, #200, #114, .T. ) ;
#154 = PRESENTATION_STYLE_ASSIGNMENT (( #150 ) ) ;
#155 =( CONVERSION_BASED_UNIT ( 'INCH', #182 ) LENGTH_UNIT ( ) NAMED_UNIT ( #186 ) );
#156 = ORIENTED_EDGE ( 'NONE', *, *, #153, .F. ) ;
#157 = PRODUCT ( '06333', '06333', '', ( #66 ) ) ;
#158 = LENGTH_MEASURE_WITH_UNIT ( LENGTH_MEASURE( 0.02539999999999999897 ), #74 );
#159 = CIRCLE ( 'NONE', #45, 0.09374999999999998612 ) ;
#160 = CIRCLE ( 'NONE', #72, 0.09374999999999987510 ) ;
#161 = VERTEX_POINT ( 'NONE', #232 ) ;
#162 = ORIENTED_EDGE ( 'NONE', *, *, #153, .T. ) ;
#163 = CARTESIAN_POINT ( 'NONE',  ( 0.000000000000000000, 0.000000000000000000, 0.000000000000000000 ) ) ;
#164 = CYLINDRICAL_SURFACE ( 'NONE', #61, 0.09374999999999976408 ) ;
#165 = DIRECTION ( 'NONE',  ( -1.000000000000000000, -1.122162118671284194E-16, 0.000000000000000000 ) ) ;
#166 = PRESENTATION_LAYER_ASSIGNMENT (  '', '', ( #65 ) ) ;
#167 = EDGE_CURVE ( 'NONE', #265, #136, #169, .T. ) ;
#168 = CARTESIAN_POINT ( 'NONE',  ( 0.000000000000000000, 0.000000000000000000, 0.000000000000000000 ) ) ;
#169 = LINE ( 'NONE', #235, #1 ) ;
#170 = APPLICATION_CONTEXT ( 'automotive_design' ) ;
#171 = FACE_OUTER_BOUND ( 'NONE', #202, .T. ) ;
#172 =( CONVERSION_BASED_UNIT ( 'INCH', #215 ) LENGTH_UNIT ( ) NAMED_UNIT ( #231 ) );
#173 = UNCERTAINTY_MEASURE_WITH_UNIT (LENGTH_MEASURE( 1.000000000000000082E-05 ), #199, 'distance_accuracy_value', 'NONE');
#174 = ADVANCED_FACE ( 'NONE', ( #131 ), #6, .T. ) ;
#175 = CARTESIAN_POINT ( 'NONE',  ( 0.09374999999999997224, 0.1623797632095817234, 1.148106374200641398E-17 ) ) ;
#176 = DIMENSIONAL_EXPONENTS ( 1.000000000000000000, 0.000000000000000000, 0.000000000000000000, 0.000000000000000000, 0.000000000000000000, 0.000000000000000000, 0.000000000000000000 ) ;
#177 = DIRECTION ( 'NONE',  ( -1.000000000000000000, 0.000000000000000000, 0.000000000000000000 ) ) ;
#178 = PRODUCT_DEFINITION_SHAPE ( 'NONE', 'NONE',  #203 ) ;
#179 =( NAMED_UNIT ( * ) PLANE_ANGLE_UNIT ( ) SI_UNIT ( $, .RADIAN. ) );
#180 = ORIENTED_EDGE ( 'NONE', *, *, #263, .F. ) ;
#181 = CLOSED_SHELL ( 'NONE', ( #110, #98, #123, #19 ) ) ;
#182 = LENGTH_MEASURE_WITH_UNIT ( LENGTH_MEASURE( 0.02539999999999999897 ), #221 );
#183 = DIRECTION ( 'NONE',  ( 0.000000000000000000, -0.000000000000000000, 1.000000000000000000 ) ) ;
#184 = ORIENTED_EDGE ( 'NONE', *, *, #7, .F. ) ;
#185 = ORIENTED_EDGE ( 'NONE', *, *, #236, .T. ) ;
#186 = DIMENSIONAL_EXPONENTS ( 1.000000000000000000, 0.000000000000000000, 0.000000000000000000, 0.000000000000000000, 0.000000000000000000, 0.000000000000000000, 0.000000000000000000 ) ;
#187 = CARTESIAN_POINT ( 'NONE',  ( 0.000000000000000000, 0.1623797632095818344, 0.000000000000000000 ) ) ;
#188 = APPLICATION_PROTOCOL_DEFINITION ( 'draft international standard', 'automotive_design', 1998, #95 ) ;
#189 = ADVANCED_FACE ( 'NONE', ( #171 ), #28, .T. ) ;
#190 = COLOUR_RGB ( '',1.000000000000000000, 0.000000000000000000, 0.000000000000000000 ) ;
#191 = CARTESIAN_POINT ( 'NONE',  ( 0.09374999999999988898, 2.000000000000000000, 1.148106374200640781E-17 ) ) ;
#192 = LINE ( 'NONE', #122, #227 ) ;
#193 =( LENGTH_UNIT ( ) NAMED_UNIT ( * ) SI_UNIT ( $, .METRE. ) );
#194 = AXIS2_PLACEMENT_3D ( 'NONE', #210, #234, #165 ) ;
#195 = PRESENTATION_LAYER_ASSIGNMENT (  '', '', ( #22 ) ) ;
#196 = SURFACE_STYLE_USAGE ( .BOTH. , #218 ) ;
#197 = COLOUR_RGB ( '',0.7921568627450980005, 0.8196078431372548767, 0.9333333333333333481 ) ;
#198 =( NAMED_UNIT ( * ) PLANE_ANGLE_UNIT ( ) SI_UNIT ( $, .RADIAN. ) );
#199 =( CONVERSION_BASED_UNIT ( 'INCH', #158 ) LENGTH_UNIT ( ) NAMED_UNIT ( #4 ) );
#200 = VERTEX_POINT ( 'NONE', #175 ) ;
#201 = CARTESIAN_POINT ( 'NONE',  ( 1.148106374200643247E-17, 0.1623797632095818344, -0.09374999999999997224 ) ) ;
#202 = EDGE_LOOP ( 'NONE', ( #39, #224, #20 ) ) ;
#203 = PRODUCT_DEFINITION ( 'UNKNOWN', '', #258, #71 ) ;
#204 =( CONVERSION_BASED_UNIT ( 'INCH', #59 ) LENGTH_UNIT ( ) NAMED_UNIT ( #176 ) );
#205 = AXIS2_PLACEMENT_3D ( 'NONE', #259, #36, #177 ) ;
#206 =( NAMED_UNIT ( * ) PLANE_ANGLE_UNIT ( ) SI_UNIT ( $, .RADIAN. ) );
#207 = ADVANCED_FACE ( 'NONE', ( #73 ), #237, .T. ) ;
#208 = PLANE ( 'NONE',  #104 ) ;
#209 = PLANE ( 'NONE',  #194 ) ;
#210 = CARTESIAN_POINT ( 'NONE',  ( 3.286754617377316716E-16, 0.1623797632095818344, 0.000000000000000000 ) ) ;
#211 =( CONVERSION_BASED_UNIT ( 'INCH', #10 ) LENGTH_UNIT ( ) NAMED_UNIT ( #252 ) );
#212 = SURFACE_SIDE_STYLE ('',( #51 ) ) ;
#213 =( GEOMETRIC_REPRESENTATION_CONTEXT ( 3 ) GLOBAL_UNCERTAINTY_ASSIGNED_CONTEXT ( ( #216 ) ) GLOBAL_UNIT_ASSIGNED_CONTEXT ( ( #107, #206, #25 ) ) REPRESENTATION_CONTEXT ( 'NONE', 'WORKASPACE' ) );
#214 = EDGE_CURVE ( 'NONE', #243, #161, #246, .T. ) ;
#215 = LENGTH_MEASURE_WITH_UNIT ( LENGTH_MEASURE( 0.02539999999999999897 ), #193 );
#216 = UNCERTAINTY_MEASURE_WITH_UNIT (LENGTH_MEASURE( 1.000000000000000082E-05 ), #107, 'distance_accuracy_value', 'NONE');
#217 = SURFACE_STYLE_USAGE ( .BOTH. , #212 ) ;
#218 = SURFACE_SIDE_STYLE ('',( #112 ) ) ;
#219 = AXIS2_PLACEMENT_3D ( 'NONE', #128, #70, #48 ) ;
#220 = AXIS2_PLACEMENT_3D ( 'NONE', #163, #2, #230 ) ;
#221 =( LENGTH_UNIT ( ) NAMED_UNIT ( * ) SI_UNIT ( $, .METRE. ) );
#222 = EDGE_LOOP ( 'NONE', ( #184, #115, #93 ) ) ;
#223 = EDGE_CURVE ( 'NONE', #46, #136, #228, .T. ) ;
#224 = ORIENTED_EDGE ( 'NONE', *, *, #7, .T. ) ;
#225 = ORIENTED_EDGE ( 'NONE', *, *, #236, .F. ) ;
#226 = DIRECTION ( 'NONE',  ( 1.000000000000000000, 1.122162118671284194E-16, 0.000000000000000000 ) ) ;
#227 = VECTOR ( 'NONE', #44, 39.37007874015748143 ) ;
#228 = CIRCLE ( 'NONE', #205, 0.09374999999999987510 ) ;
#229 = FACE_OUTER_BOUND ( 'NONE', #138, .T. ) ;
#230 = DIRECTION ( 'NONE',  ( 1.000000000000000000, 0.000000000000000000, 0.000000000000000000 ) ) ;
#231 = DIMENSIONAL_EXPONENTS ( 1.000000000000000000, 0.000000000000000000, 0.000000000000000000, 0.000000000000000000, 0.000000000000000000, 0.000000000000000000, 0.000000000000000000 ) ;
#232 = CARTESIAN_POINT ( 'NONE',  ( 0.000000000000000000, 0.1623797632095818344, 0.09374999999999997224 ) ) ;
#233 =( NAMED_UNIT ( * ) SI_UNIT ( $, .STERADIAN. ) SOLID_ANGLE_UNIT ( ) );
#234 = DIRECTION ( 'NONE',  ( -1.122162118671284194E-16, 1.000000000000000000, 0.000000000000000000 ) ) ;
#235 = CARTESIAN_POINT ( 'NONE',  ( -0.09374999999999965306, 2.000000000000000000, 0.000000000000000000 ) ) ;
#236 = EDGE_CURVE ( 'NONE', #136, #46, #160, .T. ) ;
#237 = PLANE ( 'NONE',  #56 ) ;
#238 = FILL_AREA_STYLE_COLOUR ( '', #24 ) ;
#239 = UNCERTAINTY_MEASURE_WITH_UNIT (LENGTH_MEASURE( 1.000000000000000082E-05 ), #155, 'distance_accuracy_value', 'NONE');
#240 = PRESENTATION_LAYER_ASSIGNMENT (  '', '', ( #147 ) ) ;
#241 = PRESENTATION_LAYER_ASSIGNMENT (  '', '', ( #109 ) ) ;
#242 = DIRECTION ( 'NONE',  ( -1.000000000000000000, 0.000000000000000000, 0.000000000000000000 ) ) ;
#243 = VERTEX_POINT ( 'NONE', #201 ) ;
#244 =( LENGTH_UNIT ( ) NAMED_UNIT ( * ) SI_UNIT ( $, .METRE. ) );
#245 = ORIENTED_EDGE ( 'NONE', *, *, #50, .F. ) ;
#246 = CIRCLE ( 'NONE', #148, 0.09374999999999998612 ) ;
#247 = AXIS2_PLACEMENT_3D ( 'NONE', #146, #126, #30 ) ;
#248 = FACE_OUTER_BOUND ( 'NONE', #260, .T. ) ;
#249 = DIRECTION ( 'NONE',  ( -1.122162118671284194E-16, 1.000000000000000000, -0.000000000000000000 ) ) ;
#250 = CARTESIAN_POINT ( 'NONE',  ( -0.09374999999999975020, 2.000000000000000000, 0.000000000000000000 ) ) ;
#251 = CARTESIAN_POINT ( 'NONE',  ( 3.286754617377316716E-16, 0.1623797632095817234, 0.000000000000000000 ) ) ;
#252 = DIMENSIONAL_EXPONENTS ( 1.000000000000000000, 0.000000000000000000, 0.000000000000000000, 0.000000000000000000, 0.000000000000000000, 0.000000000000000000, 0.000000000000000000 ) ;
#253 = PRESENTATION_STYLE_ASSIGNMENT (( #102 ) ) ;
#254 = MECHANICAL_DESIGN_GEOMETRIC_PRESENTATION_REPRESENTATION (  '', ( #65 ), #132 ) ;
#255 = PRESENTATION_STYLE_ASSIGNMENT (( #47 ) ) ;
#256 = MANIFOLD_SOLID_BREP ( 'Revolve - Tool Body (Pointed)', #181 ) ;
#257 =( NAMED_UNIT ( * ) SI_UNIT ( $, .STERADIAN. ) SOLID_ANGLE_UNIT ( ) );
#258 = PRODUCT_DEFINITION_FORMATION_WITH_SPECIFIED_SOURCE ( 'ANY', '', #157, .NOT_KNOWN. ) ;
#259 = CARTESIAN_POINT ( 'NONE',  ( 1.224646799147353700E-16, 2.000000000000000000, 0.000000000000000000 ) ) ;
#260 = EDGE_LOOP ( 'NONE', ( #185, #75 ) ) ;
#261 = MECHANICAL_DESIGN_GEOMETRIC_PRESENTATION_REPRESENTATION (  '', ( #109 ), #137 ) ;
#262 = FILL_AREA_STYLE ('',( #79 ) ) ;
#263 = EDGE_CURVE ( 'NONE', #200, #265, #16, .T. ) ;
#264 = ADVANCED_BREP_SHAPE_REPRESENTATION ( '06333', ( #77, #256, #220 ), #120 ) ;
#265 = VERTEX_POINT ( 'NONE', #94 ) ;
ENDSEC;
END-ISO-10303-21;
