ISO-10303-21;
HEADER;
FILE_DESCRIPTION (( 'STEP AP214' ),
    '1' );
FILE_NAME ('83205.STEP',
    '2023-06-23T08:42:12',
    ( '' ),
    ( '' ),
    'SwSTEP 2.0',
    'SolidWorks 2023',
    '' );
FILE_SCHEMA (( 'AUTOMOTIVE_DESIGN' ));
ENDSEC;

DATA;
#1 = CYLINDRICAL_SURFACE ( 'NONE', #168, 0.3125000000000000000 ) ;
#2 = DIMENSIONAL_EXPONENTS ( 1.000000000000000000, 0.000000000000000000, 0.000000000000000000, 0.000000000000000000, 0.000000000000000000, 0.000000000000000000, 0.000000000000000000 ) ;
#3 = DIRECTION ( 'NONE',  ( 0.000000000000000000, 0.000000000000000000, -1.000000000000000000 ) ) ;
#4 =( LENGTH_UNIT ( ) NAMED_UNIT ( * ) SI_UNIT ( $, .METRE. ) );
#5 = APPLICATION_CONTEXT ( 'automotive_design' ) ;
#6 = DIRECTION ( 'NONE',  ( -0.000000000000000000, -1.000000000000000000, -0.000000000000000000 ) ) ;
#7 = LENGTH_MEASURE_WITH_UNIT ( LENGTH_MEASURE( 0.02539999999999999897 ), #33 );
#8 = STYLED_ITEM ( 'NONE', ( #45 ), #236 ) ;
#9 =( NAMED_UNIT ( * ) PLANE_ANGLE_UNIT ( ) SI_UNIT ( $, .RADIAN. ) );
#10 = EDGE_CURVE ( 'NONE', #59, #110, #124, .T. ) ;
#11 = CIRCLE ( 'NONE', #304, 0.3125000000000000555 ) ;
#12 = ORIENTED_EDGE ( 'NONE', *, *, #62, .T. ) ;
#13 =( NAMED_UNIT ( * ) SI_UNIT ( $, .STERADIAN. ) SOLID_ANGLE_UNIT ( ) );
#14 = EDGE_CURVE ( 'NONE', #128, #58, #78, .T. ) ;
#15 = ORIENTED_EDGE ( 'NONE', *, *, #191, .F. ) ;
#16 = EDGE_CURVE ( 'NONE', #207, #39, #100, .T. ) ;
#17 = CARTESIAN_POINT ( 'NONE',  ( 3.827021247335478926E-17, 1.250000000000000000, 0.3125000000000000000 ) ) ;
#18 = PRESENTATION_LAYER_ASSIGNMENT (  '', '', ( #118 ) ) ;
#19 =( CONVERSION_BASED_UNIT ( 'INCH', #212 ) LENGTH_UNIT ( ) NAMED_UNIT ( #307 ) );
#20 = AXIS2_PLACEMENT_3D ( 'NONE', #46, #150, #87 ) ;
#21 = EDGE_LOOP ( 'NONE', ( #249, #105 ) ) ;
#22 = PRODUCT_CONTEXT ( 'NONE', #5, 'mechanical' ) ;
#23 = CARTESIAN_POINT ( 'NONE',  ( 0.000000000000000000, 1.250000000000000000, 0.000000000000000000 ) ) ;
#24 = CARTESIAN_POINT ( 'NONE',  ( -0.3125000000000000000, 1.250000000000000000, 0.000000000000000000 ) ) ;
#25 = EDGE_CURVE ( 'NONE', #110, #59, #132, .T. ) ;
#26 = DIMENSIONAL_EXPONENTS ( 1.000000000000000000, 0.000000000000000000, 0.000000000000000000, 0.000000000000000000, 0.000000000000000000, 0.000000000000000000, 0.000000000000000000 ) ;
#27 = DIRECTION ( 'NONE',  ( -1.000000000000000000, 0.000000000000000000, 0.000000000000000000 ) ) ;
#28 =( LENGTH_UNIT ( ) NAMED_UNIT ( * ) SI_UNIT ( $, .METRE. ) );
#29 = VECTOR ( 'NONE', #228, 39.37007874015748143 ) ;
#30 = SURFACE_SIDE_STYLE ('',( #234 ) ) ;
#31 = CARTESIAN_POINT ( 'NONE',  ( 0.000000000000000000, 0.000000000000000000, 0.000000000000000000 ) ) ;
#32 = STYLED_ITEM ( 'NONE', ( #237 ), #294 ) ;
#33 =( LENGTH_UNIT ( ) NAMED_UNIT ( * ) SI_UNIT ( $, .METRE. ) );
#34 =( LENGTH_UNIT ( ) NAMED_UNIT ( * ) SI_UNIT ( $, .METRE. ) );
#35 = FILL_AREA_STYLE_COLOUR ( '', #299 ) ;
#36 = COLOUR_RGB ( '',1.000000000000000000, 0.000000000000000000, 0.000000000000000000 ) ;
#37 = ORIENTED_EDGE ( 'NONE', *, *, #152, .F. ) ;
#38 = SURFACE_STYLE_FILL_AREA ( #125 ) ;
#39 = VERTEX_POINT ( 'NONE', #17 ) ;
#40 = DIRECTION ( 'NONE',  ( -2.721437331438560697E-17, 1.000000000000000000, 0.000000000000000000 ) ) ;
#41 = CARTESIAN_POINT ( 'NONE',  ( 0.000000000000000000, 1.250000000000000000, 0.000000000000000000 ) ) ;
#42 = COLOUR_RGB ( '',0.7921568627450980005, 0.8196078431372548767, 0.9333333333333333481 ) ;
#43 = DIRECTION ( 'NONE',  ( -2.721437331438560697E-17, 1.000000000000000000, -0.000000000000000000 ) ) ;
#44 = EDGE_LOOP ( 'NONE', ( #173, #90 ) ) ;
#45 = PRESENTATION_STYLE_ASSIGNMENT (( #259 ) ) ;
#46 = CARTESIAN_POINT ( 'NONE',  ( 0.000000000000000000, 0.000000000000000000, 0.000000000000000000 ) ) ;
#47 = CARTESIAN_POINT ( 'NONE',  ( 0.000000000000000000, 1.250000000000000000, -0.3125000000000000000 ) ) ;
#48 = PRODUCT_DEFINITION_CONTEXT ( 'detailed design', #85, 'design' ) ;
#49 =( NAMED_UNIT ( * ) SI_UNIT ( $, .STERADIAN. ) SOLID_ANGLE_UNIT ( ) );
#50 = LENGTH_MEASURE_WITH_UNIT ( LENGTH_MEASURE( 0.02539999999999999897 ), #4 );
#51 =( LENGTH_UNIT ( ) NAMED_UNIT ( * ) SI_UNIT ( $, .METRE. ) );
#52 =( GEOMETRIC_REPRESENTATION_CONTEXT ( 3 ) GLOBAL_UNCERTAINTY_ASSIGNED_CONTEXT ( ( #244 ) ) GLOBAL_UNIT_ASSIGNED_CONTEXT ( ( #19, #290, #114 ) ) REPRESENTATION_CONTEXT ( 'NONE', 'WORKASPACE' ) );
#53 = FACE_OUTER_BOUND ( 'NONE', #279, .T. ) ;
#54 = CARTESIAN_POINT ( 'NONE',  ( 0.000000000000000000, 1.250000000000000000, 0.000000000000000000 ) ) ;
#55 =( CONVERSION_BASED_UNIT ( 'INCH', #277 ) LENGTH_UNIT ( ) NAMED_UNIT ( #273 ) );
#56 = ORIENTED_EDGE ( 'NONE', *, *, #62, .F. ) ;
#57 = FILL_AREA_STYLE_COLOUR ( '', #42 ) ;
#58 = VERTEX_POINT ( 'NONE', #24 ) ;
#59 = VERTEX_POINT ( 'NONE', #134 ) ;
#60 =( GEOMETRIC_REPRESENTATION_CONTEXT ( 3 ) GLOBAL_UNCERTAINTY_ASSIGNED_CONTEXT ( ( #146 ) ) GLOBAL_UNIT_ASSIGNED_CONTEXT ( ( #217, #193, #49 ) ) REPRESENTATION_CONTEXT ( 'NONE', 'WORKASPACE' ) );
#61 = CARTESIAN_POINT ( 'NONE',  ( 0.000000000000000000, 1.250000000000000000, 0.000000000000000000 ) ) ;
#62 = EDGE_CURVE ( 'NONE', #207, #110, #135, .T. ) ;
#63 = CARTESIAN_POINT ( 'NONE',  ( 0.000000000000000000, 0.000000000000000000, -0.3125000000000000000 ) ) ;
#64 = APPLICATION_PROTOCOL_DEFINITION ( 'draft international standard', 'automotive_design', 1998, #5 ) ;
#65 = FILL_AREA_STYLE ('',( #57 ) ) ;
#66 =( NAMED_UNIT ( * ) SI_UNIT ( $, .STERADIAN. ) SOLID_ANGLE_UNIT ( ) );
#67 = FACE_OUTER_BOUND ( 'NONE', #281, .T. ) ;
#68 = SURFACE_STYLE_USAGE ( .BOTH. , #30 ) ;
#69 = SURFACE_STYLE_FILL_AREA ( #219 ) ;
#70 = FACE_OUTER_BOUND ( 'NONE', #44, .T. ) ;
#71 = SURFACE_SIDE_STYLE ('',( #69 ) ) ;
#72 =( GEOMETRIC_REPRESENTATION_CONTEXT ( 3 ) GLOBAL_UNCERTAINTY_ASSIGNED_CONTEXT ( ( #268 ) ) GLOBAL_UNIT_ASSIGNED_CONTEXT ( ( #97, #274, #300 ) ) REPRESENTATION_CONTEXT ( 'NONE', 'WORKASPACE' ) );
#73 = ORIENTED_EDGE ( 'NONE', *, *, #269, .F. ) ;
#74 = UNCERTAINTY_MEASURE_WITH_UNIT (LENGTH_MEASURE( 1.000000000000000082E-05 ), #252, 'distance_accuracy_value', 'NONE');
#75 = EDGE_CURVE ( 'NONE', #178, #180, #11, .T. ) ;
#76 = UNCERTAINTY_MEASURE_WITH_UNIT (LENGTH_MEASURE( 1.000000000000000082E-05 ), #190, 'distance_accuracy_value', 'NONE');
#77 = MECHANICAL_DESIGN_GEOMETRIC_PRESENTATION_REPRESENTATION (  '', ( #8 ), #52 ) ;
#78 = CIRCLE ( 'NONE', #204, 0.3125000000000000000 ) ;
#79 = ADVANCED_FACE ( 'NONE', ( #250 ), #199, .T. ) ;
#80 = FILL_AREA_STYLE ('',( #301 ) ) ;
#81 = DIRECTION ( 'NONE',  ( -0.000000000000000000, -1.000000000000000000, -0.000000000000000000 ) ) ;
#82 = ORIENTED_EDGE ( 'NONE', *, *, #123, .T. ) ;
#83 = AXIS2_PLACEMENT_3D ( 'NONE', #23, #129, #112 ) ;
#84 = ORIENTED_EDGE ( 'NONE', *, *, #123, .F. ) ;
#85 = APPLICATION_CONTEXT ( 'automotive_design' ) ;
#86 = PRODUCT ( '83205', '83205', '', ( #22 ) ) ;
#87 = DIRECTION ( 'NONE',  ( 0.000000000000000000, 0.000000000000000000, -1.000000000000000000 ) ) ;
#88 = CARTESIAN_POINT ( 'NONE',  ( -6.123233995736759873E-17, 3.500000000000000000, 0.000000000000000000 ) ) ;
#89 = PRODUCT_RELATED_PRODUCT_CATEGORY ( 'part', '', ( #86 ) ) ;
#90 = ORIENTED_EDGE ( 'NONE', *, *, #10, .T. ) ;
#91 = DIRECTION ( 'NONE',  ( -0.000000000000000000, -1.000000000000000000, -0.000000000000000000 ) ) ;
#92 = AXIS2_PLACEMENT_3D ( 'NONE', #133, #284, #210 ) ;
#93 = ADVANCED_FACE ( 'NONE', ( #67 ), #163, .T. ) ;
#94 = AXIS2_PLACEMENT_3D ( 'NONE', #232, #40, #227 ) ;
#95 =( NAMED_UNIT ( * ) SI_UNIT ( $, .STERADIAN. ) SOLID_ANGLE_UNIT ( ) );
#96 = AXIS2_PLACEMENT_3D ( 'NONE', #88, #116, #239 ) ;
#97 =( CONVERSION_BASED_UNIT ( 'INCH', #241 ) LENGTH_UNIT ( ) NAMED_UNIT ( #245 ) );
#98 = FILL_AREA_STYLE_COLOUR ( '', #295 ) ;
#99 =( GEOMETRIC_REPRESENTATION_CONTEXT ( 3 ) GLOBAL_UNCERTAINTY_ASSIGNED_CONTEXT ( ( #76 ) ) GLOBAL_UNIT_ASSIGNED_CONTEXT ( ( #190, #139, #95 ) ) REPRESENTATION_CONTEXT ( 'NONE', 'WORKASPACE' ) );
#100 = CIRCLE ( 'NONE', #243, 0.3125000000000000000 ) ;
#101 = ADVANCED_FACE ( 'NONE', ( #53 ), #120, .F. ) ;
#102 = FACE_OUTER_BOUND ( 'NONE', #226, .T. ) ;
#103 = PRODUCT_DEFINITION_SHAPE ( 'NONE', 'NONE',  #213 ) ;
#104 =( GEOMETRIC_REPRESENTATION_CONTEXT ( 3 ) GLOBAL_UNCERTAINTY_ASSIGNED_CONTEXT ( ( #145 ) ) GLOBAL_UNIT_ASSIGNED_CONTEXT ( ( #55, #172, #13 ) ) REPRESENTATION_CONTEXT ( 'NONE', 'WORKASPACE' ) );
#105 = ORIENTED_EDGE ( 'NONE', *, *, #215, .F. ) ;
#106 = EDGE_LOOP ( 'NONE', ( #107, #82, #126, #222 ) ) ;
#107 = ORIENTED_EDGE ( 'NONE', *, *, #191, .T. ) ;
#108 = STYLED_ITEM ( 'NONE', ( #115 ), #79 ) ;
#109 = SURFACE_STYLE_FILL_AREA ( #151 ) ;
#110 = VERTEX_POINT ( 'NONE', #246 ) ;
#111 = DIRECTION ( 'NONE',  ( 1.000000000000000000, 0.000000000000000000, 0.000000000000000000 ) ) ;
#112 = DIRECTION ( 'NONE',  ( -1.000000000000000000, 0.000000000000000000, 0.000000000000000000 ) ) ;
#113 = ORIENTED_EDGE ( 'NONE', *, *, #75, .T. ) ;
#114 =( NAMED_UNIT ( * ) SI_UNIT ( $, .STERADIAN. ) SOLID_ANGLE_UNIT ( ) );
#115 = PRESENTATION_STYLE_ASSIGNMENT (( #68 ) ) ;
#116 = DIRECTION ( 'NONE',  ( -2.721437331438560389E-17, 1.000000000000000000, -0.000000000000000000 ) ) ;
#117 = DIRECTION ( 'NONE',  ( 0.000000000000000000, -1.000000000000000000, -0.000000000000000000 ) ) ;
#118 = STYLED_ITEM ( 'NONE', ( #306 ), #240 ) ;
#119 = SURFACE_STYLE_FILL_AREA ( #262 ) ;
#120 = PLANE ( 'NONE',  #214 ) ;
#121 = LENGTH_MEASURE_WITH_UNIT ( LENGTH_MEASURE( 0.02539999999999999897 ), #34 );
#122 = ADVANCED_FACE ( 'NONE', ( #102 ), #166, .T. ) ;
#123 = EDGE_CURVE ( 'NONE', #128, #180, #264, .T. ) ;
#124 = CIRCLE ( 'NONE', #235, 0.3125000000000000000 ) ;
#125 = FILL_AREA_STYLE ('',( #35 ) ) ;
#126 = ORIENTED_EDGE ( 'NONE', *, *, #75, .F. ) ;
#127 =( LENGTH_UNIT ( ) NAMED_UNIT ( * ) SI_UNIT ( $, .METRE. ) );
#128 = VERTEX_POINT ( 'NONE', #136 ) ;
#129 = DIRECTION ( 'NONE',  ( -2.721437331438560389E-17, 1.000000000000000000, -0.000000000000000000 ) ) ;
#130 = ORIENTED_EDGE ( 'NONE', *, *, #16, .T. ) ;
#131 = APPLICATION_PROTOCOL_DEFINITION ( 'draft international standard', 'automotive_design', 1998, #85 ) ;
#132 = CIRCLE ( 'NONE', #20, 0.3125000000000000000 ) ;
#133 = CARTESIAN_POINT ( 'NONE',  ( -6.123233995736759873E-17, 3.500000000000000000, 0.000000000000000000 ) ) ;
#134 = CARTESIAN_POINT ( 'NONE',  ( 3.827021247335478926E-17, 0.000000000000000000, 0.3125000000000000000 ) ) ;
#135 = LINE ( 'NONE', #63, #29 ) ;
#136 = CARTESIAN_POINT ( 'NONE',  ( 0.3125000000000000000, 1.250000000000000000, 3.827021247335478926E-17 ) ) ;
#137 = SURFACE_SIDE_STYLE ('',( #181 ) ) ;
#138 = STYLED_ITEM ( 'NONE', ( #216 ), #93 ) ;
#139 =( NAMED_UNIT ( * ) PLANE_ANGLE_UNIT ( ) SI_UNIT ( $, .RADIAN. ) );
#140 =( CONVERSION_BASED_UNIT ( 'INCH', #50 ) LENGTH_UNIT ( ) NAMED_UNIT ( #288 ) );
#141 = SURFACE_STYLE_USAGE ( .BOTH. , #292 ) ;
#142 = LENGTH_MEASURE_WITH_UNIT ( LENGTH_MEASURE( 0.02539999999999999897 ), #51 );
#143 = CARTESIAN_POINT ( 'NONE',  ( 0.3125000000000000000, 3.500000000000000000, 0.000000000000000000 ) ) ;
#144 = ADVANCED_FACE ( 'NONE', ( #154 ), #280, .T. ) ;
#145 = UNCERTAINTY_MEASURE_WITH_UNIT (LENGTH_MEASURE( 1.000000000000000082E-05 ), #55, 'distance_accuracy_value', 'NONE');
#146 = UNCERTAINTY_MEASURE_WITH_UNIT (LENGTH_MEASURE( 1.000000000000000082E-05 ), #217, 'distance_accuracy_value', 'NONE');
#147 = DIRECTION ( 'NONE',  ( 2.721437331438560697E-17, -1.000000000000000000, 0.000000000000000000 ) ) ;
#148 = SURFACE_STYLE_USAGE ( .BOTH. , #164 ) ;
#149 = CLOSED_SHELL ( 'NONE', ( #144, #187, #198, #101 ) ) ;
#150 = DIRECTION ( 'NONE',  ( -0.000000000000000000, -1.000000000000000000, -0.000000000000000000 ) ) ;
#151 = FILL_AREA_STYLE ('',( #177 ) ) ;
#152 = EDGE_CURVE ( 'NONE', #39, #59, #251, .T. ) ;
#153 = EDGE_LOOP ( 'NONE', ( #84, #182, #283, #73 ) ) ;
#154 = FACE_OUTER_BOUND ( 'NONE', #106, .T. ) ;
#155 = PRESENTATION_LAYER_ASSIGNMENT (  '', '', ( #8 ) ) ;
#156 = EDGE_LOOP ( 'NONE', ( #15, #176 ) ) ;
#157 = DIRECTION ( 'NONE',  ( 0.000000000000000000, 0.000000000000000000, 1.000000000000000000 ) ) ;
#158 = CLOSED_SHELL ( 'NONE', ( #93, #79, #122, #294 ) ) ;
#159 = DIRECTION ( 'NONE',  ( 0.000000000000000000, 0.000000000000000000, -1.000000000000000000 ) ) ;
#160 = ORIENTED_EDGE ( 'NONE', *, *, #25, .F. ) ;
#161 = DIRECTION ( 'NONE',  ( -2.721437331438560389E-17, 1.000000000000000000, -0.000000000000000000 ) ) ;
#162 = CARTESIAN_POINT ( 'NONE',  ( 3.827021247335478926E-17, 0.000000000000000000, 0.3125000000000000000 ) ) ;
#163 = CYLINDRICAL_SURFACE ( 'NONE', #185, 0.3125000000000000000 ) ;
#164 = SURFACE_SIDE_STYLE ('',( #38 ) ) ;
#165 =( GEOMETRIC_REPRESENTATION_CONTEXT ( 3 ) GLOBAL_UNCERTAINTY_ASSIGNED_CONTEXT ( ( #74 ) ) GLOBAL_UNIT_ASSIGNED_CONTEXT ( ( #252, #248, #66 ) ) REPRESENTATION_CONTEXT ( 'NONE', 'WORKASPACE' ) );
#166 = CYLINDRICAL_SURFACE ( 'NONE', #224, 0.3125000000000000000 ) ;
#167 = PLANE ( 'NONE',  #211 ) ;
#168 = AXIS2_PLACEMENT_3D ( 'NONE', #208, #161, #303 ) ;
#169 = MECHANICAL_DESIGN_GEOMETRIC_PRESENTATION_REPRESENTATION (  '', ( #138 ), #72 ) ;
#170 = CARTESIAN_POINT ( 'NONE',  ( 0.000000000000000000, 0.000000000000000000, 0.000000000000000000 ) ) ;
#171 = UNCERTAINTY_MEASURE_WITH_UNIT (LENGTH_MEASURE( 1.000000000000000082E-05 ), #140, 'distance_accuracy_value', 'NONE');
#172 =( NAMED_UNIT ( * ) PLANE_ANGLE_UNIT ( ) SI_UNIT ( $, .RADIAN. ) );
#173 = ORIENTED_EDGE ( 'NONE', *, *, #25, .T. ) ;
#174 = DIRECTION ( 'NONE',  ( 1.000000000000000000, 2.721437331438560697E-17, 0.000000000000000000 ) ) ;
#175 = MECHANICAL_DESIGN_GEOMETRIC_PRESENTATION_REPRESENTATION (  '', ( #296 ), #104 ) ;
#176 = ORIENTED_EDGE ( 'NONE', *, *, #14, .F. ) ;
#177 = FILL_AREA_STYLE_COLOUR ( '', #194 ) ;
#178 = VERTEX_POINT ( 'NONE', #287 ) ;
#179 = SURFACE_STYLE_USAGE ( .BOTH. , #206 ) ;
#180 = VERTEX_POINT ( 'NONE', #254 ) ;
#181 = SURFACE_STYLE_FILL_AREA ( #65 ) ;
#182 = ORIENTED_EDGE ( 'NONE', *, *, #14, .T. ) ;
#183 = DIRECTION ( 'NONE',  ( -2.721437331438560697E-17, 1.000000000000000000, -0.000000000000000000 ) ) ;
#184 = FACE_OUTER_BOUND ( 'NONE', #156, .T. ) ;
#185 = AXIS2_PLACEMENT_3D ( 'NONE', #170, #81, #218 ) ;
#186 = AXIS2_PLACEMENT_3D ( 'NONE', #61, #91, #159 ) ;
#187 = ADVANCED_FACE ( 'NONE', ( #184 ), #282, .F. ) ;
#188 = MECHANICAL_DESIGN_GEOMETRIC_PRESENTATION_REPRESENTATION (  '', ( #108 ), #165 ) ;
#189 = CARTESIAN_POINT ( 'NONE',  ( 0.000000000000000000, 1.250000000000000000, 0.000000000000000000 ) ) ;
#190 =( CONVERSION_BASED_UNIT ( 'INCH', #142 ) LENGTH_UNIT ( ) NAMED_UNIT ( #2 ) );
#191 = EDGE_CURVE ( 'NONE', #58, #128, #266, .T. ) ;
#192 = VECTOR ( 'NONE', #183, 39.37007874015748143 ) ;
#193 =( NAMED_UNIT ( * ) PLANE_ANGLE_UNIT ( ) SI_UNIT ( $, .RADIAN. ) );
#194 = COLOUR_RGB ( '',0.7921568627450980005, 0.8196078431372548767, 0.9333333333333333481 ) ;
#195 = CARTESIAN_POINT ( 'NONE',  ( 0.3124999999999999445, 3.500000000000000000, 3.827021247335478926E-17 ) ) ;
#196 = DIMENSIONAL_EXPONENTS ( 1.000000000000000000, 0.000000000000000000, 0.000000000000000000, 0.000000000000000000, 0.000000000000000000, 0.000000000000000000, 0.000000000000000000 ) ;
#197 = SURFACE_STYLE_USAGE ( .BOTH. , #71 ) ;
#198 = ADVANCED_FACE ( 'NONE', ( #223 ), #1, .T. ) ;
#199 = PLANE ( 'NONE',  #272 ) ;
#200 = ADVANCED_BREP_SHAPE_REPRESENTATION ( '83205', ( #240, #236, #270 ), #261 ) ;
#201 = DIRECTION ( 'NONE',  ( 0.000000000000000000, 0.000000000000000000, -1.000000000000000000 ) ) ;
#202 = CARTESIAN_POINT ( 'NONE',  ( 0.000000000000000000, 0.000000000000000000, 0.000000000000000000 ) ) ;
#203 = DIRECTION ( 'NONE',  ( 0.000000000000000000, 0.000000000000000000, -1.000000000000000000 ) ) ;
#204 = AXIS2_PLACEMENT_3D ( 'NONE', #54, #275, #253 ) ;
#205 = ORIENTED_EDGE ( 'NONE', *, *, #152, .T. ) ;
#206 = SURFACE_SIDE_STYLE ('',( #109 ) ) ;
#207 = VERTEX_POINT ( 'NONE', #47 ) ;
#208 = CARTESIAN_POINT ( 'NONE',  ( -6.123233995736759873E-17, 3.500000000000000000, 0.000000000000000000 ) ) ;
#209 = ORIENTED_EDGE ( 'NONE', *, *, #269, .T. ) ;
#210 = DIRECTION ( 'NONE',  ( -1.000000000000000000, 0.000000000000000000, 0.000000000000000000 ) ) ;
#211 = AXIS2_PLACEMENT_3D ( 'NONE', #31, #117, #3 ) ;
#212 = LENGTH_MEASURE_WITH_UNIT ( LENGTH_MEASURE( 0.02539999999999999897 ), #28 );
#213 = PRODUCT_DEFINITION ( 'UNKNOWN', '', #276, #48 ) ;
#214 = AXIS2_PLACEMENT_3D ( 'NONE', #143, #147, #174 ) ;
#215 = EDGE_CURVE ( 'NONE', #39, #207, #265, .T. ) ;
#216 = PRESENTATION_STYLE_ASSIGNMENT (( #197 ) ) ;
#217 =( CONVERSION_BASED_UNIT ( 'INCH', #121 ) LENGTH_UNIT ( ) NAMED_UNIT ( #26 ) );
#218 = DIRECTION ( 'NONE',  ( 0.000000000000000000, 0.000000000000000000, -1.000000000000000000 ) ) ;
#219 = FILL_AREA_STYLE ('',( #263 ) ) ;
#220 =( LENGTH_UNIT ( ) NAMED_UNIT ( * ) SI_UNIT ( $, .METRE. ) );
#221 = CARTESIAN_POINT ( 'NONE',  ( 0.000000000000000000, 0.000000000000000000, 0.000000000000000000 ) ) ;
#222 = ORIENTED_EDGE ( 'NONE', *, *, #233, .F. ) ;
#223 = FACE_OUTER_BOUND ( 'NONE', #153, .T. ) ;
#224 = AXIS2_PLACEMENT_3D ( 'NONE', #298, #6, #203 ) ;
#225 = MECHANICAL_DESIGN_GEOMETRIC_PRESENTATION_REPRESENTATION (  '', ( #118 ), #99 ) ;
#226 = EDGE_LOOP ( 'NONE', ( #37, #305, #12, #258 ) ) ;
#227 = DIRECTION ( 'NONE',  ( -1.000000000000000000, -2.721437331438560697E-17, 0.000000000000000000 ) ) ;
#228 = DIRECTION ( 'NONE',  ( -0.000000000000000000, -1.000000000000000000, -0.000000000000000000 ) ) ;
#229 = DIRECTION ( 'NONE',  ( 0.000000000000000000, -0.000000000000000000, 1.000000000000000000 ) ) ;
#230 = DIRECTION ( 'NONE',  ( -2.721437331438560389E-17, 1.000000000000000000, -0.000000000000000000 ) ) ;
#231 = SHAPE_DEFINITION_REPRESENTATION ( #103, #200 ) ;
#232 = CARTESIAN_POINT ( 'NONE',  ( 1.157222054523036369E-34, 1.250000000000000000, 0.000000000000000000 ) ) ;
#233 = EDGE_CURVE ( 'NONE', #58, #178, #309, .T. ) ;
#234 = SURFACE_STYLE_FILL_AREA ( #80 ) ;
#235 = AXIS2_PLACEMENT_3D ( 'NONE', #221, #308, #256 ) ;
#236 = MANIFOLD_SOLID_BREP ( 'Revolve - Tool Body (Straight Shanked)', #149 ) ;
#237 = PRESENTATION_STYLE_ASSIGNMENT (( #141 ) ) ;
#238 = PRESENTATION_LAYER_ASSIGNMENT (  '', '', ( #138 ) ) ;
#239 = DIRECTION ( 'NONE',  ( -1.000000000000000000, 0.000000000000000000, 0.000000000000000000 ) ) ;
#240 = MANIFOLD_SOLID_BREP ( 'Revolve - Cutting Edge', #158 ) ;
#241 = LENGTH_MEASURE_WITH_UNIT ( LENGTH_MEASURE( 0.02539999999999999897 ), #127 );
#242 = PRESENTATION_LAYER_ASSIGNMENT (  '', '', ( #32 ) ) ;
#243 = AXIS2_PLACEMENT_3D ( 'NONE', #41, #286, #201 ) ;
#244 = UNCERTAINTY_MEASURE_WITH_UNIT (LENGTH_MEASURE( 1.000000000000000082E-05 ), #19, 'distance_accuracy_value', 'NONE');
#245 = DIMENSIONAL_EXPONENTS ( 1.000000000000000000, 0.000000000000000000, 0.000000000000000000, 0.000000000000000000, 0.000000000000000000, 0.000000000000000000, 0.000000000000000000 ) ;
#246 = CARTESIAN_POINT ( 'NONE',  ( 0.000000000000000000, 0.000000000000000000, -0.3125000000000000000 ) ) ;
#247 = VECTOR ( 'NONE', #257, 39.37007874015748143 ) ;
#248 =( NAMED_UNIT ( * ) PLANE_ANGLE_UNIT ( ) SI_UNIT ( $, .RADIAN. ) );
#249 = ORIENTED_EDGE ( 'NONE', *, *, #16, .F. ) ;
#250 = FACE_OUTER_BOUND ( 'NONE', #21, .T. ) ;
#251 = LINE ( 'NONE', #162, #247 ) ;
#252 =( CONVERSION_BASED_UNIT ( 'INCH', #7 ) LENGTH_UNIT ( ) NAMED_UNIT ( #196 ) );
#253 = DIRECTION ( 'NONE',  ( -1.000000000000000000, 0.000000000000000000, 0.000000000000000000 ) ) ;
#254 = CARTESIAN_POINT ( 'NONE',  ( 0.3125000000000000000, 3.500000000000000000, 3.827021247335478926E-17 ) ) ;
#255 = COLOUR_RGB ( '',1.000000000000000000, 0.000000000000000000, 0.000000000000000000 ) ;
#256 = DIRECTION ( 'NONE',  ( 0.000000000000000000, 0.000000000000000000, -1.000000000000000000 ) ) ;
#257 = DIRECTION ( 'NONE',  ( -0.000000000000000000, -1.000000000000000000, -0.000000000000000000 ) ) ;
#258 = ORIENTED_EDGE ( 'NONE', *, *, #10, .F. ) ;
#259 = SURFACE_STYLE_USAGE ( .BOTH. , #137 ) ;
#260 = CARTESIAN_POINT ( 'NONE',  ( -0.3125000000000000555, 3.500000000000000000, 0.000000000000000000 ) ) ;
#261 =( GEOMETRIC_REPRESENTATION_CONTEXT ( 3 ) GLOBAL_UNCERTAINTY_ASSIGNED_CONTEXT ( ( #171 ) ) GLOBAL_UNIT_ASSIGNED_CONTEXT ( ( #140, #9, #289 ) ) REPRESENTATION_CONTEXT ( 'NONE', 'WORKASPACE' ) );
#262 = FILL_AREA_STYLE ('',( #98 ) ) ;
#263 = FILL_AREA_STYLE_COLOUR ( '', #255 ) ;
#264 = LINE ( 'NONE', #195, #285 ) ;
#265 = CIRCLE ( 'NONE', #186, 0.3125000000000000000 ) ;
#266 = CIRCLE ( 'NONE', #83, 0.3125000000000000000 ) ;
#267 = PRESENTATION_STYLE_ASSIGNMENT (( #148 ) ) ;
#268 = UNCERTAINTY_MEASURE_WITH_UNIT (LENGTH_MEASURE( 1.000000000000000082E-05 ), #97, 'distance_accuracy_value', 'NONE');
#269 = EDGE_CURVE ( 'NONE', #180, #178, #297, .T. ) ;
#270 = AXIS2_PLACEMENT_3D ( 'NONE', #202, #157, #111 ) ;
#271 = MECHANICAL_DESIGN_GEOMETRIC_PRESENTATION_REPRESENTATION (  '', ( #32 ), #60 ) ;
#272 = AXIS2_PLACEMENT_3D ( 'NONE', #189, #293, #229 ) ;
#273 = DIMENSIONAL_EXPONENTS ( 1.000000000000000000, 0.000000000000000000, 0.000000000000000000, 0.000000000000000000, 0.000000000000000000, 0.000000000000000000, 0.000000000000000000 ) ;
#274 =( NAMED_UNIT ( * ) PLANE_ANGLE_UNIT ( ) SI_UNIT ( $, .RADIAN. ) );
#275 = DIRECTION ( 'NONE',  ( -2.721437331438560389E-17, 1.000000000000000000, -0.000000000000000000 ) ) ;
#276 = PRODUCT_DEFINITION_FORMATION_WITH_SPECIFIED_SOURCE ( 'ANY', '', #86, .NOT_KNOWN. ) ;
#277 = LENGTH_MEASURE_WITH_UNIT ( LENGTH_MEASURE( 0.02539999999999999897 ), #220 );
#278 = PRESENTATION_LAYER_ASSIGNMENT (  '', '', ( #296 ) ) ;
#279 = EDGE_LOOP ( 'NONE', ( #113, #209 ) ) ;
#280 = CYLINDRICAL_SURFACE ( 'NONE', #92, 0.3125000000000000000 ) ;
#281 = EDGE_LOOP ( 'NONE', ( #130, #205, #160, #56 ) ) ;
#282 = PLANE ( 'NONE',  #94 ) ;
#283 = ORIENTED_EDGE ( 'NONE', *, *, #233, .T. ) ;
#284 = DIRECTION ( 'NONE',  ( -2.721437331438560389E-17, 1.000000000000000000, -0.000000000000000000 ) ) ;
#285 = VECTOR ( 'NONE', #43, 39.37007874015748143 ) ;
#286 = DIRECTION ( 'NONE',  ( -0.000000000000000000, -1.000000000000000000, -0.000000000000000000 ) ) ;
#287 = CARTESIAN_POINT ( 'NONE',  ( -0.3125000000000001665, 3.500000000000000000, 0.000000000000000000 ) ) ;
#288 = DIMENSIONAL_EXPONENTS ( 1.000000000000000000, 0.000000000000000000, 0.000000000000000000, 0.000000000000000000, 0.000000000000000000, 0.000000000000000000, 0.000000000000000000 ) ;
#289 =( NAMED_UNIT ( * ) SI_UNIT ( $, .STERADIAN. ) SOLID_ANGLE_UNIT ( ) );
#290 =( NAMED_UNIT ( * ) PLANE_ANGLE_UNIT ( ) SI_UNIT ( $, .RADIAN. ) );
#291 = PRESENTATION_LAYER_ASSIGNMENT (  '', '', ( #108 ) ) ;
#292 = SURFACE_SIDE_STYLE ('',( #119 ) ) ;
#293 = DIRECTION ( 'NONE',  ( 0.000000000000000000, 1.000000000000000000, 0.000000000000000000 ) ) ;
#294 = ADVANCED_FACE ( 'NONE', ( #70 ), #167, .T. ) ;
#295 = COLOUR_RGB ( '',1.000000000000000000, 0.000000000000000000, 0.000000000000000000 ) ;
#296 = STYLED_ITEM ( 'NONE', ( #267 ), #122 ) ;
#297 = CIRCLE ( 'NONE', #96, 0.3125000000000000555 ) ;
#298 = CARTESIAN_POINT ( 'NONE',  ( 0.000000000000000000, 0.000000000000000000, 0.000000000000000000 ) ) ;
#299 = COLOUR_RGB ( '',1.000000000000000000, 0.000000000000000000, 0.000000000000000000 ) ;
#300 =( NAMED_UNIT ( * ) SI_UNIT ( $, .STERADIAN. ) SOLID_ANGLE_UNIT ( ) );
#301 = FILL_AREA_STYLE_COLOUR ( '', #36 ) ;
#302 = CARTESIAN_POINT ( 'NONE',  ( -6.123233995736759873E-17, 3.500000000000000000, 0.000000000000000000 ) ) ;
#303 = DIRECTION ( 'NONE',  ( -1.000000000000000000, 0.000000000000000000, 0.000000000000000000 ) ) ;
#304 = AXIS2_PLACEMENT_3D ( 'NONE', #302, #230, #27 ) ;
#305 = ORIENTED_EDGE ( 'NONE', *, *, #215, .T. ) ;
#306 = PRESENTATION_STYLE_ASSIGNMENT (( #179 ) ) ;
#307 = DIMENSIONAL_EXPONENTS ( 1.000000000000000000, 0.000000000000000000, 0.000000000000000000, 0.000000000000000000, 0.000000000000000000, 0.000000000000000000, 0.000000000000000000 ) ;
#308 = DIRECTION ( 'NONE',  ( -0.000000000000000000, -1.000000000000000000, -0.000000000000000000 ) ) ;
#309 = LINE ( 'NONE', #260, #192 ) ;
ENDSEC;
END-ISO-10303-21;
