ISO-10303-21;
HEADER;
FILE_DESCRIPTION (( 'STEP AP214' ),
    '1' );
FILE_NAME ('59843W.STEP',
    '2023-06-22T23:14:46',
    ( '' ),
    ( '' ),
    'SwSTEP 2.0',
    'SolidWorks 2023',
    '' );
FILE_SCHEMA (( 'AUTOMOTIVE_DESIGN' ));
ENDSEC;

DATA;
#1 = DIRECTION ( 'NONE',  ( -6.123233995736769734E-17, 1.000000000000000000, -0.000000000000000000 ) ) ;
#2 = DIRECTION ( 'NONE',  ( 1.000000000000000000, 6.123233995736769734E-17, 0.000000000000000000 ) ) ;
#3 =( CONVERSION_BASED_UNIT ( 'INCH', #210 ) LENGTH_UNIT ( ) NAMED_UNIT ( #272 ) );
#4 = CIRCLE ( 'NONE', #50, 0.1875000000000000278 ) ;
#5 = DIRECTION ( 'NONE',  ( -0.000000000000000000, -1.000000000000000000, -0.000000000000000000 ) ) ;
#6 = CARTESIAN_POINT ( 'NONE',  ( -1.224646799147353700E-16, 3.000000000000000444, 0.000000000000000000 ) ) ;
#7 = FACE_OUTER_BOUND ( 'NONE', #90, .T. ) ;
#8 = CARTESIAN_POINT ( 'NONE',  ( -1.224646799147353700E-16, 3.000000000000000444, 0.000000000000000000 ) ) ;
#9 =( NAMED_UNIT ( * ) SI_UNIT ( $, .STERADIAN. ) SOLID_ANGLE_UNIT ( ) );
#10 = CIRCLE ( 'NONE', #31, 0.1875000000000000278 ) ;
#11 = CARTESIAN_POINT ( 'NONE',  ( 0.000000000000000000, 1.000000000000000000, 0.000000000000000000 ) ) ;
#12 = AXIS2_PLACEMENT_3D ( 'NONE', #175, #150, #63 ) ;
#13 = STYLED_ITEM ( 'NONE', ( #54 ), #271 ) ;
#14 =( NAMED_UNIT ( * ) PLANE_ANGLE_UNIT ( ) SI_UNIT ( $, .RADIAN. ) );
#15 = EDGE_CURVE ( 'NONE', #121, #77, #291, .T. ) ;
#16 =( LENGTH_UNIT ( ) NAMED_UNIT ( * ) SI_UNIT ( $, .METRE. ) );
#17 = SURFACE_STYLE_USAGE ( .BOTH. , #218 ) ;
#18 = VERTEX_POINT ( 'NONE', #208 ) ;
#19 = FACE_OUTER_BOUND ( 'NONE', #249, .T. ) ;
#20 = ORIENTED_EDGE ( 'NONE', *, *, #226, .F. ) ;
#21 = AXIS2_PLACEMENT_3D ( 'NONE', #6, #80, #176 ) ;
#22 =( GEOMETRIC_REPRESENTATION_CONTEXT ( 3 ) GLOBAL_UNCERTAINTY_ASSIGNED_CONTEXT ( ( #229 ) ) GLOBAL_UNIT_ASSIGNED_CONTEXT ( ( #3, #197, #44 ) ) REPRESENTATION_CONTEXT ( 'NONE', 'WORKASPACE' ) );
#23 = EDGE_CURVE ( 'NONE', #277, #121, #139, .T. ) ;
#24 = ORIENTED_EDGE ( 'NONE', *, *, #226, .T. ) ;
#25 = UNCERTAINTY_MEASURE_WITH_UNIT (LENGTH_MEASURE( 1.000000000000000082E-05 ), #40, 'distance_accuracy_value', 'NONE');
#26 = ORIENTED_EDGE ( 'NONE', *, *, #152, .T. ) ;
#27 = VECTOR ( 'NONE', #73, 39.37007874015748143 ) ;
#28 = UNCERTAINTY_MEASURE_WITH_UNIT (LENGTH_MEASURE( 1.000000000000000082E-05 ), #270, 'distance_accuracy_value', 'NONE');
#29 = CARTESIAN_POINT ( 'NONE',  ( 0.1874999999999999445, 3.000000000000000444, 2.296212748401288342E-17 ) ) ;
#30 = EDGE_CURVE ( 'NONE', #277, #283, #290, .T. ) ;
#31 = AXIS2_PLACEMENT_3D ( 'NONE', #84, #178, #134 ) ;
#32 = SURFACE_STYLE_FILL_AREA ( #259 ) ;
#33 = FACE_OUTER_BOUND ( 'NONE', #279, .T. ) ;
#34 = LINE ( 'NONE', #127, #35 ) ;
#35 = VECTOR ( 'NONE', #55, 39.37007874015748143 ) ;
#36 = DIRECTION ( 'NONE',  ( 0.000000000000000000, -0.000000000000000000, 1.000000000000000000 ) ) ;
#37 = ORIENTED_EDGE ( 'NONE', *, *, #152, .F. ) ;
#38 = CYLINDRICAL_SURFACE ( 'NONE', #182, 0.1875000000000000278 ) ;
#39 = EDGE_CURVE ( 'NONE', #121, #277, #257, .T. ) ;
#40 =( CONVERSION_BASED_UNIT ( 'INCH', #247 ) LENGTH_UNIT ( ) NAMED_UNIT ( #298 ) );
#41 = DIRECTION ( 'NONE',  ( 0.000000000000000000, 1.000000000000000000, 0.000000000000000000 ) ) ;
#42 = FILL_AREA_STYLE ('',( #154 ) ) ;
#43 = DIMENSIONAL_EXPONENTS ( 1.000000000000000000, 0.000000000000000000, 0.000000000000000000, 0.000000000000000000, 0.000000000000000000, 0.000000000000000000, 0.000000000000000000 ) ;
#44 =( NAMED_UNIT ( * ) SI_UNIT ( $, .STERADIAN. ) SOLID_ANGLE_UNIT ( ) );
#45 =( LENGTH_UNIT ( ) NAMED_UNIT ( * ) SI_UNIT ( $, .METRE. ) );
#46 =( NAMED_UNIT ( * ) SI_UNIT ( $, .STERADIAN. ) SOLID_ANGLE_UNIT ( ) );
#47 = ORIENTED_EDGE ( 'NONE', *, *, #114, .F. ) ;
#48 = ORIENTED_EDGE ( 'NONE', *, *, #209, .F. ) ;
#49 = ORIENTED_EDGE ( 'NONE', *, *, #211, .F. ) ;
#50 = AXIS2_PLACEMENT_3D ( 'NONE', #215, #5, #236 ) ;
#51 = ORIENTED_EDGE ( 'NONE', *, *, #15, .F. ) ;
#52 = DIRECTION ( 'NONE',  ( -6.123233995736769734E-17, 1.000000000000000000, -0.000000000000000000 ) ) ;
#53 = PRODUCT_RELATED_PRODUCT_CATEGORY ( 'part', '', ( #250 ) ) ;
#54 = PRESENTATION_STYLE_ASSIGNMENT (( #102 ) ) ;
#55 = DIRECTION ( 'NONE',  ( -0.000000000000000000, -1.000000000000000000, -0.000000000000000000 ) ) ;
#56 = AXIS2_PLACEMENT_3D ( 'NONE', #141, #266, #2 ) ;
#57 = CIRCLE ( 'NONE', #191, 0.1875000000000000278 ) ;
#58 = DIRECTION ( 'NONE',  ( 0.000000000000000000, 0.000000000000000000, 1.000000000000000000 ) ) ;
#59 = PRODUCT_CONTEXT ( 'NONE', #94, 'mechanical' ) ;
#60 = DIRECTION ( 'NONE',  ( -1.000000000000000000, -6.123233995736769734E-17, 0.000000000000000000 ) ) ;
#61 = DIMENSIONAL_EXPONENTS ( 1.000000000000000000, 0.000000000000000000, 0.000000000000000000, 0.000000000000000000, 0.000000000000000000, 0.000000000000000000, 0.000000000000000000 ) ;
#62 = CYLINDRICAL_SURFACE ( 'NONE', #165, 0.1875000000000000833 ) ;
#63 = DIRECTION ( 'NONE',  ( -1.000000000000000000, 0.000000000000000000, 0.000000000000000000 ) ) ;
#64 = MECHANICAL_DESIGN_GEOMETRIC_PRESENTATION_REPRESENTATION (  '', ( #78 ), #179 ) ;
#65 = AXIS2_PLACEMENT_3D ( 'NONE', #220, #58, #219 ) ;
#66 = SURFACE_STYLE_FILL_AREA ( #217 ) ;
#67 =( CONVERSION_BASED_UNIT ( 'INCH', #135 ) LENGTH_UNIT ( ) NAMED_UNIT ( #43 ) );
#68 = SURFACE_SIDE_STYLE ('',( #66 ) ) ;
#69 = FILL_AREA_STYLE_COLOUR ( '', #96 ) ;
#70 = CLOSED_SHELL ( 'NONE', ( #181, #72, #207, #262 ) ) ;
#71 = DIRECTION ( 'NONE',  ( -0.000000000000000000, -1.000000000000000000, -0.000000000000000000 ) ) ;
#72 = ADVANCED_FACE ( 'NONE', ( #33 ), #104, .T. ) ;
#73 = DIRECTION ( 'NONE',  ( -0.000000000000000000, -1.000000000000000000, -0.000000000000000000 ) ) ;
#74 = FILL_AREA_STYLE ('',( #190 ) ) ;
#75 = PRESENTATION_STYLE_ASSIGNMENT (( #286 ) ) ;
#76 = FILL_AREA_STYLE_COLOUR ( '', #199 ) ;
#77 = VERTEX_POINT ( 'NONE', #87 ) ;
#78 = STYLED_ITEM ( 'NONE', ( #113 ), #207 ) ;
#79 = CARTESIAN_POINT ( 'NONE',  ( 0.000000000000000000, 1.000000000000000000, -0.1875000000000000278 ) ) ;
#80 = DIRECTION ( 'NONE',  ( -6.123233995736769734E-17, 1.000000000000000000, -0.000000000000000000 ) ) ;
#81 =( CONVERSION_BASED_UNIT ( 'INCH', #238 ) LENGTH_UNIT ( ) NAMED_UNIT ( #61 ) );
#82 = SURFACE_STYLE_USAGE ( .BOTH. , #237 ) ;
#83 = DIRECTION ( 'NONE',  ( 0.000000000000000000, 0.000000000000000000, -1.000000000000000000 ) ) ;
#84 = CARTESIAN_POINT ( 'NONE',  ( 0.000000000000000000, 0.000000000000000000, 0.000000000000000000 ) ) ;
#85 = AXIS2_PLACEMENT_3D ( 'NONE', #140, #235, #143 ) ;
#86 = MECHANICAL_DESIGN_GEOMETRIC_PRESENTATION_REPRESENTATION (  '', ( #156 ), #246 ) ;
#87 = CARTESIAN_POINT ( 'NONE',  ( -0.1875000000000002776, 3.000000000000000444, 0.000000000000000000 ) ) ;
#88 = AXIS2_PLACEMENT_3D ( 'NONE', #8, #131, #119 ) ;
#89 = CARTESIAN_POINT ( 'NONE',  ( 0.1875000000000000278, 3.000000000000000444, 2.296212748401288650E-17 ) ) ;
#90 = EDGE_LOOP ( 'NONE', ( #164, #26 ) ) ;
#91 = ORIENTED_EDGE ( 'NONE', *, *, #103, .T. ) ;
#92 = MECHANICAL_DESIGN_GEOMETRIC_PRESENTATION_REPRESENTATION (  '', ( #252 ), #288 ) ;
#93 = ORIENTED_EDGE ( 'NONE', *, *, #169, .F. ) ;
#94 = APPLICATION_CONTEXT ( 'automotive_design' ) ;
#95 = SURFACE_SIDE_STYLE ('',( #120 ) ) ;
#96 = COLOUR_RGB ( '',1.000000000000000000, 0.000000000000000000, 0.000000000000000000 ) ;
#97 =( GEOMETRIC_REPRESENTATION_CONTEXT ( 3 ) GLOBAL_UNCERTAINTY_ASSIGNED_CONTEXT ( ( #167 ) ) GLOBAL_UNIT_ASSIGNED_CONTEXT ( ( #67, #157, #46 ) ) REPRESENTATION_CONTEXT ( 'NONE', 'WORKASPACE' ) );
#98 = ADVANCED_FACE ( 'NONE', ( #112 ), #62, .T. ) ;
#99 = VERTEX_POINT ( 'NONE', #79 ) ;
#100 = DIRECTION ( 'NONE',  ( -1.000000000000000000, 0.000000000000000000, 0.000000000000000000 ) ) ;
#101 = SURFACE_SIDE_STYLE ('',( #32 ) ) ;
#102 = SURFACE_STYLE_USAGE ( .BOTH. , #146 ) ;
#103 = EDGE_CURVE ( 'NONE', #99, #192, #34, .T. ) ;
#104 = PLANE ( 'NONE',  #149 ) ;
#105 = SURFACE_STYLE_USAGE ( .BOTH. , #101 ) ;
#106 = PRESENTATION_STYLE_ASSIGNMENT (( #82 ) ) ;
#107 = DIRECTION ( 'NONE',  ( -0.000000000000000000, -1.000000000000000000, -0.000000000000000000 ) ) ;
#108 =( LENGTH_UNIT ( ) NAMED_UNIT ( * ) SI_UNIT ( $, .METRE. ) );
#109 = ORIENTED_EDGE ( 'NONE', *, *, #30, .T. ) ;
#110 = PRODUCT_DEFINITION ( 'UNKNOWN', '', #253, #122 ) ;
#111 = AXIS2_PLACEMENT_3D ( 'NONE', #263, #258, #205 ) ;
#112 = FACE_OUTER_BOUND ( 'NONE', #145, .T. ) ;
#113 = PRESENTATION_STYLE_ASSIGNMENT (( #17 ) ) ;
#114 = EDGE_CURVE ( 'NONE', #77, #283, #162, .T. ) ;
#115 = PRODUCT_DEFINITION_SHAPE ( 'NONE', 'NONE',  #110 ) ;
#116 = CARTESIAN_POINT ( 'NONE',  ( 0.1875000000000000278, 1.000000000000000000, 2.296212748401288650E-17 ) ) ;
#117 = PRESENTATION_LAYER_ASSIGNMENT (  '', '', ( #13 ) ) ;
#118 = ORIENTED_EDGE ( 'NONE', *, *, #39, .F. ) ;
#119 = DIRECTION ( 'NONE',  ( -1.000000000000000000, 0.000000000000000000, 0.000000000000000000 ) ) ;
#120 = SURFACE_STYLE_FILL_AREA ( #74 ) ;
#121 = VERTEX_POINT ( 'NONE', #148 ) ;
#122 = PRODUCT_DEFINITION_CONTEXT ( 'detailed design', #158, 'design' ) ;
#123 = PRESENTATION_STYLE_ASSIGNMENT (( #105 ) ) ;
#124 = PRESENTATION_LAYER_ASSIGNMENT (  '', '', ( #252 ) ) ;
#125 = CARTESIAN_POINT ( 'NONE',  ( 0.000000000000000000, 0.000000000000000000, 0.000000000000000000 ) ) ;
#126 = ORIENTED_EDGE ( 'NONE', *, *, #39, .T. ) ;
#127 = CARTESIAN_POINT ( 'NONE',  ( 0.000000000000000000, 0.000000000000000000, -0.1875000000000000278 ) ) ;
#128 = LENGTH_MEASURE_WITH_UNIT ( LENGTH_MEASURE( 0.02539999999999999897 ), #16 );
#129 = STYLED_ITEM ( 'NONE', ( #123 ), #181 ) ;
#130 =( CONVERSION_BASED_UNIT ( 'INCH', #302 ) LENGTH_UNIT ( ) NAMED_UNIT ( #202 ) );
#131 = DIRECTION ( 'NONE',  ( -6.123233995736769734E-17, 1.000000000000000000, -0.000000000000000000 ) ) ;
#132 = CARTESIAN_POINT ( 'NONE',  ( 0.000000000000000000, 1.000000000000000000, 0.000000000000000000 ) ) ;
#133 = SURFACE_STYLE_FILL_AREA ( #248 ) ;
#134 = DIRECTION ( 'NONE',  ( 0.000000000000000000, 0.000000000000000000, -1.000000000000000000 ) ) ;
#135 = LENGTH_MEASURE_WITH_UNIT ( LENGTH_MEASURE( 0.02539999999999999897 ), #305 );
#136 = ORIENTED_EDGE ( 'NONE', *, *, #23, .F. ) ;
#137 = CARTESIAN_POINT ( 'NONE',  ( 2.296212748401287726E-17, 1.000000000000000000, 0.1875000000000000278 ) ) ;
#138 = FACE_OUTER_BOUND ( 'NONE', #159, .T. ) ;
#139 = CIRCLE ( 'NONE', #85, 0.1875000000000000278 ) ;
#140 = CARTESIAN_POINT ( 'NONE',  ( 3.032960542342103792E-32, 1.000000000000000000, 0.000000000000000000 ) ) ;
#141 = CARTESIAN_POINT ( 'NONE',  ( 0.1875000000000000278, 3.000000000000000444, 0.000000000000000000 ) ) ;
#142 = LINE ( 'NONE', #256, #27 ) ;
#143 = DIRECTION ( 'NONE',  ( -1.000000000000000000, 0.000000000000000000, 0.000000000000000000 ) ) ;
#144 = DIRECTION ( 'NONE',  ( 0.000000000000000000, 0.000000000000000000, -1.000000000000000000 ) ) ;
#145 = EDGE_LOOP ( 'NONE', ( #126, #109, #47, #51 ) ) ;
#146 = SURFACE_SIDE_STYLE ('',( #269 ) ) ;
#147 =( NAMED_UNIT ( * ) PLANE_ANGLE_UNIT ( ) SI_UNIT ( $, .RADIAN. ) );
#148 = CARTESIAN_POINT ( 'NONE',  ( -0.1875000000000000278, 1.000000000000000000, 0.000000000000000000 ) ) ;
#149 = AXIS2_PLACEMENT_3D ( 'NONE', #11, #41, #36 ) ;
#150 = DIRECTION ( 'NONE',  ( -6.123233995736769734E-17, 1.000000000000000000, -0.000000000000000000 ) ) ;
#151 = APPLICATION_PROTOCOL_DEFINITION ( 'draft international standard', 'automotive_design', 1998, #158 ) ;
#152 = EDGE_CURVE ( 'NONE', #18, #192, #10, .T. ) ;
#153 = VECTOR ( 'NONE', #170, 39.37007874015748143 ) ;
#154 = FILL_AREA_STYLE_COLOUR ( '', #200 ) ;
#155 = CARTESIAN_POINT ( 'NONE',  ( 0.000000000000000000, 0.000000000000000000, -0.1875000000000000278 ) ) ;
#156 = STYLED_ITEM ( 'NONE', ( #278 ), #276 ) ;
#157 =( NAMED_UNIT ( * ) PLANE_ANGLE_UNIT ( ) SI_UNIT ( $, .RADIAN. ) );
#158 = APPLICATION_CONTEXT ( 'automotive_design' ) ;
#159 = EDGE_LOOP ( 'NONE', ( #184, #225, #189, #49 ) ) ;
#160 = SURFACE_STYLE_USAGE ( .BOTH. , #68 ) ;
#161 = DIRECTION ( 'NONE',  ( 0.000000000000000000, 0.000000000000000000, -1.000000000000000000 ) ) ;
#162 = CIRCLE ( 'NONE', #21, 0.1875000000000001388 ) ;
#163 = ADVANCED_FACE ( 'NONE', ( #19 ), #285, .F. ) ;
#164 = ORIENTED_EDGE ( 'NONE', *, *, #169, .T. ) ;
#165 = AXIS2_PLACEMENT_3D ( 'NONE', #297, #201, #294 ) ;
#166 = CARTESIAN_POINT ( 'NONE',  ( 3.032960542342103792E-32, 1.000000000000000000, 0.000000000000000000 ) ) ;
#167 = UNCERTAINTY_MEASURE_WITH_UNIT (LENGTH_MEASURE( 1.000000000000000082E-05 ), #67, 'distance_accuracy_value', 'NONE');
#168 =( LENGTH_UNIT ( ) NAMED_UNIT ( * ) SI_UNIT ( $, .METRE. ) );
#169 = EDGE_CURVE ( 'NONE', #192, #18, #222, .T. ) ;
#170 = DIRECTION ( 'NONE',  ( -6.123233995736769734E-17, 1.000000000000000000, -0.000000000000000000 ) ) ;
#171 = DIRECTION ( 'NONE',  ( -6.123233995736769734E-17, 1.000000000000000000, 0.000000000000000000 ) ) ;
#172 = MECHANICAL_DESIGN_GEOMETRIC_PRESENTATION_REPRESENTATION (  '', ( #129 ), #206 ) ;
#173 =( LENGTH_UNIT ( ) NAMED_UNIT ( * ) SI_UNIT ( $, .METRE. ) );
#174 =( CONVERSION_BASED_UNIT ( 'INCH', #128 ) LENGTH_UNIT ( ) NAMED_UNIT ( #295 ) );
#175 = CARTESIAN_POINT ( 'NONE',  ( -1.224646799147353700E-16, 3.000000000000000444, 0.000000000000000000 ) ) ;
#176 = DIRECTION ( 'NONE',  ( -1.000000000000000000, 0.000000000000000000, 0.000000000000000000 ) ) ;
#177 =( NAMED_UNIT ( * ) SI_UNIT ( $, .STERADIAN. ) SOLID_ANGLE_UNIT ( ) );
#178 = DIRECTION ( 'NONE',  ( -0.000000000000000000, -1.000000000000000000, -0.000000000000000000 ) ) ;
#179 =( GEOMETRIC_REPRESENTATION_CONTEXT ( 3 ) GLOBAL_UNCERTAINTY_ASSIGNED_CONTEXT ( ( #282 ) ) GLOBAL_UNIT_ASSIGNED_CONTEXT ( ( #130, #147, #177 ) ) REPRESENTATION_CONTEXT ( 'NONE', 'WORKASPACE' ) );
#180 =( NAMED_UNIT ( * ) PLANE_ANGLE_UNIT ( ) SI_UNIT ( $, .RADIAN. ) );
#181 = ADVANCED_FACE ( 'NONE', ( #293 ), #239, .T. ) ;
#182 = AXIS2_PLACEMENT_3D ( 'NONE', #213, #107, #83 ) ;
#183 = FILL_AREA_STYLE_COLOUR ( '', #223 ) ;
#184 = ORIENTED_EDGE ( 'NONE', *, *, #30, .F. ) ;
#185 = DIRECTION ( 'NONE',  ( 0.000000000000000000, 0.000000000000000000, -1.000000000000000000 ) ) ;
#186 = VERTEX_POINT ( 'NONE', #137 ) ;
#187 = PRESENTATION_LAYER_ASSIGNMENT (  '', '', ( #156 ) ) ;
#188 = MECHANICAL_DESIGN_GEOMETRIC_PRESENTATION_REPRESENTATION (  '', ( #13 ), #274 ) ;
#189 = ORIENTED_EDGE ( 'NONE', *, *, #15, .T. ) ;
#190 = FILL_AREA_STYLE_COLOUR ( '', #203 ) ;
#191 = AXIS2_PLACEMENT_3D ( 'NONE', #132, #224, #161 ) ;
#192 = VERTEX_POINT ( 'NONE', #155 ) ;
#193 = AXIS2_PLACEMENT_3D ( 'NONE', #125, #71, #185 ) ;
#194 = AXIS2_PLACEMENT_3D ( 'NONE', #292, #171, #60 ) ;
#195 = FACE_OUTER_BOUND ( 'NONE', #308, .T. ) ;
#196 = UNCERTAINTY_MEASURE_WITH_UNIT (LENGTH_MEASURE( 1.000000000000000082E-05 ), #174, 'distance_accuracy_value', 'NONE');
#197 =( NAMED_UNIT ( * ) PLANE_ANGLE_UNIT ( ) SI_UNIT ( $, .RADIAN. ) );
#198 =( NAMED_UNIT ( * ) SI_UNIT ( $, .STERADIAN. ) SOLID_ANGLE_UNIT ( ) );
#199 = COLOUR_RGB ( '',1.000000000000000000, 0.000000000000000000, 0.000000000000000000 ) ;
#200 = COLOUR_RGB ( '',1.000000000000000000, 0.000000000000000000, 0.000000000000000000 ) ;
#201 = DIRECTION ( 'NONE',  ( -6.123233995736769734E-17, 1.000000000000000000, -0.000000000000000000 ) ) ;
#202 = DIMENSIONAL_EXPONENTS ( 1.000000000000000000, 0.000000000000000000, 0.000000000000000000, 0.000000000000000000, 0.000000000000000000, 0.000000000000000000, 0.000000000000000000 ) ;
#203 = COLOUR_RGB ( '',1.000000000000000000, 0.000000000000000000, 0.000000000000000000 ) ;
#204 = ORIENTED_EDGE ( 'NONE', *, *, #275, .F. ) ;
#205 = DIRECTION ( 'NONE',  ( 0.000000000000000000, 0.000000000000000000, -1.000000000000000000 ) ) ;
#206 =( GEOMETRIC_REPRESENTATION_CONTEXT ( 3 ) GLOBAL_UNCERTAINTY_ASSIGNED_CONTEXT ( ( #287 ) ) GLOBAL_UNIT_ASSIGNED_CONTEXT ( ( #81, #240, #307 ) ) REPRESENTATION_CONTEXT ( 'NONE', 'WORKASPACE' ) );
#207 = ADVANCED_FACE ( 'NONE', ( #304 ), #38, .T. ) ;
#208 = CARTESIAN_POINT ( 'NONE',  ( 2.296212748401287726E-17, 0.000000000000000000, 0.1875000000000000278 ) ) ;
#209 = EDGE_CURVE ( 'NONE', #99, #186, #4, .T. ) ;
#210 = LENGTH_MEASURE_WITH_UNIT ( LENGTH_MEASURE( 0.02539999999999999897 ), #108 );
#211 = EDGE_CURVE ( 'NONE', #283, #77, #212, .T. ) ;
#212 = CIRCLE ( 'NONE', #88, 0.1875000000000001388 ) ;
#213 = CARTESIAN_POINT ( 'NONE',  ( 0.000000000000000000, 0.000000000000000000, 0.000000000000000000 ) ) ;
#214 =( NAMED_UNIT ( * ) PLANE_ANGLE_UNIT ( ) SI_UNIT ( $, .RADIAN. ) );
#215 = CARTESIAN_POINT ( 'NONE',  ( 0.000000000000000000, 1.000000000000000000, 0.000000000000000000 ) ) ;
#216 = VECTOR ( 'NONE', #1, 39.37007874015748143 ) ;
#217 = FILL_AREA_STYLE ('',( #273 ) ) ;
#218 = SURFACE_SIDE_STYLE ('',( #133 ) ) ;
#219 = DIRECTION ( 'NONE',  ( 1.000000000000000000, 0.000000000000000000, 0.000000000000000000 ) ) ;
#220 = CARTESIAN_POINT ( 'NONE',  ( 0.000000000000000000, 0.000000000000000000, 0.000000000000000000 ) ) ;
#221 = ORIENTED_EDGE ( 'NONE', *, *, #114, .T. ) ;
#222 = CIRCLE ( 'NONE', #245, 0.1875000000000000278 ) ;
#223 = COLOUR_RGB ( '',0.7921568627450980005, 0.8196078431372548767, 0.9333333333333333481 ) ;
#224 = DIRECTION ( 'NONE',  ( -0.000000000000000000, -1.000000000000000000, -0.000000000000000000 ) ) ;
#225 = ORIENTED_EDGE ( 'NONE', *, *, #23, .T. ) ;
#226 = EDGE_CURVE ( 'NONE', #186, #18, #142, .T. ) ;
#227 = ORIENTED_EDGE ( 'NONE', *, *, #211, .T. ) ;
#228 = CARTESIAN_POINT ( 'NONE',  ( 0.000000000000000000, 0.000000000000000000, 0.000000000000000000 ) ) ;
#229 = UNCERTAINTY_MEASURE_WITH_UNIT (LENGTH_MEASURE( 1.000000000000000082E-05 ), #3, 'distance_accuracy_value', 'NONE');
#230 = EDGE_LOOP ( 'NONE', ( #232, #24, #93, #255 ) ) ;
#231 = ADVANCED_FACE ( 'NONE', ( #138 ), #309, .T. ) ;
#232 = ORIENTED_EDGE ( 'NONE', *, *, #209, .T. ) ;
#233 = ADVANCED_BREP_SHAPE_REPRESENTATION ( '59843W', ( #271, #276, #65 ), #97 ) ;
#234 = PRESENTATION_LAYER_ASSIGNMENT (  '', '', ( #281 ) ) ;
#235 = DIRECTION ( 'NONE',  ( -6.123233995736769734E-17, 1.000000000000000000, -0.000000000000000000 ) ) ;
#236 = DIRECTION ( 'NONE',  ( 0.000000000000000000, 0.000000000000000000, -1.000000000000000000 ) ) ;
#237 = SURFACE_SIDE_STYLE ('',( #296 ) ) ;
#238 = LENGTH_MEASURE_WITH_UNIT ( LENGTH_MEASURE( 0.02539999999999999897 ), #173 );
#239 = CYLINDRICAL_SURFACE ( 'NONE', #193, 0.1875000000000000278 ) ;
#240 =( NAMED_UNIT ( * ) PLANE_ANGLE_UNIT ( ) SI_UNIT ( $, .RADIAN. ) );
#241 =( LENGTH_UNIT ( ) NAMED_UNIT ( * ) SI_UNIT ( $, .METRE. ) );
#242 = EDGE_LOOP ( 'NONE', ( #20, #251, #91, #37 ) ) ;
#243 = SHAPE_DEFINITION_REPRESENTATION ( #115, #233 ) ;
#244 = LENGTH_MEASURE_WITH_UNIT ( LENGTH_MEASURE( 0.02539999999999999897 ), #168 );
#245 = AXIS2_PLACEMENT_3D ( 'NONE', #228, #284, #144 ) ;
#246 =( GEOMETRIC_REPRESENTATION_CONTEXT ( 3 ) GLOBAL_UNCERTAINTY_ASSIGNED_CONTEXT ( ( #25 ) ) GLOBAL_UNIT_ASSIGNED_CONTEXT ( ( #40, #14, #303 ) ) REPRESENTATION_CONTEXT ( 'NONE', 'WORKASPACE' ) );
#247 = LENGTH_MEASURE_WITH_UNIT ( LENGTH_MEASURE( 0.02539999999999999897 ), #241 );
#248 = FILL_AREA_STYLE ('',( #69 ) ) ;
#249 = EDGE_LOOP ( 'NONE', ( #221, #227 ) ) ;
#250 = PRODUCT ( '59843W', '59843W', '', ( #59 ) ) ;
#251 = ORIENTED_EDGE ( 'NONE', *, *, #275, .T. ) ;
#252 = STYLED_ITEM ( 'NONE', ( #75 ), #72 ) ;
#253 = PRODUCT_DEFINITION_FORMATION_WITH_SPECIFIED_SOURCE ( 'ANY', '', #250, .NOT_KNOWN. ) ;
#254 = FILL_AREA_STYLE ('',( #183 ) ) ;
#255 = ORIENTED_EDGE ( 'NONE', *, *, #103, .F. ) ;
#256 = CARTESIAN_POINT ( 'NONE',  ( 2.296212748401287726E-17, 0.000000000000000000, 0.1875000000000000278 ) ) ;
#257 = CIRCLE ( 'NONE', #260, 0.1875000000000000278 ) ;
#258 = DIRECTION ( 'NONE',  ( 0.000000000000000000, -1.000000000000000000, -0.000000000000000000 ) ) ;
#259 = FILL_AREA_STYLE ('',( #76 ) ) ;
#260 = AXIS2_PLACEMENT_3D ( 'NONE', #166, #52, #100 ) ;
#261 = CARTESIAN_POINT ( 'NONE',  ( -0.1875000000000002220, 3.000000000000000444, 0.000000000000000000 ) ) ;
#262 = ADVANCED_FACE ( 'NONE', ( #7 ), #299, .T. ) ;
#263 = CARTESIAN_POINT ( 'NONE',  ( 0.000000000000000000, 0.000000000000000000, 0.000000000000000000 ) ) ;
#264 = PRESENTATION_LAYER_ASSIGNMENT (  '', '', ( #78 ) ) ;
#265 = MECHANICAL_DESIGN_GEOMETRIC_PRESENTATION_REPRESENTATION (  '', ( #281 ), #22 ) ;
#266 = DIRECTION ( 'NONE',  ( 6.123233995736769734E-17, -1.000000000000000000, 0.000000000000000000 ) ) ;
#267 = ADVANCED_FACE ( 'NONE', ( #195 ), #301, .F. ) ;
#268 = APPLICATION_PROTOCOL_DEFINITION ( 'draft international standard', 'automotive_design', 1998, #94 ) ;
#269 = SURFACE_STYLE_FILL_AREA ( #254 ) ;
#270 =( CONVERSION_BASED_UNIT ( 'INCH', #244 ) LENGTH_UNIT ( ) NAMED_UNIT ( #306 ) );
#271 = MANIFOLD_SOLID_BREP ( 'Revolve - Cutting Edge', #70 ) ;
#272 = DIMENSIONAL_EXPONENTS ( 1.000000000000000000, 0.000000000000000000, 0.000000000000000000, 0.000000000000000000, 0.000000000000000000, 0.000000000000000000, 0.000000000000000000 ) ;
#273 = FILL_AREA_STYLE_COLOUR ( '', #289 ) ;
#274 =( GEOMETRIC_REPRESENTATION_CONTEXT ( 3 ) GLOBAL_UNCERTAINTY_ASSIGNED_CONTEXT ( ( #196 ) ) GLOBAL_UNIT_ASSIGNED_CONTEXT ( ( #174, #180, #9 ) ) REPRESENTATION_CONTEXT ( 'NONE', 'WORKASPACE' ) );
#275 = EDGE_CURVE ( 'NONE', #186, #99, #57, .T. ) ;
#276 = MANIFOLD_SOLID_BREP ( 'Revolve - Tool Body (Straight Shanked)', #300 ) ;
#277 = VERTEX_POINT ( 'NONE', #116 ) ;
#278 = PRESENTATION_STYLE_ASSIGNMENT (( #160 ) ) ;
#279 = EDGE_LOOP ( 'NONE', ( #48, #204 ) ) ;
#280 = PRESENTATION_LAYER_ASSIGNMENT (  '', '', ( #129 ) ) ;
#281 = STYLED_ITEM ( 'NONE', ( #106 ), #262 ) ;
#282 = UNCERTAINTY_MEASURE_WITH_UNIT (LENGTH_MEASURE( 1.000000000000000082E-05 ), #130, 'distance_accuracy_value', 'NONE');
#283 = VERTEX_POINT ( 'NONE', #89 ) ;
#284 = DIRECTION ( 'NONE',  ( -0.000000000000000000, -1.000000000000000000, -0.000000000000000000 ) ) ;
#285 = PLANE ( 'NONE',  #56 ) ;
#286 = SURFACE_STYLE_USAGE ( .BOTH. , #95 ) ;
#287 = UNCERTAINTY_MEASURE_WITH_UNIT (LENGTH_MEASURE( 1.000000000000000082E-05 ), #81, 'distance_accuracy_value', 'NONE');
#288 =( GEOMETRIC_REPRESENTATION_CONTEXT ( 3 ) GLOBAL_UNCERTAINTY_ASSIGNED_CONTEXT ( ( #28 ) ) GLOBAL_UNIT_ASSIGNED_CONTEXT ( ( #270, #214, #198 ) ) REPRESENTATION_CONTEXT ( 'NONE', 'WORKASPACE' ) );
#289 = COLOUR_RGB ( '',0.7921568627450980005, 0.8196078431372548767, 0.9333333333333333481 ) ;
#290 = LINE ( 'NONE', #29, #153 ) ;
#291 = LINE ( 'NONE', #261, #216 ) ;
#292 = CARTESIAN_POINT ( 'NONE',  ( 3.515061990613733472E-34, 1.000000000000000000, 0.000000000000000000 ) ) ;
#293 = FACE_OUTER_BOUND ( 'NONE', #230, .T. ) ;
#294 = DIRECTION ( 'NONE',  ( -1.000000000000000000, 0.000000000000000000, 0.000000000000000000 ) ) ;
#295 = DIMENSIONAL_EXPONENTS ( 1.000000000000000000, 0.000000000000000000, 0.000000000000000000, 0.000000000000000000, 0.000000000000000000, 0.000000000000000000, 0.000000000000000000 ) ;
#296 = SURFACE_STYLE_FILL_AREA ( #42 ) ;
#297 = CARTESIAN_POINT ( 'NONE',  ( -1.224646799147353700E-16, 3.000000000000000444, 0.000000000000000000 ) ) ;
#298 = DIMENSIONAL_EXPONENTS ( 1.000000000000000000, 0.000000000000000000, 0.000000000000000000, 0.000000000000000000, 0.000000000000000000, 0.000000000000000000, 0.000000000000000000 ) ;
#299 = PLANE ( 'NONE',  #111 ) ;
#300 = CLOSED_SHELL ( 'NONE', ( #98, #267, #231, #163 ) ) ;
#301 = PLANE ( 'NONE',  #194 ) ;
#302 = LENGTH_MEASURE_WITH_UNIT ( LENGTH_MEASURE( 0.02539999999999999897 ), #45 );
#303 =( NAMED_UNIT ( * ) SI_UNIT ( $, .STERADIAN. ) SOLID_ANGLE_UNIT ( ) );
#304 = FACE_OUTER_BOUND ( 'NONE', #242, .T. ) ;
#305 =( LENGTH_UNIT ( ) NAMED_UNIT ( * ) SI_UNIT ( $, .METRE. ) );
#306 = DIMENSIONAL_EXPONENTS ( 1.000000000000000000, 0.000000000000000000, 0.000000000000000000, 0.000000000000000000, 0.000000000000000000, 0.000000000000000000, 0.000000000000000000 ) ;
#307 =( NAMED_UNIT ( * ) SI_UNIT ( $, .STERADIAN. ) SOLID_ANGLE_UNIT ( ) );
#308 = EDGE_LOOP ( 'NONE', ( #118, #136 ) ) ;
#309 = CYLINDRICAL_SURFACE ( 'NONE', #12, 0.1875000000000000833 ) ;
ENDSEC;
END-ISO-10303-21;
