ISO-10303-21;
HEADER;
FILE_DESCRIPTION (( 'STEP AP214' ),
    '1' );
FILE_NAME ('59450.STEP',
    '2023-06-30T22:19:37',
    ( '' ),
    ( '' ),
    'SwSTEP 2.0',
    'SolidWorks 2023',
    '' );
FILE_SCHEMA (( 'AUTOMOTIVE_DESIGN' ));
ENDSEC;

DATA;
#1 = CARTESIAN_POINT ( 'NONE',  ( 0.2499999999999998335, 4.000000000000000000, 3.061616997868381169E-17 ) ) ;
#2 = ORIENTED_EDGE ( 'NONE', *, *, #349, .T. ) ;
#3 = SURFACE_SIDE_STYLE ('',( #263 ) ) ;
#4 =( GEOMETRIC_REPRESENTATION_CONTEXT ( 3 ) GLOBAL_UNCERTAINTY_ASSIGNED_CONTEXT ( ( #91 ) ) GLOBAL_UNIT_ASSIGNED_CONTEXT ( ( #228, #262, #170 ) ) REPRESENTATION_CONTEXT ( 'NONE', 'WORKASPACE' ) );
#5 = FACE_OUTER_BOUND ( 'NONE', #7, .T. ) ;
#6 = CARTESIAN_POINT ( 'NONE',  ( 0.000000000000000000, 0.000000000000000000, 0.000000000000000000 ) ) ;
#7 = EDGE_LOOP ( 'NONE', ( #295, #48 ) ) ;
#8 = DIRECTION ( 'NONE',  ( 0.000000000000000000, 0.000000000000000000, -1.000000000000000000 ) ) ;
#9 = DIMENSIONAL_EXPONENTS ( 1.000000000000000000, 0.000000000000000000, 0.000000000000000000, 0.000000000000000000, 0.000000000000000000, 0.000000000000000000, 0.000000000000000000 ) ;
#10 = CARTESIAN_POINT ( 'NONE',  ( -1.224646799147352714E-16, 4.000000000000000000, 0.000000000000000000 ) ) ;
#11 = ADVANCED_FACE ( 'NONE', ( #5 ), #226, .F. ) ;
#12 = CARTESIAN_POINT ( 'NONE',  ( -0.2500000000000001110, 4.000000000000000000, 0.000000000000000000 ) ) ;
#13 = ORIENTED_EDGE ( 'NONE', *, *, #301, .T. ) ;
#14 = MANIFOLD_SOLID_BREP ( 'Revolve - Cutting Edge', #333 ) ;
#15 = VERTEX_POINT ( 'NONE', #1 ) ;
#16 = PRESENTATION_LAYER_ASSIGNMENT (  '', '', ( #216 ) ) ;
#17 = CIRCLE ( 'NONE', #36, 0.2499999999999997502 ) ;
#18 = ORIENTED_EDGE ( 'NONE', *, *, #125, .T. ) ;
#19 =( NAMED_UNIT ( * ) PLANE_ANGLE_UNIT ( ) SI_UNIT ( $, .RADIAN. ) );
#20 =( CONVERSION_BASED_UNIT ( 'INCH', #368 ) LENGTH_UNIT ( ) NAMED_UNIT ( #9 ) );
#21 = MECHANICAL_DESIGN_GEOMETRIC_PRESENTATION_REPRESENTATION (  '', ( #292 ), #230 ) ;
#22 = VECTOR ( 'NONE', #347, 39.37007874015748143 ) ;
#23 = FILL_AREA_STYLE ('',( #131 ) ) ;
#24 = SURFACE_STYLE_FILL_AREA ( #23 ) ;
#25 = FACE_OUTER_BOUND ( 'NONE', #273, .T. ) ;
#26 = EDGE_CURVE ( 'NONE', #98, #243, #115, .T. ) ;
#27 = CARTESIAN_POINT ( 'NONE',  ( 2.449293598294706414E-16, 2.000000000000000000, 0.000000000000000000 ) ) ;
#28 = PRESENTATION_LAYER_ASSIGNMENT (  '', '', ( #265 ) ) ;
#29 = AXIS2_PLACEMENT_3D ( 'NONE', #55, #215, #77 ) ;
#30 = CARTESIAN_POINT ( 'NONE',  ( 2.449293598294706414E-16, 2.000000000000000000, 0.000000000000000000 ) ) ;
#31 = DIRECTION ( 'NONE',  ( 0.000000000000000000, 0.000000000000000000, -1.000000000000000000 ) ) ;
#32 = UNCERTAINTY_MEASURE_WITH_UNIT (LENGTH_MEASURE( 1.000000000000000082E-05 ), #260, 'distance_accuracy_value', 'NONE');
#33 = CARTESIAN_POINT ( 'NONE',  ( -1.224646799147352468E-16, 4.000000000000000000, 0.000000000000000000 ) ) ;
#34 = ORIENTED_EDGE ( 'NONE', *, *, #136, .F. ) ;
#35 = UNCERTAINTY_MEASURE_WITH_UNIT (LENGTH_MEASURE( 1.000000000000000082E-05 ), #360, 'distance_accuracy_value', 'NONE');
#36 = AXIS2_PLACEMENT_3D ( 'NONE', #121, #268, #8 ) ;
#37 = ORIENTED_EDGE ( 'NONE', *, *, #338, .T. ) ;
#38 = CARTESIAN_POINT ( 'NONE',  ( 0.2499999999999997502, 2.000000000000000000, 3.061616997868381169E-17 ) ) ;
#39 = ORIENTED_EDGE ( 'NONE', *, *, #264, .T. ) ;
#40 = UNCERTAINTY_MEASURE_WITH_UNIT (LENGTH_MEASURE( 1.000000000000000082E-05 ), #197, 'distance_accuracy_value', 'NONE');
#41 = EDGE_LOOP ( 'NONE', ( #272, #181, #45, #95 ) ) ;
#42 = MECHANICAL_DESIGN_GEOMETRIC_PRESENTATION_REPRESENTATION (  '', ( #265 ), #187 ) ;
#43 = AXIS2_PLACEMENT_3D ( 'NONE', #157, #281, #316 ) ;
#44 = FACE_OUTER_BOUND ( 'NONE', #205, .T. ) ;
#45 = ORIENTED_EDGE ( 'NONE', *, *, #236, .F. ) ;
#46 = SURFACE_STYLE_FILL_AREA ( #285 ) ;
#47 = DIRECTION ( 'NONE',  ( -0.000000000000000000, -1.000000000000000000, -0.000000000000000000 ) ) ;
#48 = ORIENTED_EDGE ( 'NONE', *, *, #276, .F. ) ;
#49 = MECHANICAL_DESIGN_GEOMETRIC_PRESENTATION_REPRESENTATION (  '', ( #216 ), #4 ) ;
#50 = CIRCLE ( 'NONE', #355, 0.2499999999999997502 ) ;
#51 = CARTESIAN_POINT ( 'NONE',  ( -3.061616997868383018E-17, 0.2500000000000000000, 0.000000000000000000 ) ) ;
#52 = SURFACE_SIDE_STYLE ('',( #313 ) ) ;
#53 = FACE_OUTER_BOUND ( 'NONE', #232, .T. ) ;
#54 = SURFACE_SIDE_STYLE ('',( #80 ) ) ;
#55 = CARTESIAN_POINT ( 'NONE',  ( 0.000000000000000000, 2.000000000000000000, 0.000000000000000000 ) ) ;
#56 =( NAMED_UNIT ( * ) PLANE_ANGLE_UNIT ( ) SI_UNIT ( $, .RADIAN. ) );
#57 = PRODUCT ( '59450', '59450', '', ( #345 ) ) ;
#58 = CARTESIAN_POINT ( 'NONE',  ( 0.000000000000000000, 0.2500000000000000000, 0.000000000000000000 ) ) ;
#59 =( NAMED_UNIT ( * ) SI_UNIT ( $, .STERADIAN. ) SOLID_ANGLE_UNIT ( ) );
#60 = ADVANCED_FACE ( 'NONE', ( #82 ), #164, .F. ) ;
#61 =( NAMED_UNIT ( * ) PLANE_ANGLE_UNIT ( ) SI_UNIT ( $, .RADIAN. ) );
#62 = SURFACE_STYLE_USAGE ( .BOTH. , #322 ) ;
#63 = ORIENTED_EDGE ( 'NONE', *, *, #250, .T. ) ;
#64 = CARTESIAN_POINT ( 'NONE',  ( 3.061616997868381169E-17, 2.000000000000000000, 0.2499999999999997502 ) ) ;
#65 = AXIS2_PLACEMENT_3D ( 'NONE', #10, #359, #328 ) ;
#66 = SURFACE_SIDE_STYLE ('',( #334 ) ) ;
#67 = ORIENTED_EDGE ( 'NONE', *, *, #192, .F. ) ;
#68 = EDGE_LOOP ( 'NONE', ( #237, #63, #239, #362 ) ) ;
#69 = ORIENTED_EDGE ( 'NONE', *, *, #227, .F. ) ;
#70 = PRODUCT_RELATED_PRODUCT_CATEGORY ( 'part', '', ( #57 ) ) ;
#71 = VERTEX_POINT ( 'NONE', #342 ) ;
#72 =( GEOMETRIC_REPRESENTATION_CONTEXT ( 3 ) GLOBAL_UNCERTAINTY_ASSIGNED_CONTEXT ( ( #261 ) ) GLOBAL_UNIT_ASSIGNED_CONTEXT ( ( #20, #56, #287 ) ) REPRESENTATION_CONTEXT ( 'NONE', 'WORKASPACE' ) );
#73 = SURFACE_SIDE_STYLE ('',( #186 ) ) ;
#74 =( CONVERSION_BASED_UNIT ( 'INCH', #150 ) LENGTH_UNIT ( ) NAMED_UNIT ( #142 ) );
#75 = ADVANCED_FACE ( 'NONE', ( #53 ), #155, .T. ) ;
#76 = CARTESIAN_POINT ( 'NONE',  ( -3.061616997868383018E-17, 0.2500000000000000000, 0.000000000000000000 ) ) ;
#77 = DIRECTION ( 'NONE',  ( 0.000000000000000000, -0.000000000000000000, 1.000000000000000000 ) ) ;
#78 = CIRCLE ( 'NONE', #350, 0.2499999999999999722 ) ;
#79 = FACE_OUTER_BOUND ( 'NONE', #326, .T. ) ;
#80 = SURFACE_STYLE_FILL_AREA ( #153 ) ;
#81 = FILL_AREA_STYLE_COLOUR ( '', #158 ) ;
#82 = FACE_OUTER_BOUND ( 'NONE', #271, .T. ) ;
#83 = CARTESIAN_POINT ( 'NONE',  ( -1.224646799147352468E-16, 4.000000000000000000, 0.000000000000000000 ) ) ;
#84 = ADVANCED_FACE ( 'NONE', ( #367 ), #343, .T. ) ;
#85 = LENGTH_MEASURE_WITH_UNIT ( LENGTH_MEASURE( 0.02539999999999999897 ), #259 );
#86 = MECHANICAL_DESIGN_GEOMETRIC_PRESENTATION_REPRESENTATION (  '', ( #129 ), #165 ) ;
#87 = CARTESIAN_POINT ( 'NONE',  ( 0.000000000000000000, 2.000000000000000000, -0.2499999999999997502 ) ) ;
#88 = ADVANCED_FACE ( 'NONE', ( #79 ), #244, .T. ) ;
#89 = SPHERICAL_SURFACE ( 'NONE', #126, 0.2500000000000000000 ) ;
#90 = ORIENTED_EDGE ( 'NONE', *, *, #276, .T. ) ;
#91 = UNCERTAINTY_MEASURE_WITH_UNIT (LENGTH_MEASURE( 1.000000000000000082E-05 ), #228, 'distance_accuracy_value', 'NONE');
#92 = PRESENTATION_STYLE_ASSIGNMENT (( #332 ) ) ;
#93 = PRESENTATION_STYLE_ASSIGNMENT (( #196 ) ) ;
#94 = DIRECTION ( 'NONE',  ( -1.836970198721029441E-16, 1.000000000000000000, -0.000000000000000000 ) ) ;
#95 = ORIENTED_EDGE ( 'NONE', *, *, #284, .F. ) ;
#96 = DIRECTION ( 'NONE',  ( -0.000000000000000000, -1.000000000000000000, -0.000000000000000000 ) ) ;
#97 = PRESENTATION_LAYER_ASSIGNMENT (  '', '', ( #209 ) ) ;
#98 = VERTEX_POINT ( 'NONE', #183 ) ;
#99 = ORIENTED_EDGE ( 'NONE', *, *, #284, .T. ) ;
#100 = MECHANICAL_DESIGN_GEOMETRIC_PRESENTATION_REPRESENTATION (  '', ( #217 ), #148 ) ;
#101 = CARTESIAN_POINT ( 'NONE',  ( 0.000000000000000000, 0.000000000000000000, 0.000000000000000000 ) ) ;
#102 = ORIENTED_EDGE ( 'NONE', *, *, #220, .F. ) ;
#103 = LINE ( 'NONE', #151, #195 ) ;
#104 = FILL_AREA_STYLE ('',( #290 ) ) ;
#105 = PRESENTATION_STYLE_ASSIGNMENT (( #320 ) ) ;
#106 = CYLINDRICAL_SURFACE ( 'NONE', #65, 0.2499999999999997224 ) ;
#107 =( CONVERSION_BASED_UNIT ( 'INCH', #255 ) LENGTH_UNIT ( ) NAMED_UNIT ( #117 ) );
#108 = PRESENTATION_STYLE_ASSIGNMENT (( #62 ) ) ;
#109 = AXIS2_PLACEMENT_3D ( 'NONE', #33, #94, #270 ) ;
#110 =( LENGTH_UNIT ( ) NAMED_UNIT ( * ) SI_UNIT ( $, .METRE. ) );
#111 = DIRECTION ( 'NONE',  ( -1.000000000000000000, 0.000000000000000000, 0.000000000000000000 ) ) ;
#112 = DIRECTION ( 'NONE',  ( -1.836970198721029441E-16, 1.000000000000000000, -0.000000000000000000 ) ) ;
#113 = ADVANCED_FACE ( 'NONE', ( #25 ), #211, .T. ) ;
#114 = PRODUCT_DEFINITION_CONTEXT ( 'detailed design', #291, 'design' ) ;
#115 = CIRCLE ( 'NONE', #363, 0.2500000000000000000 ) ;
#116 = AXIS2_PLACEMENT_3D ( 'NONE', #76, #304, #210 ) ;
#117 = DIMENSIONAL_EXPONENTS ( 1.000000000000000000, 0.000000000000000000, 0.000000000000000000, 0.000000000000000000, 0.000000000000000000, 0.000000000000000000, 0.000000000000000000 ) ;
#118 = ORIENTED_EDGE ( 'NONE', *, *, #250, .F. ) ;
#119 = CARTESIAN_POINT ( 'NONE',  ( 3.061616997868383018E-17, 0.2500000000000000000, 0.2499999999999999722 ) ) ;
#120 = LINE ( 'NONE', #219, #252 ) ;
#121 = CARTESIAN_POINT ( 'NONE',  ( 0.000000000000000000, 2.000000000000000000, 0.000000000000000000 ) ) ;
#122 = FACE_OUTER_BOUND ( 'NONE', #68, .T. ) ;
#123 = ORIENTED_EDGE ( 'NONE', *, *, #220, .T. ) ;
#124 = EDGE_LOOP ( 'NONE', ( #207, #201 ) ) ;
#125 = EDGE_CURVE ( 'NONE', #336, #180, #78, .T. ) ;
#126 = AXIS2_PLACEMENT_3D ( 'NONE', #143, #141, #357 ) ;
#127 = AXIS2_PLACEMENT_3D ( 'NONE', #27, #112, #294 ) ;
#128 = PRESENTATION_STYLE_ASSIGNMENT (( #152 ) ) ;
#129 = STYLED_ITEM ( 'NONE', ( #105 ), #14 ) ;
#130 = LINE ( 'NONE', #369, #22 ) ;
#131 = FILL_AREA_STYLE_COLOUR ( '', #344 ) ;
#132 = DIRECTION ( 'NONE',  ( -1.836970198721029441E-16, 1.000000000000000000, -0.000000000000000000 ) ) ;
#133 = ADVANCED_FACE ( 'NONE', ( #44 ), #89, .T. ) ;
#134 = COLOUR_RGB ( '',1.000000000000000000, 0.000000000000000000, 0.000000000000000000 ) ;
#135 = CIRCLE ( 'NONE', #311, 0.2499999999999999722 ) ;
#136 = EDGE_CURVE ( 'NONE', #15, #149, #279, .T. ) ;
#137 = SURFACE_SIDE_STYLE ('',( #24 ) ) ;
#138 = CLOSED_SHELL ( 'NONE', ( #258, #11, #113, #60 ) ) ;
#139 = CIRCLE ( 'NONE', #43, 0.2499999999999999722 ) ;
#140 = EDGE_CURVE ( 'NONE', #303, #176, #267, .T. ) ;
#141 = DIRECTION ( 'NONE',  ( 0.000000000000000000, 0.000000000000000000, 1.000000000000000000 ) ) ;
#142 = DIMENSIONAL_EXPONENTS ( 1.000000000000000000, 0.000000000000000000, 0.000000000000000000, 0.000000000000000000, 0.000000000000000000, 0.000000000000000000, 0.000000000000000000 ) ;
#143 = CARTESIAN_POINT ( 'NONE',  ( -3.061616997868383018E-17, 0.2500000000000000000, 0.000000000000000000 ) ) ;
#144 = COLOUR_RGB ( '',1.000000000000000000, 0.000000000000000000, 0.000000000000000000 ) ;
#145 = DIRECTION ( 'NONE',  ( -0.000000000000000000, -1.000000000000000000, -0.000000000000000000 ) ) ;
#146 = LENGTH_MEASURE_WITH_UNIT ( LENGTH_MEASURE( 0.02539999999999999897 ), #329 );
#147 = VERTEX_POINT ( 'NONE', #64 ) ;
#148 =( GEOMETRIC_REPRESENTATION_CONTEXT ( 3 ) GLOBAL_UNCERTAINTY_ASSIGNED_CONTEXT ( ( #32 ) ) GLOBAL_UNIT_ASSIGNED_CONTEXT ( ( #260, #225, #269 ) ) REPRESENTATION_CONTEXT ( 'NONE', 'WORKASPACE' ) );
#149 = VERTEX_POINT ( 'NONE', #12 ) ;
#150 = LENGTH_MEASURE_WITH_UNIT ( LENGTH_MEASURE( 0.02539999999999999897 ), #212 );
#151 = CARTESIAN_POINT ( 'NONE',  ( -0.2499999999999998612, 4.000000000000000000, 0.000000000000000000 ) ) ;
#152 = SURFACE_STYLE_USAGE ( .BOTH. , #73 ) ;
#153 = FILL_AREA_STYLE ('',( #283 ) ) ;
#154 = APPLICATION_CONTEXT ( 'automotive_design' ) ;
#155 = CYLINDRICAL_SURFACE ( 'NONE', #208, 0.2499999999999998612 ) ;
#156 =( NAMED_UNIT ( * ) SI_UNIT ( $, .STERADIAN. ) SOLID_ANGLE_UNIT ( ) );
#157 = CARTESIAN_POINT ( 'NONE',  ( 0.000000000000000000, 0.2500000000000000000, 0.000000000000000000 ) ) ;
#158 = COLOUR_RGB ( '',1.000000000000000000, 0.000000000000000000, 0.000000000000000000 ) ;
#159 = AXIS2_PLACEMENT_3D ( 'NONE', #51, #191, #245 ) ;
#160 = DIRECTION ( 'NONE',  ( 0.000000000000000000, 0.000000000000000000, -1.000000000000000000 ) ) ;
#161 = ADVANCED_FACE ( 'NONE', ( #122 ), #231, .T. ) ;
#162 = DIRECTION ( 'NONE',  ( 0.000000000000000000, 0.000000000000000000, -1.000000000000000000 ) ) ;
#163 =( NAMED_UNIT ( * ) SI_UNIT ( $, .STERADIAN. ) SOLID_ANGLE_UNIT ( ) );
#164 = PLANE ( 'NONE',  #194 ) ;
#165 =( GEOMETRIC_REPRESENTATION_CONTEXT ( 3 ) GLOBAL_UNCERTAINTY_ASSIGNED_CONTEXT ( ( #234 ) ) GLOBAL_UNIT_ASSIGNED_CONTEXT ( ( #107, #289, #59 ) ) REPRESENTATION_CONTEXT ( 'NONE', 'WORKASPACE' ) );
#166 = CIRCLE ( 'NONE', #159, 0.2500000000000000000 ) ;
#167 = CARTESIAN_POINT ( 'NONE',  ( -3.061616997868383018E-17, 0.2500000000000000000, 0.000000000000000000 ) ) ;
#168 = AXIS2_PLACEMENT_3D ( 'NONE', #83, #132, #248 ) ;
#169 =( NAMED_UNIT ( * ) PLANE_ANGLE_UNIT ( ) SI_UNIT ( $, .RADIAN. ) );
#170 =( NAMED_UNIT ( * ) SI_UNIT ( $, .STERADIAN. ) SOLID_ANGLE_UNIT ( ) );
#171 = DIMENSIONAL_EXPONENTS ( 1.000000000000000000, 0.000000000000000000, 0.000000000000000000, 0.000000000000000000, 0.000000000000000000, 0.000000000000000000, 0.000000000000000000 ) ;
#172 = DIRECTION ( 'NONE',  ( 0.000000000000000000, 0.000000000000000000, -1.000000000000000000 ) ) ;
#173 = ORIENTED_EDGE ( 'NONE', *, *, #26, .F. ) ;
#174 = UNCERTAINTY_MEASURE_WITH_UNIT (LENGTH_MEASURE( 1.000000000000000082E-05 ), #309, 'distance_accuracy_value', 'NONE');
#175 = FACE_OUTER_BOUND ( 'NONE', #41, .T. ) ;
#176 = VERTEX_POINT ( 'NONE', #38 ) ;
#177 = AXIS2_PLACEMENT_3D ( 'NONE', #251, #222, #370 ) ;
#178 = SURFACE_STYLE_USAGE ( .BOTH. , #66 ) ;
#179 = ORIENTED_EDGE ( 'NONE', *, *, #264, .F. ) ;
#180 = VERTEX_POINT ( 'NONE', #206 ) ;
#181 = ORIENTED_EDGE ( 'NONE', *, *, #227, .T. ) ;
#182 = EDGE_CURVE ( 'NONE', #71, #98, #340, .T. ) ;
#183 = CARTESIAN_POINT ( 'NONE',  ( 0.2499999999999999722, 0.2500000000000000000, 0.000000000000000000 ) ) ;
#184 = DIRECTION ( 'NONE',  ( 0.000000000000000000, 0.000000000000000000, -1.000000000000000000 ) ) ;
#185 = CARTESIAN_POINT ( 'NONE',  ( 0.000000000000000000, 0.2500000000000000000, 0.000000000000000000 ) ) ;
#186 = SURFACE_STYLE_FILL_AREA ( #221 ) ;
#187 =( GEOMETRIC_REPRESENTATION_CONTEXT ( 3 ) GLOBAL_UNCERTAINTY_ASSIGNED_CONTEXT ( ( #174 ) ) GLOBAL_UNIT_ASSIGNED_CONTEXT ( ( #309, #19, #163 ) ) REPRESENTATION_CONTEXT ( 'NONE', 'WORKASPACE' ) );
#188 = PRODUCT_DEFINITION_FORMATION_WITH_SPECIFIED_SOURCE ( 'ANY', '', #57, .NOT_KNOWN. ) ;
#189 = DIRECTION ( 'NONE',  ( -0.000000000000000000, -1.000000000000000000, -0.000000000000000000 ) ) ;
#190 = CARTESIAN_POINT ( 'NONE',  ( -1.530808498934191509E-17, 0.000000000000000000, 0.000000000000000000 ) ) ;
#191 = DIRECTION ( 'NONE',  ( 1.224646799147353207E-16, -0.000000000000000000, 1.000000000000000000 ) ) ;
#192 = EDGE_CURVE ( 'NONE', #266, #71, #130, .T. ) ;
#193 = FILL_AREA_STYLE ('',( #352 ) ) ;
#194 = AXIS2_PLACEMENT_3D ( 'NONE', #302, #200, #341 ) ;
#195 = VECTOR ( 'NONE', #275, 39.37007874015748143 ) ;
#196 = SURFACE_STYLE_USAGE ( .BOTH. , #137 ) ;
#197 =( CONVERSION_BASED_UNIT ( 'INCH', #85 ) LENGTH_UNIT ( ) NAMED_UNIT ( #229 ) );
#198 = COLOUR_RGB ( '',0.7921568627450980005, 0.8196078431372548767, 0.9333333333333333481 ) ;
#199 = DIRECTION ( 'NONE',  ( -1.836970198721029441E-16, 1.000000000000000000, -0.000000000000000000 ) ) ;
#200 = DIRECTION ( 'NONE',  ( 1.836970198721029441E-16, -1.000000000000000000, 0.000000000000000000 ) ) ;
#201 = ORIENTED_EDGE ( 'NONE', *, *, #301, .F. ) ;
#202 = PRODUCT_DEFINITION ( 'UNKNOWN', '', #188, #114 ) ;
#203 = FILL_AREA_STYLE_COLOUR ( '', #144 ) ;
#204 = AXIS2_PLACEMENT_3D ( 'NONE', #185, #47, #160 ) ;
#205 = EDGE_LOOP ( 'NONE', ( #18, #2, #173, #123 ) ) ;
#206 = CARTESIAN_POINT ( 'NONE',  ( -0.2500000000000000000, 0.2500000000000000000, 3.061616997868382402E-17 ) ) ;
#207 = ORIENTED_EDGE ( 'NONE', *, *, #338, .F. ) ;
#208 = AXIS2_PLACEMENT_3D ( 'NONE', #6, #145, #238 ) ;
#209 = STYLED_ITEM ( 'NONE', ( #323 ), #161 ) ;
#210 = DIRECTION ( 'NONE',  ( 1.000000000000000000, 0.000000000000000000, 0.000000000000000000 ) ) ;
#211 = CYLINDRICAL_SURFACE ( 'NONE', #310, 0.2499999999999997224 ) ;
#212 =( LENGTH_UNIT ( ) NAMED_UNIT ( * ) SI_UNIT ( $, .METRE. ) );
#213 =( LENGTH_UNIT ( ) NAMED_UNIT ( * ) SI_UNIT ( $, .METRE. ) );
#214 = CARTESIAN_POINT ( 'NONE',  ( 0.2499999999999995837, 4.000000000000000000, 3.061616997868379320E-17 ) ) ;
#215 = DIRECTION ( 'NONE',  ( 0.000000000000000000, 1.000000000000000000, 0.000000000000000000 ) ) ;
#216 = STYLED_ITEM ( 'NONE', ( #93 ), #75 ) ;
#217 = STYLED_ITEM ( 'NONE', ( #108 ), #256 ) ;
#218 = CARTESIAN_POINT ( 'NONE',  ( 0.000000000000000000, 0.000000000000000000, 0.000000000000000000 ) ) ;
#219 = CARTESIAN_POINT ( 'NONE',  ( 3.061616997868381785E-17, 0.000000000000000000, 0.2499999999999998612 ) ) ;
#220 = EDGE_CURVE ( 'NONE', #98, #336, #139, .T. ) ;
#221 = FILL_AREA_STYLE ('',( #81 ) ) ;
#222 = DIRECTION ( 'NONE',  ( -1.836970198721029441E-16, 1.000000000000000000, 0.000000000000000000 ) ) ;
#223 =( LENGTH_UNIT ( ) NAMED_UNIT ( * ) SI_UNIT ( $, .METRE. ) );
#224 = PRESENTATION_LAYER_ASSIGNMENT (  '', '', ( #296 ) ) ;
#225 =( NAMED_UNIT ( * ) PLANE_ANGLE_UNIT ( ) SI_UNIT ( $, .RADIAN. ) );
#226 = PLANE ( 'NONE',  #177 ) ;
#227 = EDGE_CURVE ( 'NONE', #176, #15, #280, .T. ) ;
#228 =( CONVERSION_BASED_UNIT ( 'INCH', #324 ) LENGTH_UNIT ( ) NAMED_UNIT ( #240 ) );
#229 = DIMENSIONAL_EXPONENTS ( 1.000000000000000000, 0.000000000000000000, 0.000000000000000000, 0.000000000000000000, 0.000000000000000000, 0.000000000000000000, 0.000000000000000000 ) ;
#230 =( GEOMETRIC_REPRESENTATION_CONTEXT ( 3 ) GLOBAL_UNCERTAINTY_ASSIGNED_CONTEXT ( ( #35 ) ) GLOBAL_UNIT_ASSIGNED_CONTEXT ( ( #360, #169, #325 ) ) REPRESENTATION_CONTEXT ( 'NONE', 'WORKASPACE' ) );
#231 = SPHERICAL_SURFACE ( 'NONE', #116, 0.2500000000000000000 ) ;
#232 = EDGE_LOOP ( 'NONE', ( #37, #39, #102, #300, #67 ) ) ;
#233 = PRESENTATION_LAYER_ASSIGNMENT (  '', '', ( #217 ) ) ;
#234 = UNCERTAINTY_MEASURE_WITH_UNIT (LENGTH_MEASURE( 1.000000000000000082E-05 ), #107, 'distance_accuracy_value', 'NONE');
#235 = DIMENSIONAL_EXPONENTS ( 1.000000000000000000, 0.000000000000000000, 0.000000000000000000, 0.000000000000000000, 0.000000000000000000, 0.000000000000000000, 0.000000000000000000 ) ;
#236 = EDGE_CURVE ( 'NONE', #149, #15, #335, .T. ) ;
#237 = ORIENTED_EDGE ( 'NONE', *, *, #349, .F. ) ;
#238 = DIRECTION ( 'NONE',  ( 0.000000000000000000, 0.000000000000000000, -1.000000000000000000 ) ) ;
#239 = ORIENTED_EDGE ( 'NONE', *, *, #182, .T. ) ;
#240 = DIMENSIONAL_EXPONENTS ( 1.000000000000000000, 0.000000000000000000, 0.000000000000000000, 0.000000000000000000, 0.000000000000000000, 0.000000000000000000, 0.000000000000000000 ) ;
#241 = PRESENTATION_LAYER_ASSIGNMENT (  '', '', ( #129 ) ) ;
#242 = AXIS2_PLACEMENT_3D ( 'NONE', #101, #308, #315 ) ;
#243 = VERTEX_POINT ( 'NONE', #190 ) ;
#244 = CYLINDRICAL_SURFACE ( 'NONE', #354, 0.2499999999999998612 ) ;
#245 = DIRECTION ( 'NONE',  ( 1.000000000000000000, 0.000000000000000000, -1.224646799147353207E-16 ) ) ;
#246 = MECHANICAL_DESIGN_GEOMETRIC_PRESENTATION_REPRESENTATION (  '', ( #296 ), #339 ) ;
#247 = APPLICATION_PROTOCOL_DEFINITION ( 'draft international standard', 'automotive_design', 1998, #154 ) ;
#248 = DIRECTION ( 'NONE',  ( -1.000000000000000000, 0.000000000000000000, 0.000000000000000000 ) ) ;
#249 = DIRECTION ( 'NONE',  ( 0.000000000000000000, 0.000000000000000000, -1.000000000000000000 ) ) ;
#250 = EDGE_CURVE ( 'NONE', #180, #71, #135, .T. ) ;
#251 = CARTESIAN_POINT ( 'NONE',  ( 2.449293598294706414E-16, 2.000000000000000000, 0.000000000000000000 ) ) ;
#252 = VECTOR ( 'NONE', #365, 39.37007874015748143 ) ;
#253 = CARTESIAN_POINT ( 'NONE',  ( 0.000000000000000000, 0.2500000000000000000, 0.000000000000000000 ) ) ;
#254 = DIRECTION ( 'NONE',  ( -1.000000000000000000, 0.000000000000000000, 0.000000000000000000 ) ) ;
#255 = LENGTH_MEASURE_WITH_UNIT ( LENGTH_MEASURE( 0.02539999999999999897 ), #318 );
#256 = MANIFOLD_SOLID_BREP ( 'Revolve - Tool Body (Straight Shanked)', #138 ) ;
#257 = MECHANICAL_DESIGN_GEOMETRIC_PRESENTATION_REPRESENTATION (  '', ( #209 ), #306 ) ;
#258 = ADVANCED_FACE ( 'NONE', ( #175 ), #106, .T. ) ;
#259 =( LENGTH_UNIT ( ) NAMED_UNIT ( * ) SI_UNIT ( $, .METRE. ) );
#260 =( CONVERSION_BASED_UNIT ( 'INCH', #351 ) LENGTH_UNIT ( ) NAMED_UNIT ( #330 ) );
#261 = UNCERTAINTY_MEASURE_WITH_UNIT (LENGTH_MEASURE( 1.000000000000000082E-05 ), #20, 'distance_accuracy_value', 'NONE');
#262 =( NAMED_UNIT ( * ) PLANE_ANGLE_UNIT ( ) SI_UNIT ( $, .RADIAN. ) );
#263 = SURFACE_STYLE_FILL_AREA ( #104 ) ;
#264 = EDGE_CURVE ( 'NONE', #147, #336, #120, .T. ) ;
#265 = STYLED_ITEM ( 'NONE', ( #128 ), #88 ) ;
#266 = VERTEX_POINT ( 'NONE', #87 ) ;
#267 = CIRCLE ( 'NONE', #274, 0.2499999999999995282 ) ;
#268 = DIRECTION ( 'NONE',  ( -0.000000000000000000, -1.000000000000000000, -0.000000000000000000 ) ) ;
#269 =( NAMED_UNIT ( * ) SI_UNIT ( $, .STERADIAN. ) SOLID_ANGLE_UNIT ( ) );
#270 = DIRECTION ( 'NONE',  ( -1.000000000000000000, 0.000000000000000000, 0.000000000000000000 ) ) ;
#271 = EDGE_LOOP ( 'NONE', ( #361, #337 ) ) ;
#272 = ORIENTED_EDGE ( 'NONE', *, *, #140, .T. ) ;
#273 = EDGE_LOOP ( 'NONE', ( #69, #90, #99, #34 ) ) ;
#274 = AXIS2_PLACEMENT_3D ( 'NONE', #30, #199, #331 ) ;
#275 = DIRECTION ( 'NONE',  ( -1.836970198721029441E-16, 1.000000000000000000, -0.000000000000000000 ) ) ;
#276 = EDGE_CURVE ( 'NONE', #176, #303, #321, .T. ) ;
#277 = ADVANCED_BREP_SHAPE_REPRESENTATION ( '59450', ( #14, #256, #242 ), #72 ) ;
#278 = APPLICATION_PROTOCOL_DEFINITION ( 'draft international standard', 'automotive_design', 1998, #291 ) ;
#279 = CIRCLE ( 'NONE', #109, 0.2499999999999999722 ) ;
#280 = LINE ( 'NONE', #214, #298 ) ;
#281 = DIRECTION ( 'NONE',  ( -0.000000000000000000, -1.000000000000000000, -0.000000000000000000 ) ) ;
#282 =( LENGTH_UNIT ( ) NAMED_UNIT ( * ) SI_UNIT ( $, .METRE. ) );
#283 = FILL_AREA_STYLE_COLOUR ( '', #288 ) ;
#284 = EDGE_CURVE ( 'NONE', #303, #149, #103, .T. ) ;
#285 = FILL_AREA_STYLE ('',( #348 ) ) ;
#286 = PRODUCT_DEFINITION_SHAPE ( 'NONE', 'NONE',  #202 ) ;
#287 =( NAMED_UNIT ( * ) SI_UNIT ( $, .STERADIAN. ) SOLID_ANGLE_UNIT ( ) );
#288 = COLOUR_RGB ( '',1.000000000000000000, 0.000000000000000000, 0.000000000000000000 ) ;
#289 =( NAMED_UNIT ( * ) PLANE_ANGLE_UNIT ( ) SI_UNIT ( $, .RADIAN. ) );
#290 = FILL_AREA_STYLE_COLOUR ( '', #134 ) ;
#291 = APPLICATION_CONTEXT ( 'automotive_design' ) ;
#292 = STYLED_ITEM ( 'NONE', ( #92 ), #133 ) ;
#293 =( NAMED_UNIT ( * ) SI_UNIT ( $, .STERADIAN. ) SOLID_ANGLE_UNIT ( ) );
#294 = DIRECTION ( 'NONE',  ( -1.000000000000000000, 0.000000000000000000, 0.000000000000000000 ) ) ;
#295 = ORIENTED_EDGE ( 'NONE', *, *, #140, .F. ) ;
#296 = STYLED_ITEM ( 'NONE', ( #366 ), #84 ) ;
#297 = ORIENTED_EDGE ( 'NONE', *, *, #125, .F. ) ;
#298 = VECTOR ( 'NONE', #312, 39.37007874015748143 ) ;
#299 = CARTESIAN_POINT ( 'NONE',  ( 0.000000000000000000, 2.000000000000000000, 0.000000000000000000 ) ) ;
#300 = ORIENTED_EDGE ( 'NONE', *, *, #182, .F. ) ;
#301 = EDGE_CURVE ( 'NONE', #147, #266, #17, .T. ) ;
#302 = CARTESIAN_POINT ( 'NONE',  ( 0.2499999999999998335, 4.000000000000000000, 0.000000000000000000 ) ) ;
#303 = VERTEX_POINT ( 'NONE', #358 ) ;
#304 = DIRECTION ( 'NONE',  ( 0.000000000000000000, 0.000000000000000000, 1.000000000000000000 ) ) ;
#305 = ORIENTED_EDGE ( 'NONE', *, *, #192, .T. ) ;
#306 =( GEOMETRIC_REPRESENTATION_CONTEXT ( 3 ) GLOBAL_UNCERTAINTY_ASSIGNED_CONTEXT ( ( #40 ) ) GLOBAL_UNIT_ASSIGNED_CONTEXT ( ( #197, #61, #293 ) ) REPRESENTATION_CONTEXT ( 'NONE', 'WORKASPACE' ) );
#307 = DIRECTION ( 'NONE',  ( -1.836970198721029441E-16, 1.000000000000000000, -0.000000000000000000 ) ) ;
#308 = DIRECTION ( 'NONE',  ( 0.000000000000000000, 0.000000000000000000, 1.000000000000000000 ) ) ;
#309 =( CONVERSION_BASED_UNIT ( 'INCH', #346 ) LENGTH_UNIT ( ) NAMED_UNIT ( #171 ) );
#310 = AXIS2_PLACEMENT_3D ( 'NONE', #371, #307, #254 ) ;
#311 = AXIS2_PLACEMENT_3D ( 'NONE', #253, #373, #162 ) ;
#312 = DIRECTION ( 'NONE',  ( -1.836970198721029441E-16, 1.000000000000000000, -0.000000000000000000 ) ) ;
#313 = SURFACE_STYLE_FILL_AREA ( #193 ) ;
#314 = SURFACE_STYLE_USAGE ( .BOTH. , #54 ) ;
#315 = DIRECTION ( 'NONE',  ( 1.000000000000000000, 0.000000000000000000, 0.000000000000000000 ) ) ;
#316 = DIRECTION ( 'NONE',  ( 0.000000000000000000, 0.000000000000000000, -1.000000000000000000 ) ) ;
#317 =( NAMED_UNIT ( * ) PLANE_ANGLE_UNIT ( ) SI_UNIT ( $, .RADIAN. ) );
#318 =( LENGTH_UNIT ( ) NAMED_UNIT ( * ) SI_UNIT ( $, .METRE. ) );
#319 = PRESENTATION_LAYER_ASSIGNMENT (  '', '', ( #292 ) ) ;
#320 = SURFACE_STYLE_USAGE ( .BOTH. , #52 ) ;
#321 = CIRCLE ( 'NONE', #127, 0.2499999999999995282 ) ;
#322 = SURFACE_SIDE_STYLE ('',( #46 ) ) ;
#323 = PRESENTATION_STYLE_ASSIGNMENT (( #178 ) ) ;
#324 = LENGTH_MEASURE_WITH_UNIT ( LENGTH_MEASURE( 0.02539999999999999897 ), #110 );
#325 =( NAMED_UNIT ( * ) SI_UNIT ( $, .STERADIAN. ) SOLID_ANGLE_UNIT ( ) );
#326 = EDGE_LOOP ( 'NONE', ( #179, #13, #305, #118, #297 ) ) ;
#327 = UNCERTAINTY_MEASURE_WITH_UNIT (LENGTH_MEASURE( 1.000000000000000082E-05 ), #74, 'distance_accuracy_value', 'NONE');
#328 = DIRECTION ( 'NONE',  ( -1.000000000000000000, 0.000000000000000000, 0.000000000000000000 ) ) ;
#329 =( LENGTH_UNIT ( ) NAMED_UNIT ( * ) SI_UNIT ( $, .METRE. ) );
#330 = DIMENSIONAL_EXPONENTS ( 1.000000000000000000, 0.000000000000000000, 0.000000000000000000, 0.000000000000000000, 0.000000000000000000, 0.000000000000000000, 0.000000000000000000 ) ;
#331 = DIRECTION ( 'NONE',  ( -1.000000000000000000, 0.000000000000000000, 0.000000000000000000 ) ) ;
#332 = SURFACE_STYLE_USAGE ( .BOTH. , #3 ) ;
#333 = CLOSED_SHELL ( 'NONE', ( #133, #75, #84, #88, #161 ) ) ;
#334 = SURFACE_STYLE_FILL_AREA ( #353 ) ;
#335 = CIRCLE ( 'NONE', #168, 0.2499999999999999722 ) ;
#336 = VERTEX_POINT ( 'NONE', #119 ) ;
#337 = ORIENTED_EDGE ( 'NONE', *, *, #136, .T. ) ;
#338 = EDGE_CURVE ( 'NONE', #266, #147, #50, .T. ) ;
#339 =( GEOMETRIC_REPRESENTATION_CONTEXT ( 3 ) GLOBAL_UNCERTAINTY_ASSIGNED_CONTEXT ( ( #327 ) ) GLOBAL_UNIT_ASSIGNED_CONTEXT ( ( #74, #317, #156 ) ) REPRESENTATION_CONTEXT ( 'NONE', 'WORKASPACE' ) );
#340 = CIRCLE ( 'NONE', #204, 0.2499999999999999722 ) ;
#341 = DIRECTION ( 'NONE',  ( 1.000000000000000000, 1.836970198721029441E-16, 0.000000000000000000 ) ) ;
#342 = CARTESIAN_POINT ( 'NONE',  ( 0.000000000000000000, 0.2500000000000000000, -0.2499999999999999722 ) ) ;
#343 = PLANE ( 'NONE',  #29 ) ;
#344 = COLOUR_RGB ( '',1.000000000000000000, 0.000000000000000000, 0.000000000000000000 ) ;
#345 = PRODUCT_CONTEXT ( 'NONE', #154, 'mechanical' ) ;
#346 = LENGTH_MEASURE_WITH_UNIT ( LENGTH_MEASURE( 0.02539999999999999897 ), #282 );
#347 = DIRECTION ( 'NONE',  ( -0.000000000000000000, -1.000000000000000000, -0.000000000000000000 ) ) ;
#348 = FILL_AREA_STYLE_COLOUR ( '', #364 ) ;
#349 = EDGE_CURVE ( 'NONE', #180, #243, #166, .T. ) ;
#350 = AXIS2_PLACEMENT_3D ( 'NONE', #58, #356, #172 ) ;
#351 = LENGTH_MEASURE_WITH_UNIT ( LENGTH_MEASURE( 0.02539999999999999897 ), #223 );
#352 = FILL_AREA_STYLE_COLOUR ( '', #198 ) ;
#353 = FILL_AREA_STYLE ('',( #203 ) ) ;
#354 = AXIS2_PLACEMENT_3D ( 'NONE', #218, #189, #249 ) ;
#355 = AXIS2_PLACEMENT_3D ( 'NONE', #299, #96, #184 ) ;
#356 = DIRECTION ( 'NONE',  ( -0.000000000000000000, -1.000000000000000000, -0.000000000000000000 ) ) ;
#357 = DIRECTION ( 'NONE',  ( 1.000000000000000000, 0.000000000000000000, 0.000000000000000000 ) ) ;
#358 = CARTESIAN_POINT ( 'NONE',  ( -0.2499999999999992784, 2.000000000000000000, 0.000000000000000000 ) ) ;
#359 = DIRECTION ( 'NONE',  ( -1.836970198721029441E-16, 1.000000000000000000, -0.000000000000000000 ) ) ;
#360 =( CONVERSION_BASED_UNIT ( 'INCH', #146 ) LENGTH_UNIT ( ) NAMED_UNIT ( #235 ) );
#361 = ORIENTED_EDGE ( 'NONE', *, *, #236, .T. ) ;
#362 = ORIENTED_EDGE ( 'NONE', *, *, #26, .T. ) ;
#363 = AXIS2_PLACEMENT_3D ( 'NONE', #167, #31, #111 ) ;
#364 = COLOUR_RGB ( '',0.7921568627450980005, 0.8196078431372548767, 0.9333333333333333481 ) ;
#365 = DIRECTION ( 'NONE',  ( -0.000000000000000000, -1.000000000000000000, -0.000000000000000000 ) ) ;
#366 = PRESENTATION_STYLE_ASSIGNMENT (( #314 ) ) ;
#367 = FACE_OUTER_BOUND ( 'NONE', #124, .T. ) ;
#368 = LENGTH_MEASURE_WITH_UNIT ( LENGTH_MEASURE( 0.02539999999999999897 ), #213 );
#369 = CARTESIAN_POINT ( 'NONE',  ( 0.000000000000000000, 0.000000000000000000, -0.2499999999999998612 ) ) ;
#370 = DIRECTION ( 'NONE',  ( -1.000000000000000000, -1.836970198721029441E-16, 0.000000000000000000 ) ) ;
#371 = CARTESIAN_POINT ( 'NONE',  ( -1.224646799147352714E-16, 4.000000000000000000, 0.000000000000000000 ) ) ;
#372 = SHAPE_DEFINITION_REPRESENTATION ( #286, #277 ) ;
#373 = DIRECTION ( 'NONE',  ( -0.000000000000000000, -1.000000000000000000, -0.000000000000000000 ) ) ;
ENDSEC;
END-ISO-10303-21;
