ISO-10303-21;
HEADER;
FILE_DESCRIPTION (( 'STEP AP214' ),
    '1' );
FILE_NAME ('59823.STEP',
    '2023-07-12T13:06:30',
    ( '' ),
    ( '' ),
    'SwSTEP 2.0',
    'SolidWorks 2023',
    '' );
FILE_SCHEMA (( 'AUTOMOTIVE_DESIGN' ));
ENDSEC;

DATA;
#1 = DIMENSIONAL_EXPONENTS ( 1.000000000000000000, 0.000000000000000000, 0.000000000000000000, 0.000000000000000000, 0.000000000000000000, 0.000000000000000000, 0.000000000000000000 ) ;
#2 = DIRECTION ( 'NONE',  ( -1.433778346674777440E-16, 1.000000000000000000, -0.000000000000000000 ) ) ;
#3 =( GEOMETRIC_REPRESENTATION_CONTEXT ( 3 ) GLOBAL_UNCERTAINTY_ASSIGNED_CONTEXT ( ( #7 ) ) GLOBAL_UNIT_ASSIGNED_CONTEXT ( ( #236, #264, #261 ) ) REPRESENTATION_CONTEXT ( 'NONE', 'WORKASPACE' ) );
#4 = CIRCLE ( 'NONE', #74, 0.3125000000000000000 ) ;
#5 = PRESENTATION_LAYER_ASSIGNMENT (  '', '', ( #301 ) ) ;
#6 = DIRECTION ( 'NONE',  ( 1.000000000000000000, 0.000000000000000000, 0.000000000000000000 ) ) ;
#7 = UNCERTAINTY_MEASURE_WITH_UNIT (LENGTH_MEASURE( 1.000000000000000082E-05 ), #236, 'distance_accuracy_value', 'NONE');
#8 = EDGE_LOOP ( 'NONE', ( #251, #70 ) ) ;
#9 =( CONVERSION_BASED_UNIT ( 'INCH', #201 ) LENGTH_UNIT ( ) NAMED_UNIT ( #99 ) );
#10 =( LENGTH_UNIT ( ) NAMED_UNIT ( * ) SI_UNIT ( $, .METRE. ) );
#11 = SURFACE_STYLE_USAGE ( .BOTH. , #249 ) ;
#12 = ADVANCED_FACE ( 'NONE', ( #176 ), #291, .T. ) ;
#13 = DIRECTION ( 'NONE',  ( -1.000000000000000000, -1.433778346674777440E-16, 0.000000000000000000 ) ) ;
#14 = CLOSED_SHELL ( 'NONE', ( #243, #125, #307, #153 ) ) ;
#15 = AXIS2_PLACEMENT_3D ( 'NONE', #87, #184, #13 ) ;
#16 = CARTESIAN_POINT ( 'NONE',  ( 0.000000000000000000, 0.000000000000000000, 0.000000000000000000 ) ) ;
#17 = CARTESIAN_POINT ( 'NONE',  ( -0.04499999999999999833, 4.878431103483037846E-19, 0.000000000000000000 ) ) ;
#18 = ORIENTED_EDGE ( 'NONE', *, *, #72, .T. ) ;
#19 =( NAMED_UNIT ( * ) PLANE_ANGLE_UNIT ( ) SI_UNIT ( $, .RADIAN. ) );
#20 = UNCERTAINTY_MEASURE_WITH_UNIT (LENGTH_MEASURE( 1.000000000000000082E-05 ), #79, 'distance_accuracy_value', 'NONE');
#21 = FACE_OUTER_BOUND ( 'NONE', #259, .T. ) ;
#22 = AXIS2_PLACEMENT_3D ( 'NONE', #118, #73, #146 ) ;
#23 = CARTESIAN_POINT ( 'NONE',  ( 1.322171668412818718E-36, 2.439215551741518923E-19, 0.000000000000000000 ) ) ;
#24 = AXIS2_PLACEMENT_3D ( 'NONE', #94, #160, #188 ) ;
#25 = ORIENTED_EDGE ( 'NONE', *, *, #298, .F. ) ;
#26 = PRESENTATION_STYLE_ASSIGNMENT (( #47 ) ) ;
#27 = FILL_AREA_STYLE ('',( #286 ) ) ;
#28 = APPLICATION_CONTEXT ( 'automotive_design' ) ;
#29 = DIMENSIONAL_EXPONENTS ( 1.000000000000000000, 0.000000000000000000, 0.000000000000000000, 0.000000000000000000, 0.000000000000000000, 0.000000000000000000, 0.000000000000000000 ) ;
#30 = DIRECTION ( 'NONE',  ( -5.420479003870042992E-18, -1.000000000000000000, 0.000000000000000000 ) ) ;
#31 = SURFACE_STYLE_FILL_AREA ( #106 ) ;
#32 = DIRECTION ( 'NONE',  ( 5.420479003870042992E-18, 1.000000000000000000, 0.000000000000000000 ) ) ;
#33 = ORIENTED_EDGE ( 'NONE', *, *, #299, .T. ) ;
#34 = COLOUR_RGB ( '',0.7921568627450980005, 0.8196078431372548767, 0.9333333333333333481 ) ;
#35 = DIRECTION ( 'NONE',  ( 1.000000000000000000, -5.420479003870042222E-18, 0.000000000000000000 ) ) ;
#36 = LENGTH_MEASURE_WITH_UNIT ( LENGTH_MEASURE( 0.02539999999999999897 ), #276 );
#37 = PLANE ( 'NONE',  #51 ) ;
#38 = AXIS2_PLACEMENT_3D ( 'NONE', #131, #275, #35 ) ;
#39 = DIRECTION ( 'NONE',  ( -1.433778346674777440E-16, 1.000000000000000000, -0.000000000000000000 ) ) ;
#40 = ORIENTED_EDGE ( 'NONE', *, *, #271, .F. ) ;
#41 = VECTOR ( 'NONE', #116, 39.37007874015748854 ) ;
#42 = PRESENTATION_LAYER_ASSIGNMENT (  '', '', ( #274 ) ) ;
#43 = EDGE_CURVE ( 'NONE', #281, #88, #90, .T. ) ;
#44 =( LENGTH_UNIT ( ) NAMED_UNIT ( * ) SI_UNIT ( $, .METRE. ) );
#45 = UNCERTAINTY_MEASURE_WITH_UNIT (LENGTH_MEASURE( 1.000000000000000082E-05 ), #309, 'distance_accuracy_value', 'NONE');
#46 = VERTEX_POINT ( 'NONE', #17 ) ;
#47 = SURFACE_STYLE_USAGE ( .BOTH. , #124 ) ;
#48 = ORIENTED_EDGE ( 'NONE', *, *, #149, .T. ) ;
#49 = PRESENTATION_STYLE_ASSIGNMENT (( #52 ) ) ;
#50 =( NAMED_UNIT ( * ) SI_UNIT ( $, .STERADIAN. ) SOLID_ANGLE_UNIT ( ) );
#51 = AXIS2_PLACEMENT_3D ( 'NONE', #150, #30, #250 ) ;
#52 = SURFACE_STYLE_USAGE ( .BOTH. , #195 ) ;
#53 = DIRECTION ( 'NONE',  ( 1.000000000000000000, 0.000000000000000000, 0.000000000000000000 ) ) ;
#54 = FILL_AREA_STYLE ('',( #231 ) ) ;
#55 =( GEOMETRIC_REPRESENTATION_CONTEXT ( 3 ) GLOBAL_UNCERTAINTY_ASSIGNED_CONTEXT ( ( #45 ) ) GLOBAL_UNIT_ASSIGNED_CONTEXT ( ( #309, #220, #50 ) ) REPRESENTATION_CONTEXT ( 'NONE', 'WORKASPACE' ) );
#56 = CARTESIAN_POINT ( 'NONE',  ( -6.123233995736772199E-17, 3.000000000000000444, 0.000000000000000000 ) ) ;
#57 =( NAMED_UNIT ( * ) PLANE_ANGLE_UNIT ( ) SI_UNIT ( $, .RADIAN. ) );
#58 = COLOUR_RGB ( '',1.000000000000000000, 0.000000000000000000, 0.000000000000000000 ) ;
#59 = DIRECTION ( 'NONE',  ( 0.000000000000000000, 0.000000000000000000, 1.000000000000000000 ) ) ;
#60 =( NAMED_UNIT ( * ) PLANE_ANGLE_UNIT ( ) SI_UNIT ( $, .RADIAN. ) );
#61 = FILL_AREA_STYLE_COLOUR ( '', #178 ) ;
#62 = EDGE_CURVE ( 'NONE', #281, #202, #198, .T. ) ;
#63 = ORIENTED_EDGE ( 'NONE', *, *, #293, .T. ) ;
#64 = LINE ( 'NONE', #279, #41 ) ;
#65 = VERTEX_POINT ( 'NONE', #136 ) ;
#66 = FILL_AREA_STYLE ('',( #61 ) ) ;
#67 = LENGTH_MEASURE_WITH_UNIT ( LENGTH_MEASURE( 0.02539999999999999897 ), #257 );
#68 = DIRECTION ( 'NONE',  ( -5.420479003870042992E-18, -1.000000000000000000, -0.000000000000000000 ) ) ;
#69 = ORIENTED_EDGE ( 'NONE', *, *, #172, .T. ) ;
#70 = ORIENTED_EDGE ( 'NONE', *, *, #293, .F. ) ;
#71 = PRESENTATION_LAYER_ASSIGNMENT (  '', '', ( #208 ) ) ;
#72 = EDGE_CURVE ( 'NONE', #107, #191, #135, .T. ) ;
#73 = DIRECTION ( 'NONE',  ( 1.433778346674777440E-16, -1.000000000000000000, 0.000000000000000000 ) ) ;
#74 = AXIS2_PLACEMENT_3D ( 'NONE', #148, #128, #6 ) ;
#75 = PRODUCT_DEFINITION_FORMATION_WITH_SPECIFIED_SOURCE ( 'ANY', '', #145, .NOT_KNOWN. ) ;
#76 =( NAMED_UNIT ( * ) SI_UNIT ( $, .STERADIAN. ) SOLID_ANGLE_UNIT ( ) );
#77 = ORIENTED_EDGE ( 'NONE', *, *, #299, .F. ) ;
#78 = CARTESIAN_POINT ( 'NONE',  ( -6.123233995736770966E-17, 3.000000000000000444, 0.000000000000000000 ) ) ;
#79 =( CONVERSION_BASED_UNIT ( 'INCH', #36 ) LENGTH_UNIT ( ) NAMED_UNIT ( #127 ) );
#80 = AXIS2_PLACEMENT_3D ( 'NONE', #269, #190, #144 ) ;
#81 = PRESENTATION_STYLE_ASSIGNMENT (( #11 ) ) ;
#82 = EDGE_LOOP ( 'NONE', ( #265, #40, #48, #95 ) ) ;
#83 = CIRCLE ( 'NONE', #302, 0.3124999999999996669 ) ;
#84 = FILL_AREA_STYLE_COLOUR ( '', #34 ) ;
#85 = ORIENTED_EDGE ( 'NONE', *, *, #62, .T. ) ;
#86 = APPLICATION_PROTOCOL_DEFINITION ( 'draft international standard', 'automotive_design', 1998, #28 ) ;
#87 = CARTESIAN_POINT ( 'NONE',  ( 3.305475932715153396E-16, 0.2674999999999990163, 0.000000000000000000 ) ) ;
#88 = VERTEX_POINT ( 'NONE', #158 ) ;
#89 = DIRECTION ( 'NONE',  ( -1.433778346674777440E-16, 1.000000000000000000, -0.000000000000000000 ) ) ;
#90 = LINE ( 'NONE', #304, #119 ) ;
#91 = EDGE_CURVE ( 'NONE', #107, #46, #155, .T. ) ;
#92 = CIRCLE ( 'NONE', #38, 0.04499999999999999833 ) ;
#93 =( CONVERSION_BASED_UNIT ( 'INCH', #67 ) LENGTH_UNIT ( ) NAMED_UNIT ( #205 ) );
#94 = CARTESIAN_POINT ( 'NONE',  ( 1.322171668412818718E-36, 2.439215551741518923E-19, 0.000000000000000000 ) ) ;
#95 = ORIENTED_EDGE ( 'NONE', *, *, #289, .T. ) ;
#96 = AXIS2_PLACEMENT_3D ( 'NONE', #23, #68, #213 ) ;
#97 = FILL_AREA_STYLE_COLOUR ( '', #180 ) ;
#98 = FACE_OUTER_BOUND ( 'NONE', #8, .T. ) ;
#99 = DIMENSIONAL_EXPONENTS ( 1.000000000000000000, 0.000000000000000000, 0.000000000000000000, 0.000000000000000000, 0.000000000000000000, 0.000000000000000000, 0.000000000000000000 ) ;
#100 = CLOSED_SHELL ( 'NONE', ( #12, #234, #196, #256 ) ) ;
#101 = FACE_OUTER_BOUND ( 'NONE', #137, .T. ) ;
#102 = ORIENTED_EDGE ( 'NONE', *, *, #271, .T. ) ;
#103 = CIRCLE ( 'NONE', #230, 0.3125000000000000555 ) ;
#104 = MANIFOLD_SOLID_BREP ( 'Revolve - Tool Body (Tipped Off)', #14 ) ;
#105 = CARTESIAN_POINT ( 'NONE',  ( 3.305475932715153396E-16, 0.2674999999999992384, 0.000000000000000000 ) ) ;
#106 = FILL_AREA_STYLE ('',( #248 ) ) ;
#107 = VERTEX_POINT ( 'NONE', #181 ) ;
#108 =( GEOMETRIC_REPRESENTATION_CONTEXT ( 3 ) GLOBAL_UNCERTAINTY_ASSIGNED_CONTEXT ( ( #222 ) ) GLOBAL_UNIT_ASSIGNED_CONTEXT ( ( #278, #60, #210 ) ) REPRESENTATION_CONTEXT ( 'NONE', 'WORKASPACE' ) );
#109 = UNCERTAINTY_MEASURE_WITH_UNIT (LENGTH_MEASURE( 1.000000000000000082E-05 ), #9, 'distance_accuracy_value', 'NONE');
#110 = CYLINDRICAL_SURFACE ( 'NONE', #170, 0.3124999999999998890 ) ;
#111 = SURFACE_STYLE_USAGE ( .BOTH. , #163 ) ;
#112 = AXIS2_PLACEMENT_3D ( 'NONE', #56, #252, #175 ) ;
#113 = LENGTH_MEASURE_WITH_UNIT ( LENGTH_MEASURE( 0.02539999999999999897 ), #235 );
#114 = SURFACE_STYLE_FILL_AREA ( #66 ) ;
#115 = ORIENTED_EDGE ( 'NONE', *, *, #43, .T. ) ;
#116 = DIRECTION ( 'NONE',  ( -0.7071067811865486830, 0.7071067811865462405, 0.000000000000000000 ) ) ;
#117 = SURFACE_SIDE_STYLE ('',( #233 ) ) ;
#118 = CARTESIAN_POINT ( 'NONE',  ( 0.3125000000000000000, 3.000000000000000444, 0.000000000000000000 ) ) ;
#119 = VECTOR ( 'NONE', #39, 39.37007874015748143 ) ;
#120 = FILL_AREA_STYLE ('',( #97 ) ) ;
#121 = CARTESIAN_POINT ( 'NONE',  ( 0.3125000000000000000, 0.2674999999999990719, 3.827021247335478926E-17 ) ) ;
#122 = PRODUCT_DEFINITION_CONTEXT ( 'detailed design', #287, 'design' ) ;
#123 = PRESENTATION_LAYER_ASSIGNMENT (  '', '', ( #260 ) ) ;
#124 = SURFACE_SIDE_STYLE ('',( #167 ) ) ;
#125 = ADVANCED_FACE ( 'NONE', ( #258 ), #280, .F. ) ;
#126 = CARTESIAN_POINT ( 'NONE',  ( -0.3124999999999993339, 0.2674999999999992384, 0.000000000000000000 ) ) ;
#127 = DIMENSIONAL_EXPONENTS ( 1.000000000000000000, 0.000000000000000000, 0.000000000000000000, 0.000000000000000000, 0.000000000000000000, 0.000000000000000000, 0.000000000000000000 ) ;
#128 = DIRECTION ( 'NONE',  ( -5.420479003870042992E-18, -1.000000000000000000, -0.000000000000000000 ) ) ;
#129 = CARTESIAN_POINT ( 'NONE',  ( 1.449978133535231439E-18, 0.2674999999999990719, 0.000000000000000000 ) ) ;
#130 = ORIENTED_EDGE ( 'NONE', *, *, #91, .T. ) ;
#131 = CARTESIAN_POINT ( 'NONE',  ( 1.322171668412818718E-36, 2.439215551741518923E-19, 0.000000000000000000 ) ) ;
#132 = CYLINDRICAL_SURFACE ( 'NONE', #112, 0.3124999999999998890 ) ;
#133 = VECTOR ( 'NONE', #239, 39.37007874015748854 ) ;
#134 =( GEOMETRIC_REPRESENTATION_CONTEXT ( 3 ) GLOBAL_UNCERTAINTY_ASSIGNED_CONTEXT ( ( #296 ) ) GLOBAL_UNIT_ASSIGNED_CONTEXT ( ( #93, #211, #255 ) ) REPRESENTATION_CONTEXT ( 'NONE', 'WORKASPACE' ) );
#135 = LINE ( 'NONE', #165, #133 ) ;
#136 = CARTESIAN_POINT ( 'NONE',  ( -0.3125000000000001665, 3.000000000000000444, 0.000000000000000000 ) ) ;
#137 = EDGE_LOOP ( 'NONE', ( #169, #115, #147, #300 ) ) ;
#138 = DIRECTION ( 'NONE',  ( -1.433778346674777440E-16, 1.000000000000000000, -0.000000000000000000 ) ) ;
#139 = DIRECTION ( 'NONE',  ( -1.000000000000000000, 0.000000000000000000, 0.000000000000000000 ) ) ;
#140 = LENGTH_MEASURE_WITH_UNIT ( LENGTH_MEASURE( 0.02539999999999999897 ), #10 );
#141 = MECHANICAL_DESIGN_GEOMETRIC_PRESENTATION_REPRESENTATION (  '', ( #283 ), #290 ) ;
#142 =( LENGTH_UNIT ( ) NAMED_UNIT ( * ) SI_UNIT ( $, .METRE. ) );
#143 = ORIENTED_EDGE ( 'NONE', *, *, #266, .T. ) ;
#144 = DIRECTION ( 'NONE',  ( -1.000000000000000000, 5.420479003870042222E-18, 0.000000000000000000 ) ) ;
#145 = PRODUCT ( '59823', '59823', '', ( #159 ) ) ;
#146 = DIRECTION ( 'NONE',  ( 1.000000000000000000, 1.433778346674777440E-16, 0.000000000000000000 ) ) ;
#147 = ORIENTED_EDGE ( 'NONE', *, *, #266, .F. ) ;
#148 = CARTESIAN_POINT ( 'NONE',  ( 1.449978133535231439E-18, 0.2674999999999990719, 0.000000000000000000 ) ) ;
#149 = EDGE_CURVE ( 'NONE', #46, #166, #64, .T. ) ;
#150 = CARTESIAN_POINT ( 'NONE',  ( 6.610858342064093588E-37, 1.219607775870759461E-19, 0.000000000000000000 ) ) ;
#151 =( NAMED_UNIT ( * ) PLANE_ANGLE_UNIT ( ) SI_UNIT ( $, .RADIAN. ) );
#152 = DIMENSIONAL_EXPONENTS ( 1.000000000000000000, 0.000000000000000000, 0.000000000000000000, 0.000000000000000000, 0.000000000000000000, 0.000000000000000000, 0.000000000000000000 ) ;
#153 = ADVANCED_FACE ( 'NONE', ( #212 ), #240, .F. ) ;
#154 = FACE_OUTER_BOUND ( 'NONE', #192, .T. ) ;
#155 = CIRCLE ( 'NONE', #96, 0.04499999999999999833 ) ;
#156 = DIRECTION ( 'NONE',  ( 1.000000000000000000, 0.000000000000000000, 0.000000000000000000 ) ) ;
#157 = APPLICATION_PROTOCOL_DEFINITION ( 'draft international standard', 'automotive_design', 1998, #287 ) ;
#158 = CARTESIAN_POINT ( 'NONE',  ( 0.3125000000000000000, 3.000000000000000444, 3.827021247335478926E-17 ) ) ;
#159 = PRODUCT_CONTEXT ( 'NONE', #28, 'mechanical' ) ;
#160 = DIRECTION ( 'NONE',  ( 5.420479003870042992E-18, 1.000000000000000000, 0.000000000000000000 ) ) ;
#161 = AXIS2_PLACEMENT_3D ( 'NONE', #204, #32, #297 ) ;
#162 = DIRECTION ( 'NONE',  ( -1.000000000000000000, 0.000000000000000000, 0.000000000000000000 ) ) ;
#163 = SURFACE_SIDE_STYLE ('',( #114 ) ) ;
#164 = PRODUCT_DEFINITION ( 'UNKNOWN', '', #75, #122 ) ;
#165 = CARTESIAN_POINT ( 'NONE',  ( 0.04499999999999999833, 0.000000000000000000, 5.510910596163089556E-18 ) ) ;
#166 = VERTEX_POINT ( 'NONE', #246 ) ;
#167 = SURFACE_STYLE_FILL_AREA ( #27 ) ;
#168 = AXIS2_PLACEMENT_3D ( 'NONE', #78, #295, #162 ) ;
#169 = ORIENTED_EDGE ( 'NONE', *, *, #298, .T. ) ;
#170 = AXIS2_PLACEMENT_3D ( 'NONE', #209, #89, #139 ) ;
#171 = CARTESIAN_POINT ( 'NONE',  ( -0.3124999999999999445, 3.000000000000000444, 0.000000000000000000 ) ) ;
#172 = EDGE_CURVE ( 'NONE', #202, #65, #247, .T. ) ;
#173 = DIRECTION ( 'NONE',  ( -1.000000000000000000, 0.000000000000000000, 0.000000000000000000 ) ) ;
#174 = SURFACE_STYLE_USAGE ( .BOTH. , #200 ) ;
#175 = DIRECTION ( 'NONE',  ( -1.000000000000000000, 0.000000000000000000, 0.000000000000000000 ) ) ;
#176 = FACE_OUTER_BOUND ( 'NONE', #262, .T. ) ;
#177 = COLOUR_RGB ( '',1.000000000000000000, 0.000000000000000000, 0.000000000000000000 ) ;
#178 = COLOUR_RGB ( '',0.7921568627450980005, 0.8196078431372548767, 0.9333333333333333481 ) ;
#179 = LENGTH_MEASURE_WITH_UNIT ( LENGTH_MEASURE( 0.02539999999999999897 ), #44 );
#180 = COLOUR_RGB ( '',1.000000000000000000, 0.000000000000000000, 0.000000000000000000 ) ;
#181 = CARTESIAN_POINT ( 'NONE',  ( 0.04499999999999999833, 0.000000000000000000, 2.189056153475893941E-17 ) ) ;
#182 = ORIENTED_EDGE ( 'NONE', *, *, #149, .F. ) ;
#183 = FILL_AREA_STYLE ('',( #84 ) ) ;
#184 = DIRECTION ( 'NONE',  ( -1.433778346674777440E-16, 1.000000000000000000, 0.000000000000000000 ) ) ;
#185 = ORIENTED_EDGE ( 'NONE', *, *, #62, .F. ) ;
#186 = SHAPE_DEFINITION_REPRESENTATION ( #242, #238 ) ;
#187 = CARTESIAN_POINT ( 'NONE',  ( 3.305475932715153396E-16, 0.2674999999999992384, 0.000000000000000000 ) ) ;
#188 = DIRECTION ( 'NONE',  ( -1.000000000000000000, 5.420479003870042222E-18, 0.000000000000000000 ) ) ;
#189 = ORIENTED_EDGE ( 'NONE', *, *, #91, .F. ) ;
#190 = DIRECTION ( 'NONE',  ( 5.420479003870042992E-18, 1.000000000000000000, 0.000000000000000000 ) ) ;
#191 = VERTEX_POINT ( 'NONE', #121 ) ;
#192 = EDGE_LOOP ( 'NONE', ( #102, #130 ) ) ;
#193 = COLOUR_RGB ( '',1.000000000000000000, 0.000000000000000000, 0.000000000000000000 ) ;
#194 =( LENGTH_UNIT ( ) NAMED_UNIT ( * ) SI_UNIT ( $, .METRE. ) );
#195 = SURFACE_SIDE_STYLE ('',( #268 ) ) ;
#196 = ADVANCED_FACE ( 'NONE', ( #223 ), #237, .T. ) ;
#197 = AXIS2_PLACEMENT_3D ( 'NONE', #187, #138, #285 ) ;
#198 = CIRCLE ( 'NONE', #197, 0.3124999999999996669 ) ;
#199 = DIRECTION ( 'NONE',  ( -1.000000000000000000, -1.092739197465706397E-16, 0.000000000000000000 ) ) ;
#200 = SURFACE_SIDE_STYLE ('',( #31 ) ) ;
#201 = LENGTH_MEASURE_WITH_UNIT ( LENGTH_MEASURE( 0.02539999999999999897 ), #194 );
#202 = VERTEX_POINT ( 'NONE', #126 ) ;
#203 = MECHANICAL_DESIGN_GEOMETRIC_PRESENTATION_REPRESENTATION (  '', ( #274 ), #108 ) ;
#204 = CARTESIAN_POINT ( 'NONE',  ( 1.449978133535231054E-18, 0.2674999999999990719, 0.000000000000000000 ) ) ;
#205 = DIMENSIONAL_EXPONENTS ( 1.000000000000000000, 0.000000000000000000, 0.000000000000000000, 0.000000000000000000, 0.000000000000000000, 0.000000000000000000, 0.000000000000000000 ) ;
#206 = PRESENTATION_STYLE_ASSIGNMENT (( #111 ) ) ;
#207 = PRESENTATION_STYLE_ASSIGNMENT (( #282 ) ) ;
#208 = STYLED_ITEM ( 'NONE', ( #207 ), #303 ) ;
#209 = CARTESIAN_POINT ( 'NONE',  ( -6.123233995736772199E-17, 3.000000000000000444, 0.000000000000000000 ) ) ;
#210 =( NAMED_UNIT ( * ) SI_UNIT ( $, .STERADIAN. ) SOLID_ANGLE_UNIT ( ) );
#211 =( NAMED_UNIT ( * ) PLANE_ANGLE_UNIT ( ) SI_UNIT ( $, .RADIAN. ) );
#212 = FACE_OUTER_BOUND ( 'NONE', #292, .T. ) ;
#213 = DIRECTION ( 'NONE',  ( 1.000000000000000000, -5.420479003870042222E-18, 0.000000000000000000 ) ) ;
#214 = AXIS2_PLACEMENT_3D ( 'NONE', #129, #229, #53 ) ;
#215 = AXIS2_PLACEMENT_3D ( 'NONE', #16, #59, #156 ) ;
#216 = MECHANICAL_DESIGN_GEOMETRIC_PRESENTATION_REPRESENTATION (  '', ( #301 ), #3 ) ;
#217 = DIRECTION ( 'NONE',  ( -1.433778346674777440E-16, 1.000000000000000000, -0.000000000000000000 ) ) ;
#218 = UNCERTAINTY_MEASURE_WITH_UNIT (LENGTH_MEASURE( 1.000000000000000082E-05 ), #263, 'distance_accuracy_value', 'NONE');
#219 = EDGE_LOOP ( 'NONE', ( #25, #185 ) ) ;
#220 =( NAMED_UNIT ( * ) PLANE_ANGLE_UNIT ( ) SI_UNIT ( $, .RADIAN. ) );
#221 = PRESENTATION_LAYER_ASSIGNMENT (  '', '', ( #305 ) ) ;
#222 = UNCERTAINTY_MEASURE_WITH_UNIT (LENGTH_MEASURE( 1.000000000000000082E-05 ), #278, 'distance_accuracy_value', 'NONE');
#223 = FACE_OUTER_BOUND ( 'NONE', #82, .T. ) ;
#224 = CARTESIAN_POINT ( 'NONE',  ( -6.123233995736770966E-17, 3.000000000000000444, 0.000000000000000000 ) ) ;
#225 = DIMENSIONAL_EXPONENTS ( 1.000000000000000000, 0.000000000000000000, 0.000000000000000000, 0.000000000000000000, 0.000000000000000000, 0.000000000000000000, 0.000000000000000000 ) ;
#226 = MECHANICAL_DESIGN_GEOMETRIC_PRESENTATION_REPRESENTATION (  '', ( #305 ), #55 ) ;
#227 = DIRECTION ( 'NONE',  ( -1.433778346674777440E-16, 1.000000000000000000, -0.000000000000000000 ) ) ;
#228 = PRESENTATION_STYLE_ASSIGNMENT (( #174 ) ) ;
#229 = DIRECTION ( 'NONE',  ( -5.420479003870042992E-18, -1.000000000000000000, -0.000000000000000000 ) ) ;
#230 = AXIS2_PLACEMENT_3D ( 'NONE', #224, #2, #173 ) ;
#231 = FILL_AREA_STYLE_COLOUR ( '', #58 ) ;
#232 = PRODUCT_RELATED_PRODUCT_CATEGORY ( 'part', '', ( #145 ) ) ;
#233 = SURFACE_STYLE_FILL_AREA ( #183 ) ;
#234 = ADVANCED_FACE ( 'NONE', ( #98 ), #244, .T. ) ;
#235 =( LENGTH_UNIT ( ) NAMED_UNIT ( * ) SI_UNIT ( $, .METRE. ) );
#236 =( CONVERSION_BASED_UNIT ( 'INCH', #140 ) LENGTH_UNIT ( ) NAMED_UNIT ( #1 ) );
#237 = CONICAL_SURFACE ( 'NONE', #80, 0.04499999999999999833, 0.7853981633974500554 ) ;
#238 = ADVANCED_BREP_SHAPE_REPRESENTATION ( '59823', ( #303, #104, #215 ), #134 ) ;
#239 = DIRECTION ( 'NONE',  ( 0.7071067811865486830, 0.7071067811865462405, 8.659560562354947649E-17 ) ) ;
#240 = PLANE ( 'NONE',  #22 ) ;
#241 = PRESENTATION_LAYER_ASSIGNMENT (  '', '', ( #283 ) ) ;
#242 = PRODUCT_DEFINITION_SHAPE ( 'NONE', 'NONE',  #164 ) ;
#243 = ADVANCED_FACE ( 'NONE', ( #101 ), #132, .T. ) ;
#244 = PLANE ( 'NONE',  #161 ) ;
#245 =( GEOMETRIC_REPRESENTATION_CONTEXT ( 3 ) GLOBAL_UNCERTAINTY_ASSIGNED_CONTEXT ( ( #109 ) ) GLOBAL_UNIT_ASSIGNED_CONTEXT ( ( #9, #151, #253 ) ) REPRESENTATION_CONTEXT ( 'NONE', 'WORKASPACE' ) );
#246 = CARTESIAN_POINT ( 'NONE',  ( -0.3125000000000000000, 0.2674999999999990719, 0.000000000000000000 ) ) ;
#247 = LINE ( 'NONE', #171, #254 ) ;
#248 = FILL_AREA_STYLE_COLOUR ( '', #177 ) ;
#249 = SURFACE_SIDE_STYLE ('',( #294 ) ) ;
#250 = DIRECTION ( 'NONE',  ( 1.000000000000000000, -5.420479003870042992E-18, 0.000000000000000000 ) ) ;
#251 = ORIENTED_EDGE ( 'NONE', *, *, #289, .F. ) ;
#252 = DIRECTION ( 'NONE',  ( -1.433778346674777440E-16, 1.000000000000000000, -0.000000000000000000 ) ) ;
#253 =( NAMED_UNIT ( * ) SI_UNIT ( $, .STERADIAN. ) SOLID_ANGLE_UNIT ( ) );
#254 = VECTOR ( 'NONE', #217, 39.37007874015748143 ) ;
#255 =( NAMED_UNIT ( * ) SI_UNIT ( $, .STERADIAN. ) SOLID_ANGLE_UNIT ( ) );
#256 = ADVANCED_FACE ( 'NONE', ( #154 ), #37, .T. ) ;
#257 =( LENGTH_UNIT ( ) NAMED_UNIT ( * ) SI_UNIT ( $, .METRE. ) );
#258 = FACE_OUTER_BOUND ( 'NONE', #219, .T. ) ;
#259 = EDGE_LOOP ( 'NONE', ( #308, #85, #69, #77 ) ) ;
#260 = STYLED_ITEM ( 'NONE', ( #26 ), #234 ) ;
#261 =( NAMED_UNIT ( * ) SI_UNIT ( $, .STERADIAN. ) SOLID_ANGLE_UNIT ( ) );
#262 = EDGE_LOOP ( 'NONE', ( #189, #18, #63, #182 ) ) ;
#263 =( CONVERSION_BASED_UNIT ( 'INCH', #113 ) LENGTH_UNIT ( ) NAMED_UNIT ( #225 ) );
#264 =( NAMED_UNIT ( * ) PLANE_ANGLE_UNIT ( ) SI_UNIT ( $, .RADIAN. ) );
#265 = ORIENTED_EDGE ( 'NONE', *, *, #72, .F. ) ;
#266 = EDGE_CURVE ( 'NONE', #65, #88, #103, .T. ) ;
#267 = CIRCLE ( 'NONE', #168, 0.3125000000000000555 ) ;
#268 = SURFACE_STYLE_FILL_AREA ( #120 ) ;
#269 = CARTESIAN_POINT ( 'NONE',  ( 1.322171668412818718E-36, 2.439215551741518923E-19, 0.000000000000000000 ) ) ;
#270 = CIRCLE ( 'NONE', #214, 0.3125000000000000000 ) ;
#271 = EDGE_CURVE ( 'NONE', #46, #107, #92, .T. ) ;
#272 = LENGTH_MEASURE_WITH_UNIT ( LENGTH_MEASURE( 0.02539999999999999897 ), #142 );
#273 = CARTESIAN_POINT ( 'NONE',  ( 0.3125000000000000000, 0.2674999999999992939, 3.827021247335478926E-17 ) ) ;
#274 = STYLED_ITEM ( 'NONE', ( #206 ), #104 ) ;
#275 = DIRECTION ( 'NONE',  ( -5.420479003870042992E-18, -1.000000000000000000, -0.000000000000000000 ) ) ;
#276 =( LENGTH_UNIT ( ) NAMED_UNIT ( * ) SI_UNIT ( $, .METRE. ) );
#277 = MECHANICAL_DESIGN_GEOMETRIC_PRESENTATION_REPRESENTATION (  '', ( #260 ), #245 ) ;
#278 =( CONVERSION_BASED_UNIT ( 'INCH', #179 ) LENGTH_UNIT ( ) NAMED_UNIT ( #29 ) );
#279 = CARTESIAN_POINT ( 'NONE',  ( -0.04499999999999999833, 4.878431103483037846E-19, 0.000000000000000000 ) ) ;
#280 = PLANE ( 'NONE',  #15 ) ;
#281 = VERTEX_POINT ( 'NONE', #273 ) ;
#282 = SURFACE_STYLE_USAGE ( .BOTH. , #117 ) ;
#283 = STYLED_ITEM ( 'NONE', ( #81 ), #256 ) ;
#284 =( NAMED_UNIT ( * ) SI_UNIT ( $, .STERADIAN. ) SOLID_ANGLE_UNIT ( ) );
#285 = DIRECTION ( 'NONE',  ( -1.000000000000000000, -1.092739197465706397E-16, 0.000000000000000000 ) ) ;
#286 = FILL_AREA_STYLE_COLOUR ( '', #193 ) ;
#287 = APPLICATION_CONTEXT ( 'automotive_design' ) ;
#288 = MECHANICAL_DESIGN_GEOMETRIC_PRESENTATION_REPRESENTATION (  '', ( #208 ), #306 ) ;
#289 = EDGE_CURVE ( 'NONE', #166, #191, #270, .T. ) ;
#290 =( GEOMETRIC_REPRESENTATION_CONTEXT ( 3 ) GLOBAL_UNCERTAINTY_ASSIGNED_CONTEXT ( ( #20 ) ) GLOBAL_UNIT_ASSIGNED_CONTEXT ( ( #79, #57, #76 ) ) REPRESENTATION_CONTEXT ( 'NONE', 'WORKASPACE' ) );
#291 = CONICAL_SURFACE ( 'NONE', #24, 0.04499999999999999833, 0.7853981633974500554 ) ;
#292 = EDGE_LOOP ( 'NONE', ( #143, #33 ) ) ;
#293 = EDGE_CURVE ( 'NONE', #191, #166, #4, .T. ) ;
#294 = SURFACE_STYLE_FILL_AREA ( #54 ) ;
#295 = DIRECTION ( 'NONE',  ( -1.433778346674777440E-16, 1.000000000000000000, -0.000000000000000000 ) ) ;
#296 = UNCERTAINTY_MEASURE_WITH_UNIT (LENGTH_MEASURE( 1.000000000000000082E-05 ), #93, 'distance_accuracy_value', 'NONE');
#297 = DIRECTION ( 'NONE',  ( -1.000000000000000000, 5.420479003870042992E-18, 0.000000000000000000 ) ) ;
#298 = EDGE_CURVE ( 'NONE', #202, #281, #83, .T. ) ;
#299 = EDGE_CURVE ( 'NONE', #88, #65, #267, .T. ) ;
#300 = ORIENTED_EDGE ( 'NONE', *, *, #172, .F. ) ;
#301 = STYLED_ITEM ( 'NONE', ( #228 ), #12 ) ;
#302 = AXIS2_PLACEMENT_3D ( 'NONE', #105, #227, #199 ) ;
#303 = MANIFOLD_SOLID_BREP ( 'Revolve - Cutting Edge', #100 ) ;
#304 = CARTESIAN_POINT ( 'NONE',  ( 0.3124999999999998335, 3.000000000000000444, 3.827021247335477078E-17 ) ) ;
#305 = STYLED_ITEM ( 'NONE', ( #49 ), #196 ) ;
#306 =( GEOMETRIC_REPRESENTATION_CONTEXT ( 3 ) GLOBAL_UNCERTAINTY_ASSIGNED_CONTEXT ( ( #218 ) ) GLOBAL_UNIT_ASSIGNED_CONTEXT ( ( #263, #19, #284 ) ) REPRESENTATION_CONTEXT ( 'NONE', 'WORKASPACE' ) );
#307 = ADVANCED_FACE ( 'NONE', ( #21 ), #110, .T. ) ;
#308 = ORIENTED_EDGE ( 'NONE', *, *, #43, .F. ) ;
#309 =( CONVERSION_BASED_UNIT ( 'INCH', #272 ) LENGTH_UNIT ( ) NAMED_UNIT ( #152 ) );
ENDSEC;
END-ISO-10303-21;
