ISO-10303-21;
HEADER;
FILE_DESCRIPTION (( 'STEP AP214' ),
    '1' );
FILE_NAME ('Micro_GEM-750-4X.STEP',
    '2021-09-01T21:06:26',
    ( '' ),
    ( '' ),
    'SwSTEP 2.0',
    'SolidWorks 2020',
    '' );
FILE_SCHEMA (( 'AUTOMOTIVE_DESIGN' ));
ENDSEC;

DATA;
#1 =( NAMED_UNIT ( * ) SI_UNIT ( $, .STERADIAN. ) SOLID_ANGLE_UNIT ( ) );
#2 = DIRECTION ( 'NONE',  ( -1.224646799147353207E-16, -0.0000000000000000000, -1.000000000000000000 ) ) ;
#3 = EDGE_LOOP ( 'NONE', ( #236, #136 ) ) ;
#4 =( LENGTH_UNIT ( ) NAMED_UNIT ( * ) SI_UNIT ( $, .METRE. ) );
#5 = DIRECTION ( 'NONE',  ( -1.224646799147353207E-16, -0.0000000000000000000, -1.000000000000000000 ) ) ;
#6 = EDGE_CURVE ( 'NONE', #96, #22, #221, .T. ) ;
#7 = CARTESIAN_POINT ( 'NONE',  ( 0.0000000000000000000, 0.0000000000000000000, 4.000000000000000000 ) ) ;
#8 = SURFACE_SIDE_STYLE ('',( #78 ) ) ;
#9 = CARTESIAN_POINT ( 'NONE',  ( 0.0000000000000000000, 0.0000000000000000000, 3.984999999999998987 ) ) ;
#10 = CARTESIAN_POINT ( 'NONE',  ( -0.3749999999999998335, 0.0000000000000000000, 1.502126730682356914 ) ) ;
#11 = DIMENSIONAL_EXPONENTS ( 1.000000000000000000, 0.0000000000000000000, 0.0000000000000000000, 0.0000000000000000000, 0.0000000000000000000, 0.0000000000000000000, 0.0000000000000000000 ) ;
#12 = DIRECTION ( 'NONE',  ( -0.1736481776669312194, 2.126576849575783625E-17, 0.9848077530122080203 ) ) ;
#13 = ADVANCED_FACE ( 'NONE', ( #93 ), #202, .T. ) ;
#14 = DIRECTION ( 'NONE',  ( 0.0000000000000000000, 0.0000000000000000000, -1.000000000000000000 ) ) ;
#15 = DIRECTION ( 'NONE',  ( -1.000000000000000000, 0.0000000000000000000, 0.0000000000000000000 ) ) ;
#16 = AXIS2_PLACEMENT_3D ( 'NONE', #264, #244, #224 ) ;
#17 =( NAMED_UNIT ( * ) PLANE_ANGLE_UNIT ( ) SI_UNIT ( $, .RADIAN. ) );
#18 = EDGE_CURVE ( 'NONE', #188, #22, #70, .T. ) ;
#19 = DIRECTION ( 'NONE',  ( 1.000000000000000000, 0.0000000000000000000, 0.0000000000000000000 ) ) ;
#20 = ORIENTED_EDGE ( 'NONE', *, *, #250, .T. ) ;
#21 = CIRCLE ( 'NONE', #34, 0.3746250000000000413 ) ;
#22 = VERTEX_POINT ( 'NONE', #255 ) ;
#23 = ORIENTED_EDGE ( 'NONE', *, *, #268, .T. ) ;
#24 = VECTOR ( 'NONE', #5, 39.37007874015748143 ) ;
#25 = EDGE_LOOP ( 'NONE', ( #52, #132, #215, #214 ) ) ;
#26 = DIRECTION ( 'NONE',  ( -1.000000000000000000, 0.0000000000000000000, 1.224646799147352961E-16 ) ) ;
#27 = CARTESIAN_POINT ( 'NONE',  ( 0.0000000000000000000, 0.0000000000000000000, 4.000000000000000000 ) ) ;
#28 = ADVANCED_FACE ( 'NONE', ( #192 ), #283, .T. ) ;
#29 = CYLINDRICAL_SURFACE ( 'NONE', #176, 0.3750000000000000555 ) ;
#30 = AXIS2_PLACEMENT_3D ( 'NONE', #9, #195, #85 ) ;
#31 = CARTESIAN_POINT ( 'NONE',  ( -0.3750000000000000555, 0.0000000000000000000, 3.984999999999998987 ) ) ;
#32 = PRESENTATION_STYLE_ASSIGNMENT (( #198 ) ) ;
#33 = DIRECTION ( 'NONE',  ( -0.0000000000000000000, -0.0000000000000000000, -1.000000000000000000 ) ) ;
#34 = AXIS2_PLACEMENT_3D ( 'NONE', #66, #42, #184 ) ;
#35 = CARTESIAN_POINT ( 'NONE',  ( 0.0000000000000000000, 0.0000000000000000000, 4.000000000000000000 ) ) ;
#36 = DIRECTION ( 'NONE',  ( 1.224646799147353207E-16, 0.0000000000000000000, 1.000000000000000000 ) ) ;
#37 = ORIENTED_EDGE ( 'NONE', *, *, #92, .T. ) ;
#38 = ADVANCED_FACE ( 'NONE', ( #119 ), #168, .T. ) ;
#39 = FACE_OUTER_BOUND ( 'NONE', #3, .T. ) ;
#40 = VECTOR ( 'NONE', #33, 39.37007874015748143 ) ;
#41 = CARTESIAN_POINT ( 'NONE',  ( 0.0000000000000000000, 0.0000000000000000000, 0.0000000000000000000 ) ) ;
#42 = DIRECTION ( 'NONE',  ( -1.224646799147353207E-16, -0.0000000000000000000, -1.000000000000000000 ) ) ;
#43 = CARTESIAN_POINT ( 'NONE',  ( 0.0000000000000000000, 0.0000000000000000000, 4.000000000000000000 ) ) ;
#44 = EDGE_CURVE ( 'NONE', #68, #144, #287, .T. ) ;
#45 = AXIS2_PLACEMENT_3D ( 'NONE', #43, #205, #230 ) ;
#46 =( NAMED_UNIT ( * ) PLANE_ANGLE_UNIT ( ) SI_UNIT ( $, .RADIAN. ) );
#47 = ORIENTED_EDGE ( 'NONE', *, *, #97, .T. ) ;
#48 = LENGTH_MEASURE_WITH_UNIT ( LENGTH_MEASURE( 0.02539999999999999897 ), #4 );
#49 = ORIENTED_EDGE ( 'NONE', *, *, #164, .T. ) ;
#50 = EDGE_CURVE ( 'NONE', #271, #72, #219, .T. ) ;
#51 = CARTESIAN_POINT ( 'NONE',  ( 0.0000000000000000000, 0.0000000000000000000, 0.0000000000000000000 ) ) ;
#52 = ORIENTED_EDGE ( 'NONE', *, *, #164, .F. ) ;
#53 = AXIS2_PLACEMENT_3D ( 'NONE', #35, #101, #243 ) ;
#54 = ORIENTED_EDGE ( 'NONE', *, *, #18, .F. ) ;
#55 = ORIENTED_EDGE ( 'NONE', *, *, #179, .T. ) ;
#56 = DIMENSIONAL_EXPONENTS ( 1.000000000000000000, 0.0000000000000000000, 0.0000000000000000000, 0.0000000000000000000, 0.0000000000000000000, 0.0000000000000000000, 0.0000000000000000000 ) ;
#57 = CARTESIAN_POINT ( 'NONE',  ( 1.839574692643826673E-16, 0.0000000000000000000, 1.502126730682356914 ) ) ;
#58 =( NAMED_UNIT ( * ) PLANE_ANGLE_UNIT ( ) SI_UNIT ( $, .RADIAN. ) );
#59 = VECTOR ( 'NONE', #148, 39.37007874015748143 ) ;
#60 = FACE_OUTER_BOUND ( 'NONE', #234, .T. ) ;
#61 = FILL_AREA_STYLE_COLOUR ( '', #153 ) ;
#62 = CARTESIAN_POINT ( 'NONE',  ( -0.3599999999999994316, 0.0000000000000000000, 4.000000000000000000 ) ) ;
#63 = PRESENTATION_LAYER_ASSIGNMENT (  '', '', ( #138 ) ) ;
#64 = PLANE ( 'NONE',  #88 ) ;
#65 = MECHANICAL_DESIGN_GEOMETRIC_PRESENTATION_REPRESENTATION (  '', ( #138 ), #270 ) ;
#66 = CARTESIAN_POINT ( 'NONE',  ( 1.836970198721030181E-16, 0.0000000000000000000, 1.500000000000000222 ) ) ;
#67 = DIRECTION ( 'NONE',  ( -0.0000000000000000000, -0.0000000000000000000, -1.000000000000000000 ) ) ;
#68 = VERTEX_POINT ( 'NONE', #289 ) ;
#69 = PRODUCT_CONTEXT ( 'NONE', #286, 'mechanical' ) ;
#70 = LINE ( 'NONE', #277, #24 ) ;
#71 = ORIENTED_EDGE ( 'NONE', *, *, #131, .F. ) ;
#72 = VERTEX_POINT ( 'NONE', #10 ) ;
#73 = VECTOR ( 'NONE', #67, 39.37007874015748143 ) ;
#74 = DIRECTION ( 'NONE',  ( -0.0000000000000000000, -0.0000000000000000000, -1.000000000000000000 ) ) ;
#75 = PRODUCT_RELATED_PRODUCT_CATEGORY ( 'part', '', ( #293 ) ) ;
#76 =( NAMED_UNIT ( * ) SI_UNIT ( $, .STERADIAN. ) SOLID_ANGLE_UNIT ( ) );
#77 = LINE ( 'NONE', #126, #113 ) ;
#78 = SURFACE_STYLE_FILL_AREA ( #149 ) ;
#79 = AXIS2_PLACEMENT_3D ( 'NONE', #112, #199, #175 ) ;
#80 = LINE ( 'NONE', #246, #59 ) ;
#81 = CARTESIAN_POINT ( 'NONE',  ( -0.3746249999999999858, 0.0000000000000000000, 9.175666142611542384E-17 ) ) ;
#82 = CARTESIAN_POINT ( 'NONE',  ( 0.0000000000000000000, 0.0000000000000000000, 4.000000000000000000 ) ) ;
#83 =( CONVERSION_BASED_UNIT ( 'INCH', #107 ) LENGTH_UNIT ( ) NAMED_UNIT ( #56 ) );
#84 = UNCERTAINTY_MEASURE_WITH_UNIT (LENGTH_MEASURE( 1.000000000000000082E-05 ), #83, 'distance_accuracy_value', 'NONE');
#85 = DIRECTION ( 'NONE',  ( 1.000000000000000000, 0.0000000000000000000, 0.0000000000000000000 ) ) ;
#86 = APPLICATION_CONTEXT ( 'automotive_design' ) ;
#87 = DIRECTION ( 'NONE',  ( -1.224646799147353207E-16, -0.0000000000000000000, -1.000000000000000000 ) ) ;
#88 = AXIS2_PLACEMENT_3D ( 'NONE', #41, #266, #106 ) ;
#89 = FACE_OUTER_BOUND ( 'NONE', #208, .T. ) ;
#90 = VERTEX_POINT ( 'NONE', #104 ) ;
#91 = DIRECTION ( 'NONE',  ( 0.0000000000000000000, 0.0000000000000000000, 1.000000000000000000 ) ) ;
#92 = EDGE_CURVE ( 'NONE', #22, #96, #142, .T. ) ;
#93 = FACE_OUTER_BOUND ( 'NONE', #190, .T. ) ;
#94 = EDGE_LOOP ( 'NONE', ( #239, #260, #140, #115 ) ) ;
#95 = ORIENTED_EDGE ( 'NONE', *, *, #179, .F. ) ;
#96 = VERTEX_POINT ( 'NONE', #81 ) ;
#97 = EDGE_CURVE ( 'NONE', #271, #96, #80, .T. ) ;
#98 = AXIS2_PLACEMENT_3D ( 'NONE', #257, #143, #26 ) ;
#99 = DIMENSIONAL_EXPONENTS ( 1.000000000000000000, 0.0000000000000000000, 0.0000000000000000000, 0.0000000000000000000, 0.0000000000000000000, 0.0000000000000000000, 0.0000000000000000000 ) ;
#100 = DIRECTION ( 'NONE',  ( -1.224646799147353207E-16, -0.0000000000000000000, -1.000000000000000000 ) ) ;
#101 = DIRECTION ( 'NONE',  ( 0.0000000000000000000, 0.0000000000000000000, 1.000000000000000000 ) ) ;
#102 = EDGE_CURVE ( 'NONE', #144, #72, #172, .T. ) ;
#103 =( GEOMETRIC_REPRESENTATION_CONTEXT ( 3 ) GLOBAL_UNCERTAINTY_ASSIGNED_CONTEXT ( ( #155 ) ) GLOBAL_UNIT_ASSIGNED_CONTEXT ( ( #191, #46, #1 ) ) REPRESENTATION_CONTEXT ( 'NONE', 'WORKASPACE' ) );
#104 = CARTESIAN_POINT ( 'NONE',  ( 0.3750000000000000555, 4.592425496802575451E-17, 3.984999999999998987 ) ) ;
#105 = CARTESIAN_POINT ( 'NONE',  ( 0.0000000000000000000, 0.0000000000000000000, 4.000000000000000000 ) ) ;
#106 = DIRECTION ( 'NONE',  ( 1.000000000000000000, 0.0000000000000000000, -0.0000000000000000000 ) ) ;
#107 = LENGTH_MEASURE_WITH_UNIT ( LENGTH_MEASURE( 0.02539999999999999897 ), #135 );
#108 = ORIENTED_EDGE ( 'NONE', *, *, #268, .F. ) ;
#109 = CIRCLE ( 'NONE', #30, 0.3750000000000000555 ) ;
#110 = DIRECTION ( 'NONE',  ( -1.224646799147353207E-16, -0.0000000000000000000, -1.000000000000000000 ) ) ;
#111 = CARTESIAN_POINT ( 'NONE',  ( 0.3746250000000002633, 0.0000000000000000000, 1.500000000000000222 ) ) ;
#112 = CARTESIAN_POINT ( 'NONE',  ( 1.839574692643826673E-16, 0.0000000000000000000, 1.502126730682356914 ) ) ;
#113 = VECTOR ( 'NONE', #220, 39.37007874015748143 ) ;
#114 = EDGE_LOOP ( 'NONE', ( #55, #139, #108, #193 ) ) ;
#115 = ORIENTED_EDGE ( 'NONE', *, *, #131, .T. ) ;
#116 = AXIS2_PLACEMENT_3D ( 'NONE', #82, #267, #251 ) ;
#117 = SURFACE_SIDE_STYLE ('',( #161 ) ) ;
#118 = ORIENTED_EDGE ( 'NONE', *, *, #18, .T. ) ;
#119 = FACE_OUTER_BOUND ( 'NONE', #114, .T. ) ;
#120 = ADVANCED_FACE ( 'NONE', ( #263 ), #253, .T. ) ;
#121 = ORIENTED_EDGE ( 'NONE', *, *, #290, .T. ) ;
#122 = STYLED_ITEM ( 'NONE', ( #299 ), #166 ) ;
#123 = CIRCLE ( 'NONE', #79, 0.3750000000000000555 ) ;
#124 = DIRECTION ( 'NONE',  ( -0.0000000000000000000, -0.0000000000000000000, -1.000000000000000000 ) ) ;
#125 = EDGE_CURVE ( 'NONE', #68, #160, #265, .T. ) ;
#126 = CARTESIAN_POINT ( 'NONE',  ( 0.3599999999999994316, 4.408728476930464865E-17, 4.000000000000000000 ) ) ;
#127 = CARTESIAN_POINT ( 'NONE',  ( 0.3599999999999994316, 4.500576986866520466E-17, 4.000000000000000000 ) ) ;
#128 =( CONVERSION_BASED_UNIT ( 'INCH', #150 ) LENGTH_UNIT ( ) NAMED_UNIT ( #11 ) );
#129 = AXIS2_PLACEMENT_3D ( 'NONE', #133, #110, #291 ) ;
#130 = MANIFOLD_SOLID_BREP ( 'Cut-Revolve1', #180 ) ;
#131 = EDGE_CURVE ( 'NONE', #183, #72, #284, .T. ) ;
#132 = ORIENTED_EDGE ( 'NONE', *, *, #125, .F. ) ;
#133 = CARTESIAN_POINT ( 'NONE',  ( 0.0000000000000000000, 0.0000000000000000000, 0.0000000000000000000 ) ) ;
#134 = CONICAL_SURFACE ( 'NONE', #242, 0.3599999999999994316, 0.7853981633974415066 ) ;
#135 =( LENGTH_UNIT ( ) NAMED_UNIT ( * ) SI_UNIT ( $, .METRE. ) );
#136 = ORIENTED_EDGE ( 'NONE', *, *, #232, .T. ) ;
#137 = AXIS2_PLACEMENT_3D ( 'NONE', #51, #91, #233 ) ;
#138 = STYLED_ITEM ( 'NONE', ( #32 ), #130 ) ;
#139 = ORIENTED_EDGE ( 'NONE', *, *, #240, .T. ) ;
#140 = ORIENTED_EDGE ( 'NONE', *, *, #223, .T. ) ;
#141 = ORIENTED_EDGE ( 'NONE', *, *, #6, .T. ) ;
#142 = CIRCLE ( 'NONE', #171, 0.3746249999999999858 ) ;
#143 = DIRECTION ( 'NONE',  ( -1.224646799147353207E-16, -0.0000000000000000000, -1.000000000000000000 ) ) ;
#144 = VERTEX_POINT ( 'NONE', #31 ) ;
#145 = DIRECTION ( 'NONE',  ( -1.224646799147353207E-16, -0.0000000000000000000, -1.000000000000000000 ) ) ;
#146 = PRODUCT_DEFINITION_FORMATION_WITH_SPECIFIED_SOURCE ( 'ANY', '', #293, .NOT_KNOWN. ) ;
#147 = VECTOR ( 'NONE', #222, 39.37007874015748143 ) ;
#148 = DIRECTION ( 'NONE',  ( -1.224646799147353207E-16, -0.0000000000000000000, -1.000000000000000000 ) ) ;
#149 = FILL_AREA_STYLE ('',( #61 ) ) ;
#150 = LENGTH_MEASURE_WITH_UNIT ( LENGTH_MEASURE( 0.02539999999999999897 ), #261 );
#151 = CARTESIAN_POINT ( 'NONE',  ( -0.3746249999999998193, 4.587833071305771808E-17, 1.500000000000000222 ) ) ;
#152 = ADVANCED_FACE ( 'NONE', ( #60 ), #29, .T. ) ;
#153 = COLOUR_RGB ( '',0.7921568627450980005, 0.8196078431372548767, 0.9333333333333333481 ) ;
#154 = DIRECTION ( 'NONE',  ( 1.000000000000000000, 0.0000000000000000000, 0.0000000000000000000 ) ) ;
#155 = UNCERTAINTY_MEASURE_WITH_UNIT (LENGTH_MEASURE( 1.000000000000000082E-05 ), #191, 'distance_accuracy_value', 'NONE');
#156 = PLANE ( 'NONE',  #45 ) ;
#157 = AXIS2_PLACEMENT_3D ( 'NONE', #295, #36, #19 ) ;
#158 = FACE_OUTER_BOUND ( 'NONE', #25, .T. ) ;
#159 = LINE ( 'NONE', #111, #217 ) ;
#160 = VERTEX_POINT ( 'NONE', #127 ) ;
#161 = SURFACE_STYLE_FILL_AREA ( #211 ) ;
#162 = DIRECTION ( 'NONE',  ( -1.000000000000000000, 0.0000000000000000000, 0.0000000000000000000 ) ) ;
#163 = ORIENTED_EDGE ( 'NONE', *, *, #97, .F. ) ;
#164 = EDGE_CURVE ( 'NONE', #160, #90, #77, .T. ) ;
#165 = ORIENTED_EDGE ( 'NONE', *, *, #290, .F. ) ;
#166 = ADVANCED_BREP_SHAPE_REPRESENTATION ( 'Micro_GEM-750-4X', ( #130, #137 ), #177 ) ;
#167 = AXIS2_PLACEMENT_3D ( 'NONE', #231, #87, #15 ) ;
#168 = CYLINDRICAL_SURFACE ( 'NONE', #228, 0.3750000000000000555 ) ;
#169 = CARTESIAN_POINT ( 'NONE',  ( -0.3750000000000000555, 0.0000000000000000000, 4.000000000000000000 ) ) ;
#170 = PRODUCT_DEFINITION_SHAPE ( 'NONE', 'NONE',  #274 ) ;
#171 = AXIS2_PLACEMENT_3D ( 'NONE', #173, #100, #197 ) ;
#172 = LINE ( 'NONE', #169, #40 ) ;
#173 = CARTESIAN_POINT ( 'NONE',  ( 5.618475085796983064E-33, 0.0000000000000000000, 4.587833071305771192E-17 ) ) ;
#174 = PRESENTATION_LAYER_ASSIGNMENT (  '', '', ( #122 ) ) ;
#175 = DIRECTION ( 'NONE',  ( 1.000000000000000000, 0.0000000000000000000, 0.0000000000000000000 ) ) ;
#176 = AXIS2_PLACEMENT_3D ( 'NONE', #105, #124, #285 ) ;
#177 =( GEOMETRIC_REPRESENTATION_CONTEXT ( 3 ) GLOBAL_UNCERTAINTY_ASSIGNED_CONTEXT ( ( #84 ) ) GLOBAL_UNIT_ASSIGNED_CONTEXT ( ( #83, #17, #181 ) ) REPRESENTATION_CONTEXT ( 'NONE', 'WORKASPACE' ) );
#178 = CARTESIAN_POINT ( 'NONE',  ( 0.0000000000000000000, 0.0000000000000000000, 4.000000000000000000 ) ) ;
#179 = EDGE_CURVE ( 'NONE', #144, #90, #109, .T. ) ;
#180 = CLOSED_SHELL ( 'NONE', ( #28, #282, #13, #38, #152, #201, #185, #120, #259, #235 ) ) ;
#181 =( NAMED_UNIT ( * ) SI_UNIT ( $, .STERADIAN. ) SOLID_ANGLE_UNIT ( ) );
#182 = DIRECTION ( 'NONE',  ( 0.0000000000000000000, 0.0000000000000000000, -1.000000000000000000 ) ) ;
#183 = VERTEX_POINT ( 'NONE', #226 ) ;
#184 = DIRECTION ( 'NONE',  ( -1.000000000000000000, 0.0000000000000000000, 0.0000000000000000000 ) ) ;
#185 = ADVANCED_FACE ( 'NONE', ( #158 ), #134, .T. ) ;
#186 = ORIENTED_EDGE ( 'NONE', *, *, #207, .T. ) ;
#187 = APPLICATION_PROTOCOL_DEFINITION ( 'draft international standard', 'automotive_design', 1998, #286 ) ;
#188 = VERTEX_POINT ( 'NONE', #200 ) ;
#189 = AXIS2_PLACEMENT_3D ( 'NONE', #57, #145, #241 ) ;
#190 = EDGE_LOOP ( 'NONE', ( #206, #49, #95, #252 ) ) ;
#191 =( CONVERSION_BASED_UNIT ( 'INCH', #48 ) LENGTH_UNIT ( ) NAMED_UNIT ( #99 ) );
#192 = FACE_OUTER_BOUND ( 'NONE', #238, .T. ) ;
#193 = ORIENTED_EDGE ( 'NONE', *, *, #102, .F. ) ;
#194 = DIRECTION ( 'NONE',  ( -1.000000000000000000, 0.0000000000000000000, 0.0000000000000000000 ) ) ;
#195 = DIRECTION ( 'NONE',  ( 0.0000000000000000000, 0.0000000000000000000, -1.000000000000000000 ) ) ;
#196 = AXIS2_PLACEMENT_3D ( 'NONE', #27, #212, #162 ) ;
#197 = DIRECTION ( 'NONE',  ( -1.000000000000000000, 0.0000000000000000000, 1.224646799147352961E-16 ) ) ;
#198 = SURFACE_STYLE_USAGE ( .BOTH. , #8 ) ;
#199 = DIRECTION ( 'NONE',  ( -1.224646799147353207E-16, -0.0000000000000000000, -1.000000000000000000 ) ) ;
#200 = CARTESIAN_POINT ( 'NONE',  ( 0.3746250000000002633, 0.0000000000000000000, 1.500000000000000222 ) ) ;
#201 = ADVANCED_FACE ( 'NONE', ( #39 ), #156, .T. ) ;
#202 = CONICAL_SURFACE ( 'NONE', #196, 0.3599999999999994316, 0.7853981633974415066 ) ;
#203 = EDGE_LOOP ( 'NONE', ( #165, #279, #23, #281 ) ) ;
#204 = CARTESIAN_POINT ( 'NONE',  ( 0.0000000000000000000, 0.0000000000000000000, 3.984999999999998987 ) ) ;
#205 = DIRECTION ( 'NONE',  ( 0.0000000000000000000, 0.0000000000000000000, 1.000000000000000000 ) ) ;
#206 = ORIENTED_EDGE ( 'NONE', *, *, #232, .F. ) ;
#207 = EDGE_CURVE ( 'NONE', #188, #271, #262, .T. ) ;
#208 = EDGE_LOOP ( 'NONE', ( #54, #186, #47, #254 ) ) ;
#209 = ORIENTED_EDGE ( 'NONE', *, *, #6, .F. ) ;
#210 = CIRCLE ( 'NONE', #258, 0.3750000000000000555 ) ;
#211 = FILL_AREA_STYLE ('',( #276 ) ) ;
#212 = DIRECTION ( 'NONE',  ( 0.0000000000000000000, 0.0000000000000000000, -1.000000000000000000 ) ) ;
#213 = SURFACE_STYLE_USAGE ( .BOTH. , #117 ) ;
#214 = ORIENTED_EDGE ( 'NONE', *, *, #250, .F. ) ;
#215 = ORIENTED_EDGE ( 'NONE', *, *, #44, .T. ) ;
#216 = AXIS2_PLACEMENT_3D ( 'NONE', #237, #2, #256 ) ;
#217 = VECTOR ( 'NONE', #248, 39.37007874015748143 ) ;
#218 = COLOUR_RGB ( '',0.7921568627450980005, 0.8196078431372548767, 0.9333333333333333481 ) ;
#219 = LINE ( 'NONE', #151, #245 ) ;
#220 = DIRECTION ( 'NONE',  ( 0.7071067811865426878, 8.659560562354873694E-17, -0.7071067811865523467 ) ) ;
#221 = CIRCLE ( 'NONE', #216, 0.3746249999999999858 ) ;
#222 = DIRECTION ( 'NONE',  ( -0.7071067811865426878, 0.0000000000000000000, -0.7071067811865523467 ) ) ;
#223 = EDGE_CURVE ( 'NONE', #188, #183, #159, .T. ) ;
#224 = DIRECTION ( 'NONE',  ( 1.000000000000000000, 0.0000000000000000000, 0.0000000000000000000 ) ) ;
#225 = CARTESIAN_POINT ( 'NONE',  ( 0.3750000000000000555, 4.592425496802575451E-17, 4.000000000000000000 ) ) ;
#226 = CARTESIAN_POINT ( 'NONE',  ( 0.3750000000000001665, 4.592425496802577300E-17, 1.502126730682356914 ) ) ;
#227 = DIRECTION ( 'NONE',  ( -1.000000000000000000, 0.0000000000000000000, 0.0000000000000000000 ) ) ;
#228 = AXIS2_PLACEMENT_3D ( 'NONE', #7, #74, #194 ) ;
#229 = UNCERTAINTY_MEASURE_WITH_UNIT (LENGTH_MEASURE( 1.000000000000000082E-05 ), #128, 'distance_accuracy_value', 'NONE');
#230 = DIRECTION ( 'NONE',  ( 1.000000000000000000, 0.0000000000000000000, -0.0000000000000000000 ) ) ;
#231 = CARTESIAN_POINT ( 'NONE',  ( 1.836970198721030181E-16, 0.0000000000000000000, 1.500000000000000222 ) ) ;
#232 = EDGE_CURVE ( 'NONE', #160, #68, #298, .T. ) ;
#233 = DIRECTION ( 'NONE',  ( 1.000000000000000000, 0.0000000000000000000, 0.0000000000000000000 ) ) ;
#234 = EDGE_LOOP ( 'NONE', ( #275, #20, #247, #71 ) ) ;
#235 = ADVANCED_FACE ( 'NONE', ( #296 ), #64, .F. ) ;
#236 = ORIENTED_EDGE ( 'NONE', *, *, #125, .T. ) ;
#237 = CARTESIAN_POINT ( 'NONE',  ( 5.618475085796983064E-33, 0.0000000000000000000, 4.587833071305771192E-17 ) ) ;
#238 = EDGE_LOOP ( 'NONE', ( #121, #118, #209, #163 ) ) ;
#239 = ORIENTED_EDGE ( 'NONE', *, *, #50, .F. ) ;
#240 = EDGE_CURVE ( 'NONE', #90, #183, #249, .T. ) ;
#241 = DIRECTION ( 'NONE',  ( 1.000000000000000000, 0.0000000000000000000, 0.0000000000000000000 ) ) ;
#242 = AXIS2_PLACEMENT_3D ( 'NONE', #178, #182, #227 ) ;
#243 = DIRECTION ( 'NONE',  ( 1.000000000000000000, 0.0000000000000000000, 0.0000000000000000000 ) ) ;
#244 = DIRECTION ( 'NONE',  ( 1.224646799147353207E-16, 0.0000000000000000000, 1.000000000000000000 ) ) ;
#245 = VECTOR ( 'NONE', #12, 39.37007874015747433 ) ;
#246 = CARTESIAN_POINT ( 'NONE',  ( -0.3746249999999999858, 0.0000000000000000000, 4.587833071305771192E-17 ) ) ;
#247 = ORIENTED_EDGE ( 'NONE', *, *, #102, .T. ) ;
#248 = DIRECTION ( 'NONE',  ( 0.1736481776669314137, 0.0000000000000000000, 0.9848077530122077983 ) ) ;
#249 = LINE ( 'NONE', #225, #73 ) ;
#250 = EDGE_CURVE ( 'NONE', #90, #144, #210, .T. ) ;
#251 = DIRECTION ( 'NONE',  ( 1.000000000000000000, 0.0000000000000000000, 0.0000000000000000000 ) ) ;
#252 = ORIENTED_EDGE ( 'NONE', *, *, #44, .F. ) ;
#253 = CONICAL_SURFACE ( 'NONE', #16, 0.3746250000000000413, 0.1745329251994339192 ) ;
#254 = ORIENTED_EDGE ( 'NONE', *, *, #92, .F. ) ;
#255 = CARTESIAN_POINT ( 'NONE',  ( 0.3746249999999999858, 4.587833071305771192E-17, 0.0000000000000000000 ) ) ;
#256 = DIRECTION ( 'NONE',  ( -1.000000000000000000, 0.0000000000000000000, 1.224646799147352961E-16 ) ) ;
#257 = CARTESIAN_POINT ( 'NONE',  ( 0.0000000000000000000, 0.0000000000000000000, 0.0000000000000000000 ) ) ;
#258 = AXIS2_PLACEMENT_3D ( 'NONE', #204, #14, #154 ) ;
#259 = ADVANCED_FACE ( 'NONE', ( #89 ), #269, .T. ) ;
#260 = ORIENTED_EDGE ( 'NONE', *, *, #207, .F. ) ;
#261 =( LENGTH_UNIT ( ) NAMED_UNIT ( * ) SI_UNIT ( $, .METRE. ) );
#262 = CIRCLE ( 'NONE', #167, 0.3746250000000000413 ) ;
#263 = FACE_OUTER_BOUND ( 'NONE', #94, .T. ) ;
#264 = CARTESIAN_POINT ( 'NONE',  ( 1.836970198721030181E-16, 0.0000000000000000000, 1.500000000000000222 ) ) ;
#265 = CIRCLE ( 'NONE', #53, 0.3599999999999994316 ) ;
#266 = DIRECTION ( 'NONE',  ( 0.0000000000000000000, 0.0000000000000000000, 1.000000000000000000 ) ) ;
#267 = DIRECTION ( 'NONE',  ( 0.0000000000000000000, 0.0000000000000000000, 1.000000000000000000 ) ) ;
#268 = EDGE_CURVE ( 'NONE', #72, #183, #123, .T. ) ;
#269 = CYLINDRICAL_SURFACE ( 'NONE', #129, 0.3746249999999999858 ) ;
#270 =( GEOMETRIC_REPRESENTATION_CONTEXT ( 3 ) GLOBAL_UNCERTAINTY_ASSIGNED_CONTEXT ( ( #229 ) ) GLOBAL_UNIT_ASSIGNED_CONTEXT ( ( #128, #58, #76 ) ) REPRESENTATION_CONTEXT ( 'NONE', 'WORKASPACE' ) );
#271 = VERTEX_POINT ( 'NONE', #297 ) ;
#272 = FACE_OUTER_BOUND ( 'NONE', #203, .T. ) ;
#273 = EDGE_LOOP ( 'NONE', ( #141, #37 ) ) ;
#274 = PRODUCT_DEFINITION ( 'UNKNOWN', '', #146, #294 ) ;
#275 = ORIENTED_EDGE ( 'NONE', *, *, #240, .F. ) ;
#276 = FILL_AREA_STYLE_COLOUR ( '', #218 ) ;
#277 = CARTESIAN_POINT ( 'NONE',  ( 0.3746249999999999858, 4.587833071305771192E-17, -4.587833071305771192E-17 ) ) ;
#278 = APPLICATION_PROTOCOL_DEFINITION ( 'draft international standard', 'automotive_design', 1998, #86 ) ;
#279 = ORIENTED_EDGE ( 'NONE', *, *, #50, .T. ) ;
#280 = SHAPE_DEFINITION_REPRESENTATION ( #170, #166 ) ;
#281 = ORIENTED_EDGE ( 'NONE', *, *, #223, .F. ) ;
#282 = ADVANCED_FACE ( 'NONE', ( #272 ), #288, .T. ) ;
#283 = CYLINDRICAL_SURFACE ( 'NONE', #98, 0.3746249999999999858 ) ;
#284 = CIRCLE ( 'NONE', #189, 0.3750000000000000555 ) ;
#285 = DIRECTION ( 'NONE',  ( -1.000000000000000000, 0.0000000000000000000, 0.0000000000000000000 ) ) ;
#286 = APPLICATION_CONTEXT ( 'automotive_design' ) ;
#287 = LINE ( 'NONE', #62, #147 ) ;
#288 = CONICAL_SURFACE ( 'NONE', #157, 0.3746250000000000413, 0.1745329251994339192 ) ;
#289 = CARTESIAN_POINT ( 'NONE',  ( -0.3599999999999994316, 0.0000000000000000000, 4.000000000000000000 ) ) ;
#290 = EDGE_CURVE ( 'NONE', #271, #188, #21, .T. ) ;
#291 = DIRECTION ( 'NONE',  ( -1.000000000000000000, 0.0000000000000000000, 1.224646799147352961E-16 ) ) ;
#292 = MECHANICAL_DESIGN_GEOMETRIC_PRESENTATION_REPRESENTATION (  '', ( #122 ), #103 ) ;
#293 = PRODUCT ( 'Micro_GEM-750-4X', 'Micro_GEM-750-4X', '', ( #69 ) ) ;
#294 = PRODUCT_DEFINITION_CONTEXT ( 'detailed design', #86, 'design' ) ;
#295 = CARTESIAN_POINT ( 'NONE',  ( 1.836970198721030181E-16, 0.0000000000000000000, 1.500000000000000222 ) ) ;
#296 = FACE_OUTER_BOUND ( 'NONE', #273, .T. ) ;
#297 = CARTESIAN_POINT ( 'NONE',  ( -0.3746249999999998193, 4.590129284054174246E-17, 1.500000000000000222 ) ) ;
#298 = CIRCLE ( 'NONE', #116, 0.3599999999999994316 ) ;
#299 = PRESENTATION_STYLE_ASSIGNMENT (( #213 ) ) ;
ENDSEC;
END-ISO-10303-21;
