ISO-10303-21;
HEADER;
FILE_DESCRIPTION (( 'STEP AP214' ),
    '1' );
FILE_NAME ('Micro_EMS-312-4.STEP',
    '2021-09-01T17:52:28',
    ( '' ),
    ( '' ),
    'SwSTEP 2.0',
    'SolidWorks 2020',
    '' );
FILE_SCHEMA (( 'AUTOMOTIVE_DESIGN' ));
ENDSEC;

DATA;
#1 = ADVANCED_FACE ( 'NONE', ( #34 ), #129, .T. ) ;
#2 = DIRECTION ( 'NONE',  ( 0.0000000000000000000, 0.0000000000000000000, 1.000000000000000000 ) ) ;
#3 = SHAPE_DEFINITION_REPRESENTATION ( #89, #198 ) ;
#4 = FACE_OUTER_BOUND ( 'NONE', #78, .T. ) ;
#5 = CONICAL_SURFACE ( 'NONE', #199, 0.1412499999999994871, 0.7853981633974391752 ) ;
#6 = FACE_OUTER_BOUND ( 'NONE', #92, .T. ) ;
#7 = FACE_OUTER_BOUND ( 'NONE', #63, .T. ) ;
#8 = DIRECTION ( 'NONE',  ( -1.000000000000000000, 0.0000000000000000000, 1.224646799147353454E-16 ) ) ;
#9 = ORIENTED_EDGE ( 'NONE', *, *, #10, .T. ) ;
#10 = EDGE_CURVE ( 'NONE', #173, #32, #148, .T. ) ;
#11 = DIRECTION ( 'NONE',  ( 1.000000000000000000, 0.0000000000000000000, -0.0000000000000000000 ) ) ;
#12 = COLOUR_RGB ( '',0.7921568627450980005, 0.8196078431372548767, 0.9333333333333333481 ) ;
#13 = DIRECTION ( 'NONE',  ( 1.000000000000000000, 0.0000000000000000000, 0.0000000000000000000 ) ) ;
#14 = DIRECTION ( 'NONE',  ( -1.224646799147353207E-16, -0.0000000000000000000, -1.000000000000000000 ) ) ;
#15 = ORIENTED_EDGE ( 'NONE', *, *, #297, .T. ) ;
#16 = ORIENTED_EDGE ( 'NONE', *, *, #246, .F. ) ;
#17 = CYLINDRICAL_SURFACE ( 'NONE', #180, 0.1560937499999999756 ) ;
#18 = MECHANICAL_DESIGN_GEOMETRIC_PRESENTATION_REPRESENTATION (  '', ( #158 ), #224 ) ;
#19 = ADVANCED_FACE ( 'NONE', ( #7 ), #97, .T. ) ;
#20 = DIRECTION ( 'NONE',  ( -1.224646799147353207E-16, -0.0000000000000000000, -1.000000000000000000 ) ) ;
#21 = APPLICATION_CONTEXT ( 'automotive_design' ) ;
#22 = LINE ( 'NONE', #278, #141 ) ;
#23 = FILL_AREA_STYLE_COLOUR ( '', #211 ) ;
#24 = ADVANCED_FACE ( 'NONE', ( #284 ), #167, .T. ) ;
#25 = UNCERTAINTY_MEASURE_WITH_UNIT (LENGTH_MEASURE( 1.000000000000000082E-05 ), #233, 'distance_accuracy_value', 'NONE');
#26 = AXIS2_PLACEMENT_3D ( 'NONE', #191, #77, #84 ) ;
#27 =( NAMED_UNIT ( * ) SI_UNIT ( $, .STERADIAN. ) SOLID_ANGLE_UNIT ( ) );
#28 = PRESENTATION_LAYER_ASSIGNMENT (  '', '', ( #192 ) ) ;
#29 = PRODUCT_DEFINITION_FORMATION_WITH_SPECIFIED_SOURCE ( 'ANY', '', #177, .NOT_KNOWN. ) ;
#30 = ORIENTED_EDGE ( 'NONE', *, *, #236, .F. ) ;
#31 = DIRECTION ( 'NONE',  ( -1.000000000000000000, 0.0000000000000000000, 0.0000000000000000000 ) ) ;
#32 = VERTEX_POINT ( 'NONE', #36 ) ;
#33 = VECTOR ( 'NONE', #160, 39.37007874015748143 ) ;
#34 = FACE_OUTER_BOUND ( 'NONE', #143, .T. ) ;
#35 = PRODUCT_DEFINITION ( 'UNKNOWN', '', #29, #206 ) ;
#36 = CARTESIAN_POINT ( 'NONE',  ( -0.1562500000000000000, 0.0000000000000000000, 2.484999999999999432 ) ) ;
#37 = ADVANCED_FACE ( 'NONE', ( #4 ), #80, .T. ) ;
#38 = ORIENTED_EDGE ( 'NONE', *, *, #10, .F. ) ;
#39 = CARTESIAN_POINT ( 'NONE',  ( 9.967230535079632947E-17, 0.0000000000000000000, 0.8138861377843152889 ) ) ;
#40 = DIRECTION ( 'NONE',  ( -1.224646799147353207E-16, -0.0000000000000000000, -1.000000000000000000 ) ) ;
#41 = CIRCLE ( 'NONE', #185, 0.1560937499999999756 ) ;
#42 = CARTESIAN_POINT ( 'NONE',  ( -0.1412499999999994871, 0.0000000000000000000, 2.500000000000000000 ) ) ;
#43 = CARTESIAN_POINT ( 'NONE',  ( 0.1412499999999994871, 1.729813603795630110E-17, 2.500000000000000000 ) ) ;
#44 = ORIENTED_EDGE ( 'NONE', *, *, #280, .T. ) ;
#45 = CARTESIAN_POINT ( 'NONE',  ( 2.341031285748743514E-33, 0.0000000000000000000, 1.911597113044071690E-17 ) ) ;
#46 =( GEOMETRIC_REPRESENTATION_CONTEXT ( 3 ) GLOBAL_UNCERTAINTY_ASSIGNED_CONTEXT ( ( #139 ) ) GLOBAL_UNIT_ASSIGNED_CONTEXT ( ( #93, #71, #208 ) ) REPRESENTATION_CONTEXT ( 'NONE', 'WORKASPACE' ) );
#47 =( LENGTH_UNIT ( ) NAMED_UNIT ( * ) SI_UNIT ( $, .METRE. ) );
#48 = AXIS2_PLACEMENT_3D ( 'NONE', #135, #291, #11 ) ;
#49 = LENGTH_MEASURE_WITH_UNIT ( LENGTH_MEASURE( 0.02539999999999999897 ), #47 );
#50 = DIRECTION ( 'NONE',  ( -1.224646799147353207E-16, -0.0000000000000000000, -1.000000000000000000 ) ) ;
#51 = SURFACE_STYLE_USAGE ( .BOTH. , #254 ) ;
#52 = ORIENTED_EDGE ( 'NONE', *, *, #91, .T. ) ;
#53 = CIRCLE ( 'NONE', #98, 0.1560937499999999756 ) ;
#54 = DIRECTION ( 'NONE',  ( -0.0000000000000000000, -0.0000000000000000000, -1.000000000000000000 ) ) ;
#55 = ORIENTED_EDGE ( 'NONE', *, *, #182, .F. ) ;
#56 = ORIENTED_EDGE ( 'NONE', *, *, #150, .F. ) ;
#57 = ORIENTED_EDGE ( 'NONE', *, *, #170, .F. ) ;
#58 = VERTEX_POINT ( 'NONE', #261 ) ;
#59 = VERTEX_POINT ( 'NONE', #214 ) ;
#60 = DIRECTION ( 'NONE',  ( -0.0000000000000000000, -0.0000000000000000000, -1.000000000000000000 ) ) ;
#61 = ADVANCED_FACE ( 'NONE', ( #6 ), #106, .T. ) ;
#62 = DIRECTION ( 'NONE',  ( 1.000000000000000000, 0.0000000000000000000, 0.0000000000000000000 ) ) ;
#63 = EDGE_LOOP ( 'NONE', ( #196, #55, #265, #215 ) ) ;
#64 = DIRECTION ( 'NONE',  ( -1.224646799147353207E-16, -0.0000000000000000000, -1.000000000000000000 ) ) ;
#65 = VECTOR ( 'NONE', #60, 39.37007874015748143 ) ;
#66 = FACE_OUTER_BOUND ( 'NONE', #251, .T. ) ;
#67 = DIRECTION ( 'NONE',  ( -1.000000000000000000, 0.0000000000000000000, 0.0000000000000000000 ) ) ;
#68 = VERTEX_POINT ( 'NONE', #115 ) ;
#69 = DIMENSIONAL_EXPONENTS ( 1.000000000000000000, 0.0000000000000000000, 0.0000000000000000000, 0.0000000000000000000, 0.0000000000000000000, 0.0000000000000000000, 0.0000000000000000000 ) ;
#70 = MECHANICAL_DESIGN_GEOMETRIC_PRESENTATION_REPRESENTATION (  '', ( #192 ), #259 ) ;
#71 =( NAMED_UNIT ( * ) PLANE_ANGLE_UNIT ( ) SI_UNIT ( $, .RADIAN. ) );
#72 = DIRECTION ( 'NONE',  ( 0.0000000000000000000, 0.0000000000000000000, 1.000000000000000000 ) ) ;
#73 = VECTOR ( 'NONE', #190, 39.37007874015748854 ) ;
#74 = CIRCLE ( 'NONE', #103, 0.1560937499999999756 ) ;
#75 = LENGTH_MEASURE_WITH_UNIT ( LENGTH_MEASURE( 0.02539999999999999897 ), #227 );
#76 = LENGTH_MEASURE_WITH_UNIT ( LENGTH_MEASURE( 0.02539999999999999897 ), #166 );
#77 = DIRECTION ( 'NONE',  ( 0.0000000000000000000, 0.0000000000000000000, 1.000000000000000000 ) ) ;
#78 = EDGE_LOOP ( 'NONE', ( #30, #274, #127, #268 ) ) ;
#79 = AXIS2_PLACEMENT_3D ( 'NONE', #87, #267, #225 ) ;
#80 = CYLINDRICAL_SURFACE ( 'NONE', #234, 0.1560937499999999756 ) ;
#81 = CLOSED_SHELL ( 'NONE', ( #184, #203, #123, #24, #1, #61, #109, #19, #37, #159 ) ) ;
#82 = EDGE_CURVE ( 'NONE', #232, #173, #168, .T. ) ;
#83 = DIRECTION ( 'NONE',  ( 0.0000000000000000000, 0.0000000000000000000, -1.000000000000000000 ) ) ;
#84 = DIRECTION ( 'NONE',  ( 1.000000000000000000, 0.0000000000000000000, -0.0000000000000000000 ) ) ;
#85 = CARTESIAN_POINT ( 'NONE',  ( 0.1412499999999994871, 1.821662113731684786E-17, 2.500000000000000000 ) ) ;
#86 = CIRCLE ( 'NONE', #250, 0.1562500000000000000 ) ;
#87 = CARTESIAN_POINT ( 'NONE',  ( 0.0000000000000000000, 0.0000000000000000000, 2.500000000000000000 ) ) ;
#88 = DIRECTION ( 'NONE',  ( -1.224646799147353207E-16, -0.0000000000000000000, -1.000000000000000000 ) ) ;
#89 = PRODUCT_DEFINITION_SHAPE ( 'NONE', 'NONE',  #35 ) ;
#90 = PRESENTATION_STYLE_ASSIGNMENT (( #298 ) ) ;
#91 = EDGE_CURVE ( 'NONE', #187, #293, #144, .T. ) ;
#92 = EDGE_LOOP ( 'NONE', ( #44, #111 ) ) ;
#93 =( CONVERSION_BASED_UNIT ( 'INCH', #49 ) LENGTH_UNIT ( ) NAMED_UNIT ( #94 ) );
#94 = DIMENSIONAL_EXPONENTS ( 1.000000000000000000, 0.0000000000000000000, 0.0000000000000000000, 0.0000000000000000000, 0.0000000000000000000, 0.0000000000000000000, 0.0000000000000000000 ) ;
#95 = CARTESIAN_POINT ( 'NONE',  ( -0.1562500000000000000, 0.0000000000000000000, 2.500000000000000000 ) ) ;
#96 = LINE ( 'NONE', #296, #33 ) ;
#97 = CONICAL_SURFACE ( 'NONE', #136, 0.1560937499999999756, 0.1745329251994339748 ) ;
#98 = AXIS2_PLACEMENT_3D ( 'NONE', #118, #276, #252 ) ;
#99 = EDGE_CURVE ( 'NONE', #68, #293, #110, .T. ) ;
#100 = EDGE_CURVE ( 'NONE', #58, #32, #255, .T. ) ;
#101 = ORIENTED_EDGE ( 'NONE', *, *, #280, .F. ) ;
#102 = AXIS2_PLACEMENT_3D ( 'NONE', #285, #195, #114 ) ;
#103 = AXIS2_PLACEMENT_3D ( 'NONE', #45, #40, #219 ) ;
#104 = VERTEX_POINT ( 'NONE', #271 ) ;
#105 = PRESENTATION_STYLE_ASSIGNMENT (( #51 ) ) ;
#106 = PLANE ( 'NONE',  #26 ) ;
#107 = CARTESIAN_POINT ( 'NONE',  ( -0.1562499999999999167, 0.0000000000000000000, 0.8138861377843152889 ) ) ;
#108 = CARTESIAN_POINT ( 'NONE',  ( 0.1562500000000000000, 1.913510623667739463E-17, 2.500000000000000000 ) ) ;
#109 = ADVANCED_FACE ( 'NONE', ( #66 ), #128, .T. ) ;
#110 = LINE ( 'NONE', #290, #174 ) ;
#111 = ORIENTED_EDGE ( 'NONE', *, *, #82, .T. ) ;
#112 = EDGE_CURVE ( 'NONE', #32, #58, #86, .T. ) ;
#113 = AXIS2_PLACEMENT_3D ( 'NONE', #253, #72, #183 ) ;
#114 = DIRECTION ( 'NONE',  ( 1.000000000000000000, 0.0000000000000000000, 0.0000000000000000000 ) ) ;
#115 = CARTESIAN_POINT ( 'NONE',  ( 0.1560937500000000866, 0.0000000000000000000, 0.8129999999999999449 ) ) ;
#116 = ORIENTED_EDGE ( 'NONE', *, *, #142, .T. ) ;
#117 = EDGE_CURVE ( 'NONE', #293, #187, #188, .T. ) ;
#118 = CARTESIAN_POINT ( 'NONE',  ( 9.956378477067980482E-17, 0.0000000000000000000, 0.8129999999999999449 ) ) ;
#119 = AXIS2_PLACEMENT_3D ( 'NONE', #124, #2, #258 ) ;
#120 =( NAMED_UNIT ( * ) PLANE_ANGLE_UNIT ( ) SI_UNIT ( $, .RADIAN. ) );
#121 = DIMENSIONAL_EXPONENTS ( 1.000000000000000000, 0.0000000000000000000, 0.0000000000000000000, 0.0000000000000000000, 0.0000000000000000000, 0.0000000000000000000, 0.0000000000000000000 ) ;
#122 = CIRCLE ( 'NONE', #164, 0.1560937499999999756 ) ;
#123 = ADVANCED_FACE ( 'NONE', ( #137 ), #5, .T. ) ;
#124 = CARTESIAN_POINT ( 'NONE',  ( 0.0000000000000000000, 0.0000000000000000000, 0.0000000000000000000 ) ) ;
#125 = DIRECTION ( 'NONE',  ( -1.000000000000000000, 0.0000000000000000000, 0.0000000000000000000 ) ) ;
#126 =( NAMED_UNIT ( * ) PLANE_ANGLE_UNIT ( ) SI_UNIT ( $, .RADIAN. ) );
#127 = ORIENTED_EDGE ( 'NONE', *, *, #246, .T. ) ;
#128 = CONICAL_SURFACE ( 'NONE', #79, 0.1412499999999994871, 0.7853981633974391752 ) ;
#129 = CYLINDRICAL_SURFACE ( 'NONE', #140, 0.1562500000000000000 ) ;
#130 = DIRECTION ( 'NONE',  ( -1.000000000000000000, 0.0000000000000000000, 1.224646799147353454E-16 ) ) ;
#131 = EDGE_LOOP ( 'NONE', ( #116, #220 ) ) ;
#132 = AXIS2_PLACEMENT_3D ( 'NONE', #241, #238, #31 ) ;
#133 = CARTESIAN_POINT ( 'NONE',  ( 2.341031285748743514E-33, 0.0000000000000000000, 1.911597113044071690E-17 ) ) ;
#134 = CARTESIAN_POINT ( 'NONE',  ( 0.0000000000000000000, 0.0000000000000000000, 2.500000000000000000 ) ) ;
#135 = CARTESIAN_POINT ( 'NONE',  ( 0.0000000000000000000, 0.0000000000000000000, 0.0000000000000000000 ) ) ;
#136 = AXIS2_PLACEMENT_3D ( 'NONE', #163, #260, #213 ) ;
#137 = FACE_OUTER_BOUND ( 'NONE', #189, .T. ) ;
#138 = DIRECTION ( 'NONE',  ( -0.0000000000000000000, -0.0000000000000000000, -1.000000000000000000 ) ) ;
#139 = UNCERTAINTY_MEASURE_WITH_UNIT (LENGTH_MEASURE( 1.000000000000000082E-05 ), #93, 'distance_accuracy_value', 'NONE');
#140 = AXIS2_PLACEMENT_3D ( 'NONE', #283, #54, #125 ) ;
#141 = VECTOR ( 'NONE', #50, 39.37007874015748143 ) ;
#142 = EDGE_CURVE ( 'NONE', #59, #244, #122, .T. ) ;
#143 = EDGE_LOOP ( 'NONE', ( #57, #226, #288, #222 ) ) ;
#144 = CIRCLE ( 'NONE', #279, 0.1562500000000000000 ) ;
#145 = ORIENTED_EDGE ( 'NONE', *, *, #82, .F. ) ;
#146 = ORIENTED_EDGE ( 'NONE', *, *, #263, .F. ) ;
#147 = PRESENTATION_LAYER_ASSIGNMENT (  '', '', ( #158 ) ) ;
#148 = LINE ( 'NONE', #186, #73 ) ;
#149 = DIRECTION ( 'NONE',  ( -1.224646799147353207E-16, -0.0000000000000000000, -1.000000000000000000 ) ) ;
#150 = EDGE_CURVE ( 'NONE', #232, #58, #217, .T. ) ;
#151 = DIRECTION ( 'NONE',  ( 0.0000000000000000000, 0.0000000000000000000, -1.000000000000000000 ) ) ;
#152 = VECTOR ( 'NONE', #64, 39.37007874015748143 ) ;
#153 = DIRECTION ( 'NONE',  ( 1.224646799147353207E-16, 0.0000000000000000000, 1.000000000000000000 ) ) ;
#154 = ORIENTED_EDGE ( 'NONE', *, *, #236, .T. ) ;
#155 = DIRECTION ( 'NONE',  ( -1.000000000000000000, 0.0000000000000000000, 1.224646799147353454E-16 ) ) ;
#156 = DIRECTION ( 'NONE',  ( -1.000000000000000000, 0.0000000000000000000, 0.0000000000000000000 ) ) ;
#157 = EDGE_LOOP ( 'NONE', ( #201, #239, #262, #146 ) ) ;
#158 = STYLED_ITEM ( 'NONE', ( #90 ), #292 ) ;
#159 = ADVANCED_FACE ( 'NONE', ( #171 ), #245, .F. ) ;
#160 = DIRECTION ( 'NONE',  ( -0.1736481776669312471, 2.126576849575783933E-17, 0.9848077530122077983 ) ) ;
#161 = CONICAL_SURFACE ( 'NONE', #229, 0.1560937499999999756, 0.1745329251994339748 ) ;
#162 =( CONVERSION_BASED_UNIT ( 'INCH', #75 ) LENGTH_UNIT ( ) NAMED_UNIT ( #121 ) );
#163 = CARTESIAN_POINT ( 'NONE',  ( 9.956378477067980482E-17, 0.0000000000000000000, 0.8129999999999999449 ) ) ;
#164 = AXIS2_PLACEMENT_3D ( 'NONE', #133, #221, #155 ) ;
#165 = CARTESIAN_POINT ( 'NONE',  ( 0.0000000000000000000, 0.0000000000000000000, 0.0000000000000000000 ) ) ;
#166 =( LENGTH_UNIT ( ) NAMED_UNIT ( * ) SI_UNIT ( $, .METRE. ) );
#167 = CYLINDRICAL_SURFACE ( 'NONE', #132, 0.1562500000000000000 ) ;
#168 = CIRCLE ( 'NONE', #295, 0.1412499999999994871 ) ;
#169 = DIRECTION ( 'NONE',  ( 0.7071067811865410224, 8.659560562354852739E-17, -0.7071067811865539010 ) ) ;
#170 = EDGE_CURVE ( 'NONE', #58, #293, #247, .T. ) ;
#171 = FACE_OUTER_BOUND ( 'NONE', #131, .T. ) ;
#172 = LINE ( 'NONE', #269, #152 ) ;
#173 = VERTEX_POINT ( 'NONE', #42 ) ;
#174 = VECTOR ( 'NONE', #176, 39.37007874015748143 ) ;
#175 = CARTESIAN_POINT ( 'NONE',  ( 0.0000000000000000000, 0.0000000000000000000, 2.484999999999999432 ) ) ;
#176 = DIRECTION ( 'NONE',  ( 0.1736481776669314692, 0.0000000000000000000, 0.9848077530122077983 ) ) ;
#177 = PRODUCT ( 'Micro_EMS-312-4', 'Micro_EMS-312-4', '', ( #281 ) ) ;
#178 = SURFACE_SIDE_STYLE ('',( #207 ) ) ;
#179 = ORIENTED_EDGE ( 'NONE', *, *, #142, .F. ) ;
#180 = AXIS2_PLACEMENT_3D ( 'NONE', #243, #88, #130 ) ;
#181 = UNCERTAINTY_MEASURE_WITH_UNIT (LENGTH_MEASURE( 1.000000000000000082E-05 ), #162, 'distance_accuracy_value', 'NONE');
#182 = EDGE_CURVE ( 'NONE', #68, #104, #41, .T. ) ;
#183 = DIRECTION ( 'NONE',  ( 1.000000000000000000, 0.0000000000000000000, 0.0000000000000000000 ) ) ;
#184 = ADVANCED_FACE ( 'NONE', ( #223 ), #17, .T. ) ;
#185 = AXIS2_PLACEMENT_3D ( 'NONE', #289, #149, #67 ) ;
#186 = CARTESIAN_POINT ( 'NONE',  ( -0.1412499999999994871, 0.0000000000000000000, 2.500000000000000000 ) ) ;
#187 = VERTEX_POINT ( 'NONE', #107 ) ;
#188 = CIRCLE ( 'NONE', #282, 0.1562500000000000000 ) ;
#189 = EDGE_LOOP ( 'NONE', ( #145, #194, #275, #38 ) ) ;
#190 = DIRECTION ( 'NONE',  ( -0.7071067811865410224, 0.0000000000000000000, -0.7071067811865539010 ) ) ;
#191 = CARTESIAN_POINT ( 'NONE',  ( 0.0000000000000000000, 0.0000000000000000000, 2.500000000000000000 ) ) ;
#192 = STYLED_ITEM ( 'NONE', ( #105 ), #198 ) ;
#193 = CARTESIAN_POINT ( 'NONE',  ( 0.0000000000000000000, 0.0000000000000000000, 2.500000000000000000 ) ) ;
#194 = ORIENTED_EDGE ( 'NONE', *, *, #150, .T. ) ;
#195 = DIRECTION ( 'NONE',  ( 0.0000000000000000000, 0.0000000000000000000, -1.000000000000000000 ) ) ;
#196 = ORIENTED_EDGE ( 'NONE', *, *, #273, .F. ) ;
#197 = DIRECTION ( 'NONE',  ( 0.0000000000000000000, 0.0000000000000000000, 1.000000000000000000 ) ) ;
#198 = ADVANCED_BREP_SHAPE_REPRESENTATION ( 'Micro_EMS-312-4', ( #292, #119 ), #46 ) ;
#199 = AXIS2_PLACEMENT_3D ( 'NONE', #134, #83, #156 ) ;
#200 = DIRECTION ( 'NONE',  ( 1.000000000000000000, 0.0000000000000000000, 0.0000000000000000000 ) ) ;
#201 = ORIENTED_EDGE ( 'NONE', *, *, #112, .T. ) ;
#202 = CARTESIAN_POINT ( 'NONE',  ( 0.1560937499999999756, 1.911597113044071690E-17, 0.0000000000000000000 ) ) ;
#203 = ADVANCED_FACE ( 'NONE', ( #272 ), #161, .T. ) ;
#204 = APPLICATION_CONTEXT ( 'automotive_design' ) ;
#205 = FILL_AREA_STYLE ('',( #23 ) ) ;
#206 = PRODUCT_DEFINITION_CONTEXT ( 'detailed design', #21, 'design' ) ;
#207 = SURFACE_STYLE_FILL_AREA ( #230 ) ;
#208 =( NAMED_UNIT ( * ) SI_UNIT ( $, .STERADIAN. ) SOLID_ANGLE_UNIT ( ) );
#209 = PRODUCT_RELATED_PRODUCT_CATEGORY ( 'part', '', ( #177 ) ) ;
#210 = APPLICATION_PROTOCOL_DEFINITION ( 'draft international standard', 'automotive_design', 1998, #21 ) ;
#211 = COLOUR_RGB ( '',0.7921568627450980005, 0.8196078431372548767, 0.9333333333333333481 ) ;
#212 = EDGE_CURVE ( 'NONE', #244, #59, #74, .T. ) ;
#213 = DIRECTION ( 'NONE',  ( 1.000000000000000000, 0.0000000000000000000, 0.0000000000000000000 ) ) ;
#214 = CARTESIAN_POINT ( 'NONE',  ( -0.1560937499999999756, 0.0000000000000000000, 3.823194226088143379E-17 ) ) ;
#215 = ORIENTED_EDGE ( 'NONE', *, *, #117, .T. ) ;
#216 = DIRECTION ( 'NONE',  ( -1.224646799147353207E-16, -0.0000000000000000000, -1.000000000000000000 ) ) ;
#217 = LINE ( 'NONE', #43, #228 ) ;
#218 = ORIENTED_EDGE ( 'NONE', *, *, #99, .F. ) ;
#219 = DIRECTION ( 'NONE',  ( -1.000000000000000000, 0.0000000000000000000, 1.224646799147353454E-16 ) ) ;
#220 = ORIENTED_EDGE ( 'NONE', *, *, #212, .T. ) ;
#221 = DIRECTION ( 'NONE',  ( -1.224646799147353207E-16, -0.0000000000000000000, -1.000000000000000000 ) ) ;
#222 = ORIENTED_EDGE ( 'NONE', *, *, #117, .F. ) ;
#223 = FACE_OUTER_BOUND ( 'NONE', #257, .T. ) ;
#224 =( GEOMETRIC_REPRESENTATION_CONTEXT ( 3 ) GLOBAL_UNCERTAINTY_ASSIGNED_CONTEXT ( ( #181 ) ) GLOBAL_UNIT_ASSIGNED_CONTEXT ( ( #162, #120, #27 ) ) REPRESENTATION_CONTEXT ( 'NONE', 'WORKASPACE' ) );
#225 = DIRECTION ( 'NONE',  ( -1.000000000000000000, 0.0000000000000000000, 0.0000000000000000000 ) ) ;
#226 = ORIENTED_EDGE ( 'NONE', *, *, #100, .T. ) ;
#227 =( LENGTH_UNIT ( ) NAMED_UNIT ( * ) SI_UNIT ( $, .METRE. ) );
#228 = VECTOR ( 'NONE', #169, 39.37007874015748854 ) ;
#229 = AXIS2_PLACEMENT_3D ( 'NONE', #287, #153, #249 ) ;
#230 = FILL_AREA_STYLE ('',( #256 ) ) ;
#231 = LINE ( 'NONE', #95, #286 ) ;
#232 = VERTEX_POINT ( 'NONE', #85 ) ;
#233 =( CONVERSION_BASED_UNIT ( 'INCH', #76 ) LENGTH_UNIT ( ) NAMED_UNIT ( #69 ) );
#234 = AXIS2_PLACEMENT_3D ( 'NONE', #165, #216, #8 ) ;
#235 = ORIENTED_EDGE ( 'NONE', *, *, #297, .F. ) ;
#236 = EDGE_CURVE ( 'NONE', #68, #244, #172, .T. ) ;
#237 =( NAMED_UNIT ( * ) SI_UNIT ( $, .STERADIAN. ) SOLID_ANGLE_UNIT ( ) );
#238 = DIRECTION ( 'NONE',  ( -0.0000000000000000000, -0.0000000000000000000, -1.000000000000000000 ) ) ;
#239 = ORIENTED_EDGE ( 'NONE', *, *, #170, .T. ) ;
#240 = CIRCLE ( 'NONE', #113, 0.1412499999999994871 ) ;
#241 = CARTESIAN_POINT ( 'NONE',  ( 0.0000000000000000000, 0.0000000000000000000, 2.500000000000000000 ) ) ;
#242 = ORIENTED_EDGE ( 'NONE', *, *, #273, .T. ) ;
#243 = CARTESIAN_POINT ( 'NONE',  ( 0.0000000000000000000, 0.0000000000000000000, 0.0000000000000000000 ) ) ;
#244 = VERTEX_POINT ( 'NONE', #202 ) ;
#245 = PLANE ( 'NONE',  #48 ) ;
#246 = EDGE_CURVE ( 'NONE', #104, #59, #22, .T. ) ;
#247 = LINE ( 'NONE', #108, #65 ) ;
#248 = CARTESIAN_POINT ( 'NONE',  ( 9.967230535079632947E-17, 0.0000000000000000000, 0.8138861377843152889 ) ) ;
#249 = DIRECTION ( 'NONE',  ( 1.000000000000000000, 0.0000000000000000000, 0.0000000000000000000 ) ) ;
#250 = AXIS2_PLACEMENT_3D ( 'NONE', #175, #151, #13 ) ;
#251 = EDGE_LOOP ( 'NONE', ( #56, #101, #9, #264 ) ) ;
#252 = DIRECTION ( 'NONE',  ( -1.000000000000000000, 0.0000000000000000000, 0.0000000000000000000 ) ) ;
#253 = CARTESIAN_POINT ( 'NONE',  ( 0.0000000000000000000, 0.0000000000000000000, 2.500000000000000000 ) ) ;
#254 = SURFACE_SIDE_STYLE ('',( #277 ) ) ;
#255 = CIRCLE ( 'NONE', #102, 0.1562500000000000000 ) ;
#256 = FILL_AREA_STYLE_COLOUR ( '', #12 ) ;
#257 = EDGE_LOOP ( 'NONE', ( #15, #154, #179, #16 ) ) ;
#258 = DIRECTION ( 'NONE',  ( 1.000000000000000000, 0.0000000000000000000, 0.0000000000000000000 ) ) ;
#259 =( GEOMETRIC_REPRESENTATION_CONTEXT ( 3 ) GLOBAL_UNCERTAINTY_ASSIGNED_CONTEXT ( ( #25 ) ) GLOBAL_UNIT_ASSIGNED_CONTEXT ( ( #233, #126, #237 ) ) REPRESENTATION_CONTEXT ( 'NONE', 'WORKASPACE' ) );
#260 = DIRECTION ( 'NONE',  ( 1.224646799147353207E-16, 0.0000000000000000000, 1.000000000000000000 ) ) ;
#261 = CARTESIAN_POINT ( 'NONE',  ( 0.1562500000000000000, 1.913510623667739463E-17, 2.484999999999999432 ) ) ;
#262 = ORIENTED_EDGE ( 'NONE', *, *, #91, .F. ) ;
#263 = EDGE_CURVE ( 'NONE', #32, #187, #231, .T. ) ;
#264 = ORIENTED_EDGE ( 'NONE', *, *, #100, .F. ) ;
#265 = ORIENTED_EDGE ( 'NONE', *, *, #99, .T. ) ;
#266 = DIRECTION ( 'NONE',  ( 1.000000000000000000, 0.0000000000000000000, 0.0000000000000000000 ) ) ;
#267 = DIRECTION ( 'NONE',  ( 0.0000000000000000000, 0.0000000000000000000, -1.000000000000000000 ) ) ;
#268 = ORIENTED_EDGE ( 'NONE', *, *, #212, .F. ) ;
#269 = CARTESIAN_POINT ( 'NONE',  ( 0.1560937499999999756, 1.911597113044071690E-17, -1.911597113044071690E-17 ) ) ;
#270 = EDGE_LOOP ( 'NONE', ( #235, #242, #52, #218 ) ) ;
#271 = CARTESIAN_POINT ( 'NONE',  ( -0.1560937499999998923, 1.912553868355905422E-17, 0.8129999999999999449 ) ) ;
#272 = FACE_OUTER_BOUND ( 'NONE', #270, .T. ) ;
#273 = EDGE_CURVE ( 'NONE', #104, #187, #96, .T. ) ;
#274 = ORIENTED_EDGE ( 'NONE', *, *, #182, .T. ) ;
#275 = ORIENTED_EDGE ( 'NONE', *, *, #112, .F. ) ;
#276 = DIRECTION ( 'NONE',  ( -1.224646799147353207E-16, -0.0000000000000000000, -1.000000000000000000 ) ) ;
#277 = SURFACE_STYLE_FILL_AREA ( #205 ) ;
#278 = CARTESIAN_POINT ( 'NONE',  ( -0.1560937499999999756, 0.0000000000000000000, 1.911597113044071690E-17 ) ) ;
#279 = AXIS2_PLACEMENT_3D ( 'NONE', #39, #14, #266 ) ;
#280 = EDGE_CURVE ( 'NONE', #173, #232, #240, .T. ) ;
#281 = PRODUCT_CONTEXT ( 'NONE', #204, 'mechanical' ) ;
#282 = AXIS2_PLACEMENT_3D ( 'NONE', #248, #20, #200 ) ;
#283 = CARTESIAN_POINT ( 'NONE',  ( 0.0000000000000000000, 0.0000000000000000000, 2.500000000000000000 ) ) ;
#284 = FACE_OUTER_BOUND ( 'NONE', #157, .T. ) ;
#285 = CARTESIAN_POINT ( 'NONE',  ( 0.0000000000000000000, 0.0000000000000000000, 2.484999999999999432 ) ) ;
#286 = VECTOR ( 'NONE', #138, 39.37007874015748143 ) ;
#287 = CARTESIAN_POINT ( 'NONE',  ( 9.956378477067980482E-17, 0.0000000000000000000, 0.8129999999999999449 ) ) ;
#288 = ORIENTED_EDGE ( 'NONE', *, *, #263, .T. ) ;
#289 = CARTESIAN_POINT ( 'NONE',  ( 9.956378477067980482E-17, 0.0000000000000000000, 0.8129999999999999449 ) ) ;
#290 = CARTESIAN_POINT ( 'NONE',  ( 0.1560937500000000866, 0.0000000000000000000, 0.8129999999999999449 ) ) ;
#291 = DIRECTION ( 'NONE',  ( 0.0000000000000000000, 0.0000000000000000000, 1.000000000000000000 ) ) ;
#292 = MANIFOLD_SOLID_BREP ( 'Cut-Revolve1', #81 ) ;
#293 = VERTEX_POINT ( 'NONE', #294 ) ;
#294 = CARTESIAN_POINT ( 'NONE',  ( 0.1562500000000001110, 1.913510623667740388E-17, 0.8138861377843152889 ) ) ;
#295 = AXIS2_PLACEMENT_3D ( 'NONE', #193, #197, #62 ) ;
#296 = CARTESIAN_POINT ( 'NONE',  ( -0.1560937499999998923, 1.911597113044071690E-17, 0.8129999999999999449 ) ) ;
#297 = EDGE_CURVE ( 'NONE', #104, #68, #53, .T. ) ;
#298 = SURFACE_STYLE_USAGE ( .BOTH. , #178 ) ;
#299 = APPLICATION_PROTOCOL_DEFINITION ( 'draft international standard', 'automotive_design', 1998, #204 ) ;
ENDSEC;
END-ISO-10303-21;
