ISO-10303-21;
HEADER;
FILE_DESCRIPTION (( 'STEP AP214' ),
    '1' );
FILE_NAME ('59753.STEP',
    '2023-07-24T15:33:50',
    ( '' ),
    ( '' ),
    'SwSTEP 2.0',
    'SolidWorks 2023',
    '' );
FILE_SCHEMA (( 'AUTOMOTIVE_DESIGN' ));
ENDSEC;

DATA;
#1 = EDGE_CURVE ( 'NONE', #369, #320, #3, .T. ) ;
#2 = CARTESIAN_POINT ( 'NONE',  ( 9.184850993605147944E-16, 0.5000000000000000000, 7.500000000000000000 ) ) ;
#3 = CIRCLE ( 'NONE', #30, 8.000000000000001776 ) ;
#4 = CIRCLE ( 'NONE', #52, 8.000000000000000000 ) ;
#5 =( NAMED_UNIT ( * ) PLANE_ANGLE_UNIT ( ) SI_UNIT ( $, .RADIAN. ) );
#6 = DIRECTION ( 'NONE',  ( 0.000000000000000000, 0.000000000000000000, -1.000000000000000000 ) ) ;
#7 = EDGE_LOOP ( 'NONE', ( #19, #242, #75, #329 ) ) ;
#8 = AXIS2_PLACEMENT_3D ( 'NONE', #268, #35, #13 ) ;
#9 = COLOUR_RGB ( '',0.7921568627450980005, 0.8196078431372548767, 0.9333333333333333481 ) ;
#10 = ORIENTED_EDGE ( 'NONE', *, *, #37, .T. ) ;
#11 = FILL_AREA_STYLE_COLOUR ( '', #22 ) ;
#12 = EDGE_LOOP ( 'NONE', ( #218, #207 ) ) ;
#13 = DIRECTION ( 'NONE',  ( 0.000000000000000000, 0.000000000000000000, -1.000000000000000000 ) ) ;
#14 = AXIS2_PLACEMENT_3D ( 'NONE', #43, #16, #18 ) ;
#15 = AXIS2_PLACEMENT_3D ( 'NONE', #214, #183, #360 ) ;
#16 = DIRECTION ( 'NONE',  ( -0.000000000000000000, -1.000000000000000000, -0.000000000000000000 ) ) ;
#17 = MANIFOLD_SOLID_BREP ( 'Revolve - Tool Body (Straight Shanked)', #161 ) ;
#18 = DIRECTION ( 'NONE',  ( 0.000000000000000000, 0.000000000000000000, -1.000000000000000000 ) ) ;
#19 = ORIENTED_EDGE ( 'NONE', *, *, #105, .T. ) ;
#20 = FACE_OUTER_BOUND ( 'NONE', #24, .T. ) ;
#21 = UNCERTAINTY_MEASURE_WITH_UNIT (LENGTH_MEASURE( 1.000000000000000082E-05 ), #290, 'distance_accuracy_value', 'NONE');
#22 = COLOUR_RGB ( '',1.000000000000000000, 0.000000000000000000, 0.000000000000000000 ) ;
#23 = SURFACE_STYLE_FILL_AREA ( #165 ) ;
#24 = EDGE_LOOP ( 'NONE', ( #164, #117, #78, #96 ) ) ;
#25 = DIRECTION ( 'NONE',  ( -1.213802797673107944E-16, 1.000000000000000000, -0.000000000000000000 ) ) ;
#26 = APPLICATION_CONTEXT ( 'automotive_design' ) ;
#27 = VECTOR ( 'NONE', #198, 1000.000000000000000 ) ;
#28 = UNCERTAINTY_MEASURE_WITH_UNIT (LENGTH_MEASURE( 1.000000000000000082E-05 ), #158, 'distance_accuracy_value', 'NONE');
#29 = FACE_OUTER_BOUND ( 'NONE', #215, .T. ) ;
#30 = AXIS2_PLACEMENT_3D ( 'NONE', #97, #275, #44 ) ;
#31 = MECHANICAL_DESIGN_GEOMETRIC_PRESENTATION_REPRESENTATION (  '', ( #357 ), #284 ) ;
#32 = MANIFOLD_SOLID_BREP ( 'Revolve - Cutting Edge', #204 ) ;
#33 = EDGE_CURVE ( 'NONE', #174, #294, #60, .T. ) ;
#34 = VERTEX_POINT ( 'NONE', #110 ) ;
#35 = DIRECTION ( 'NONE',  ( -0.000000000000000000, -1.000000000000000000, -0.000000000000000000 ) ) ;
#36 = UNCERTAINTY_MEASURE_WITH_UNIT (LENGTH_MEASURE( 1.000000000000000082E-05 ), #223, 'distance_accuracy_value', 'NONE');
#37 = EDGE_CURVE ( 'NONE', #67, #369, #61, .T. ) ;
#38 = CIRCLE ( 'NONE', #8, 8.000000000000000000 ) ;
#39 = LINE ( 'NONE', #77, #89 ) ;
#40 =( LENGTH_UNIT ( ) NAMED_UNIT ( * ) SI_UNIT ( .MILLI., .METRE. ) );
#41 = STYLED_ITEM ( 'NONE', ( #332 ), #17 ) ;
#42 = CIRCLE ( 'NONE', #252, 7.999999999999994671 ) ;
#43 = CARTESIAN_POINT ( 'NONE',  ( 0.000000000000000000, 0.000000000000000000, 0.000000000000000000 ) ) ;
#44 = DIRECTION ( 'NONE',  ( -1.000000000000000000, 0.000000000000000000, 0.000000000000000000 ) ) ;
#45 = CARTESIAN_POINT ( 'NONE',  ( 0.000000000000000000, 0.5000000000000000000, -8.000000000000000000 ) ) ;
#46 = DIRECTION ( 'NONE',  ( -0.000000000000000000, -1.000000000000000000, -0.000000000000000000 ) ) ;
#47 = PRESENTATION_LAYER_ASSIGNMENT (  '', '', ( #62 ) ) ;
#48 = ADVANCED_FACE ( 'NONE', ( #309 ), #314, .T. ) ;
#49 = SURFACE_STYLE_USAGE ( .BOTH. , #192 ) ;
#50 =( NAMED_UNIT ( * ) PLANE_ANGLE_UNIT ( ) SI_UNIT ( $, .RADIAN. ) );
#51 = PRESENTATION_STYLE_ASSIGNMENT (( #102 ) ) ;
#52 = AXIS2_PLACEMENT_3D ( 'NONE', #358, #55, #345 ) ;
#53 = ORIENTED_EDGE ( 'NONE', *, *, #226, .F. ) ;
#54 = LINE ( 'NONE', #247, #140 ) ;
#55 = DIRECTION ( 'NONE',  ( -0.000000000000000000, -1.000000000000000000, -0.000000000000000000 ) ) ;
#56 = PRESENTATION_STYLE_ASSIGNMENT (( #282 ) ) ;
#57 = EDGE_CURVE ( 'NONE', #34, #320, #352, .T. ) ;
#58 = AXIS2_PLACEMENT_3D ( 'NONE', #217, #266, #92 ) ;
#59 = DIRECTION ( 'NONE',  ( -0.000000000000000000, -1.000000000000000000, -0.000000000000000000 ) ) ;
#60 = CIRCLE ( 'NONE', #100, 7.500000000000000000 ) ;
#61 = LINE ( 'NONE', #343, #27 ) ;
#62 = STYLED_ITEM ( 'NONE', ( #189 ), #279 ) ;
#63 = COLOUR_RGB ( '',1.000000000000000000, 0.000000000000000000, 0.000000000000000000 ) ;
#64 = PRESENTATION_STYLE_ASSIGNMENT (( #258 ) ) ;
#65 = ADVANCED_FACE ( 'NONE', ( #324 ), #240, .T. ) ;
#66 = FACE_OUTER_BOUND ( 'NONE', #272, .T. ) ;
#67 = VERTEX_POINT ( 'NONE', #278 ) ;
#68 = ORIENTED_EDGE ( 'NONE', *, *, #57, .T. ) ;
#69 = CARTESIAN_POINT ( 'NONE',  ( 0.000000000000000000, 0.000000000000000000, 0.000000000000000000 ) ) ;
#70 = CIRCLE ( 'NONE', #106, 8.000000000000000000 ) ;
#71 = FILL_AREA_STYLE_COLOUR ( '', #63 ) ;
#72 =( NAMED_UNIT ( * ) PLANE_ANGLE_UNIT ( ) SI_UNIT ( $, .RADIAN. ) );
#73 = STYLED_ITEM ( 'NONE', ( #337 ), #32 ) ;
#74 = AXIS2_PLACEMENT_3D ( 'NONE', #167, #199, #310 ) ;
#75 = ORIENTED_EDGE ( 'NONE', *, *, #86, .F. ) ;
#76 = CARTESIAN_POINT ( 'NONE',  ( 0.000000000000000000, 0.5000000000000000000, 0.000000000000000000 ) ) ;
#77 = CARTESIAN_POINT ( 'NONE',  ( 0.000000000000000000, 0.000000000000000000, -8.000000000000000000 ) ) ;
#78 = ORIENTED_EDGE ( 'NONE', *, *, #221, .T. ) ;
#79 = FACE_OUTER_BOUND ( 'NONE', #82, .T. ) ;
#80 = AXIS2_PLACEMENT_3D ( 'NONE', #69, #148, #99 ) ;
#81 =( NAMED_UNIT ( * ) SI_UNIT ( $, .STERADIAN. ) SOLID_ANGLE_UNIT ( ) );
#82 = EDGE_LOOP ( 'NONE', ( #365, #121, #202, #265 ) ) ;
#83 = CARTESIAN_POINT ( 'NONE',  ( 9.797174393178825657E-16, 0.5000000000000000000, 8.000000000000000000 ) ) ;
#84 = DIRECTION ( 'NONE',  ( 0.000000000000000000, 0.000000000000000000, 1.000000000000000000 ) ) ;
#85 = SURFACE_SIDE_STYLE ('',( #316 ) ) ;
#86 = EDGE_CURVE ( 'NONE', #88, #107, #162, .T. ) ;
#87 = AXIS2_PLACEMENT_3D ( 'NONE', #131, #228, #168 ) ;
#88 = VERTEX_POINT ( 'NONE', #45 ) ;
#89 = VECTOR ( 'NONE', #333, 1000.000000000000000 ) ;
#90 = UNCERTAINTY_MEASURE_WITH_UNIT (LENGTH_MEASURE( 1.000000000000000082E-05 ), #40, 'distance_accuracy_value', 'NONE');
#91 = CIRCLE ( 'NONE', #87, 8.000000000000001776 ) ;
#92 = DIRECTION ( 'NONE',  ( 0.000000000000000000, 0.000000000000000000, -1.000000000000000000 ) ) ;
#93 = CARTESIAN_POINT ( 'NONE',  ( 7.999999999999996447, 89.00000000000000000, 9.797174393178823685E-16 ) ) ;
#94 = CARTESIAN_POINT ( 'NONE',  ( -1.714505518806293849E-15, 89.00000000000000000, 0.000000000000000000 ) ) ;
#95 = FILL_AREA_STYLE ('',( #132 ) ) ;
#96 = ORIENTED_EDGE ( 'NONE', *, *, #33, .F. ) ;
#97 = CARTESIAN_POINT ( 'NONE',  ( -1.714505518806293652E-15, 89.00000000000000000, 0.000000000000000000 ) ) ;
#98 = ADVANCED_FACE ( 'NONE', ( #154 ), #318, .T. ) ;
#99 = DIRECTION ( 'NONE',  ( 0.000000000000000000, 0.000000000000000000, -1.000000000000000000 ) ) ;
#100 = AXIS2_PLACEMENT_3D ( 'NONE', #224, #46, #229 ) ;
#101 = ORIENTED_EDGE ( 'NONE', *, *, #304, .F. ) ;
#102 = SURFACE_STYLE_USAGE ( .BOTH. , #338 ) ;
#103 = CARTESIAN_POINT ( 'NONE',  ( 0.000000000000000000, 0.000000000000000000, 0.000000000000000000 ) ) ;
#104 = SURFACE_SIDE_STYLE ('',( #366 ) ) ;
#105 = EDGE_CURVE ( 'NONE', #187, #155, #4, .T. ) ;
#106 = AXIS2_PLACEMENT_3D ( 'NONE', #182, #185, #211 ) ;
#107 = VERTEX_POINT ( 'NONE', #83 ) ;
#108 =( NAMED_UNIT ( * ) SI_UNIT ( $, .STERADIAN. ) SOLID_ANGLE_UNIT ( ) );
#109 = COLOUR_RGB ( '',1.000000000000000000, 0.000000000000000000, 0.000000000000000000 ) ;
#110 = CARTESIAN_POINT ( 'NONE',  ( 8.000000000000000000, 32.00000000000000000, 9.797174393178825657E-16 ) ) ;
#111 =( NAMED_UNIT ( * ) PLANE_ANGLE_UNIT ( ) SI_UNIT ( $, .RADIAN. ) );
#112 = DIRECTION ( 'NONE',  ( 0.000000000000000000, -0.000000000000000000, 1.000000000000000000 ) ) ;
#113 = DIRECTION ( 'NONE',  ( 1.000000000000000000, 1.213802797673107944E-16, 0.000000000000000000 ) ) ;
#114 =( GEOMETRIC_REPRESENTATION_CONTEXT ( 3 ) GLOBAL_UNCERTAINTY_ASSIGNED_CONTEXT ( ( #181 ) ) GLOBAL_UNIT_ASSIGNED_CONTEXT ( ( #300, #72, #362 ) ) REPRESENTATION_CONTEXT ( 'NONE', 'WORKASPACE' ) );
#115 = AXIS2_PLACEMENT_3D ( 'NONE', #134, #347, #84 ) ;
#116 = ORIENTED_EDGE ( 'NONE', *, *, #57, .F. ) ;
#117 = ORIENTED_EDGE ( 'NONE', *, *, #270, .T. ) ;
#118 = MECHANICAL_DESIGN_GEOMETRIC_PRESENTATION_REPRESENTATION (  '', ( #254 ), #172 ) ;
#119 = EDGE_CURVE ( 'NONE', #320, #369, #91, .T. ) ;
#120 = PRODUCT_DEFINITION_CONTEXT ( 'detailed design', #26, 'design' ) ;
#121 = ORIENTED_EDGE ( 'NONE', *, *, #304, .T. ) ;
#122 = SURFACE_STYLE_FILL_AREA ( #219 ) ;
#123 = DIRECTION ( 'NONE',  ( -1.213802797673107944E-16, 1.000000000000000000, -0.000000000000000000 ) ) ;
#124 =( NAMED_UNIT ( * ) PLANE_ANGLE_UNIT ( ) SI_UNIT ( $, .RADIAN. ) );
#125 =( GEOMETRIC_REPRESENTATION_CONTEXT ( 3 ) GLOBAL_UNCERTAINTY_ASSIGNED_CONTEXT ( ( #28 ) ) GLOBAL_UNIT_ASSIGNED_CONTEXT ( ( #158, #325, #81 ) ) REPRESENTATION_CONTEXT ( 'NONE', 'WORKASPACE' ) );
#126 = SURFACE_SIDE_STYLE ('',( #241 ) ) ;
#127 = DIRECTION ( 'NONE',  ( -0.000000000000000000, -1.000000000000000000, -0.000000000000000000 ) ) ;
#128 =( GEOMETRIC_REPRESENTATION_CONTEXT ( 3 ) GLOBAL_UNCERTAINTY_ASSIGNED_CONTEXT ( ( #166 ) ) GLOBAL_UNIT_ASSIGNED_CONTEXT ( ( #177, #111, #322 ) ) REPRESENTATION_CONTEXT ( 'NONE', 'WORKASPACE' ) );
#129 = APPLICATION_PROTOCOL_DEFINITION ( 'draft international standard', 'automotive_design', 1998, #253 ) ;
#130 = FILL_AREA_STYLE ('',( #184 ) ) ;
#131 = CARTESIAN_POINT ( 'NONE',  ( -1.714505518806293652E-15, 89.00000000000000000, 0.000000000000000000 ) ) ;
#132 = FILL_AREA_STYLE_COLOUR ( '', #225 ) ;
#133 = PRODUCT_DEFINITION_SHAPE ( 'NONE', 'NONE',  #301 ) ;
#134 = CARTESIAN_POINT ( 'NONE',  ( 0.000000000000000000, 0.5000000000000000000, -7.500000000000000000 ) ) ;
#135 =( NAMED_UNIT ( * ) PLANE_ANGLE_UNIT ( ) SI_UNIT ( $, .RADIAN. ) );
#136 = PLANE ( 'NONE',  #74 ) ;
#137 = STYLED_ITEM ( 'NONE', ( #64 ), #238 ) ;
#138 = ADVANCED_FACE ( 'NONE', ( #29 ), #136, .F. ) ;
#139 = DIRECTION ( 'NONE',  ( 0.000000000000000000, 0.000000000000000000, -1.000000000000000000 ) ) ;
#140 = VECTOR ( 'NONE', #191, 1000.000000000000000 ) ;
#141 = AXIS2_PLACEMENT_3D ( 'NONE', #264, #350, #112 ) ;
#142 = PRODUCT_RELATED_PRODUCT_CATEGORY ( 'part', '', ( #249 ) ) ;
#143 = SURFACE_STYLE_FILL_AREA ( #231 ) ;
#144 = FACE_OUTER_BOUND ( 'NONE', #7, .T. ) ;
#145 = EDGE_LOOP ( 'NONE', ( #262, #334, #356, #159 ) ) ;
#146 = SURFACE_STYLE_USAGE ( .BOTH. , #330 ) ;
#147 = EDGE_LOOP ( 'NONE', ( #291, #68, #190, #208 ) ) ;
#148 = DIRECTION ( 'NONE',  ( -0.000000000000000000, -1.000000000000000000, -0.000000000000000000 ) ) ;
#149 = DIRECTION ( 'NONE',  ( -1.000000000000000000, 0.000000000000000000, 0.000000000000000000 ) ) ;
#150 = AXIS2_PLACEMENT_3D ( 'NONE', #170, #339, #286 ) ;
#151 = DIRECTION ( 'NONE',  ( 0.000000000000000000, 0.000000000000000000, -1.000000000000000000 ) ) ;
#152 = CYLINDRICAL_SURFACE ( 'NONE', #296, 7.999999999999998224 ) ;
#153 =( LENGTH_UNIT ( ) NAMED_UNIT ( * ) SI_UNIT ( .MILLI., .METRE. ) );
#154 = FACE_OUTER_BOUND ( 'NONE', #145, .T. ) ;
#155 = VERTEX_POINT ( 'NONE', #285 ) ;
#156 = COLOUR_RGB ( '',1.000000000000000000, 0.000000000000000000, 0.000000000000000000 ) ;
#157 = CARTESIAN_POINT ( 'NONE',  ( 0.000000000000000000, 0.5000000000000000000, 0.000000000000000000 ) ) ;
#158 =( LENGTH_UNIT ( ) NAMED_UNIT ( * ) SI_UNIT ( .MILLI., .METRE. ) );
#159 = ORIENTED_EDGE ( 'NONE', *, *, #221, .F. ) ;
#160 = FILL_AREA_STYLE_COLOUR ( '', #287 ) ;
#161 = CLOSED_SHELL ( 'NONE', ( #348, #138, #65, #243 ) ) ;
#162 = CIRCLE ( 'NONE', #341, 8.000000000000000000 ) ;
#163 = APPLICATION_PROTOCOL_DEFINITION ( 'draft international standard', 'automotive_design', 1998, #26 ) ;
#164 = ORIENTED_EDGE ( 'NONE', *, *, #169, .F. ) ;
#165 = FILL_AREA_STYLE ('',( #160 ) ) ;
#166 = UNCERTAINTY_MEASURE_WITH_UNIT (LENGTH_MEASURE( 1.000000000000000082E-05 ), #177, 'distance_accuracy_value', 'NONE');
#167 = CARTESIAN_POINT ( 'NONE',  ( 5.204170427930421283E-15, 32.00000000000000000, 0.000000000000000000 ) ) ;
#168 = DIRECTION ( 'NONE',  ( -1.000000000000000000, 0.000000000000000000, 0.000000000000000000 ) ) ;
#169 = EDGE_CURVE ( 'NONE', #107, #174, #289, .T. ) ;
#170 = CARTESIAN_POINT ( 'NONE',  ( 5.204170427930421283E-15, 32.00000000000000000, 0.000000000000000000 ) ) ;
#171 = FACE_OUTER_BOUND ( 'NONE', #12, .T. ) ;
#172 =( GEOMETRIC_REPRESENTATION_CONTEXT ( 3 ) GLOBAL_UNCERTAINTY_ASSIGNED_CONTEXT ( ( #36 ) ) GLOBAL_UNIT_ASSIGNED_CONTEXT ( ( #223, #195, #277 ) ) REPRESENTATION_CONTEXT ( 'NONE', 'WORKASPACE' ) );
#173 = SURFACE_STYLE_FILL_AREA ( #227 ) ;
#174 = VERTEX_POINT ( 'NONE', #255 ) ;
#175 =( GEOMETRIC_REPRESENTATION_CONTEXT ( 3 ) GLOBAL_UNCERTAINTY_ASSIGNED_CONTEXT ( ( #281 ) ) GLOBAL_UNIT_ASSIGNED_CONTEXT ( ( #153, #50, #340 ) ) REPRESENTATION_CONTEXT ( 'NONE', 'WORKASPACE' ) );
#176 = CIRCLE ( 'NONE', #150, 7.999999999999994671 ) ;
#177 =( LENGTH_UNIT ( ) NAMED_UNIT ( * ) SI_UNIT ( .MILLI., .METRE. ) );
#178 = ORIENTED_EDGE ( 'NONE', *, *, #119, .T. ) ;
#179 = CARTESIAN_POINT ( 'NONE',  ( 0.000000000000000000, 0.000000000000000000, 0.000000000000000000 ) ) ;
#180 = AXIS2_PLACEMENT_3D ( 'NONE', #206, #293, #113 ) ;
#181 = UNCERTAINTY_MEASURE_WITH_UNIT (LENGTH_MEASURE( 1.000000000000000082E-05 ), #300, 'distance_accuracy_value', 'NONE');
#182 = CARTESIAN_POINT ( 'NONE',  ( 0.000000000000000000, 0.5000000000000000000, 0.000000000000000000 ) ) ;
#183 = DIRECTION ( 'NONE',  ( -1.213802797673107944E-16, 1.000000000000000000, -0.000000000000000000 ) ) ;
#184 = FILL_AREA_STYLE_COLOUR ( '', #9 ) ;
#185 = DIRECTION ( 'NONE',  ( -0.000000000000000000, -1.000000000000000000, -0.000000000000000000 ) ) ;
#186 = FACE_OUTER_BOUND ( 'NONE', #147, .T. ) ;
#187 = VERTEX_POINT ( 'NONE', #313 ) ;
#188 = MECHANICAL_DESIGN_GEOMETRIC_PRESENTATION_REPRESENTATION (  '', ( #137 ), #128 ) ;
#189 = PRESENTATION_STYLE_ASSIGNMENT (( #146 ) ) ;
#190 = ORIENTED_EDGE ( 'NONE', *, *, #1, .F. ) ;
#191 = DIRECTION ( 'NONE',  ( -0.000000000000000000, -1.000000000000000000, -0.000000000000000000 ) ) ;
#192 = SURFACE_SIDE_STYLE ('',( #328 ) ) ;
#193 = PRODUCT_CONTEXT ( 'NONE', #253, 'mechanical' ) ;
#194 = SURFACE_STYLE_USAGE ( .BOTH. , #104 ) ;
#195 =( NAMED_UNIT ( * ) PLANE_ANGLE_UNIT ( ) SI_UNIT ( $, .RADIAN. ) );
#196 = PRESENTATION_LAYER_ASSIGNMENT (  '', '', ( #357 ) ) ;
#197 = FILL_AREA_STYLE_COLOUR ( '', #109 ) ;
#198 = DIRECTION ( 'NONE',  ( -1.213802797673107944E-16, 1.000000000000000000, -0.000000000000000000 ) ) ;
#199 = DIRECTION ( 'NONE',  ( -1.213802797673107944E-16, 1.000000000000000000, 0.000000000000000000 ) ) ;
#200 = DIRECTION ( 'NONE',  ( -1.224646799147353454E-16, 0.000000000000000000, -1.000000000000000000 ) ) ;
#201 = CARTESIAN_POINT ( 'NONE',  ( 5.204170427930421283E-15, 32.00000000000000000, 0.000000000000000000 ) ) ;
#202 = ORIENTED_EDGE ( 'NONE', *, *, #367, .T. ) ;
#203 = ADVANCED_BREP_SHAPE_REPRESENTATION ( '59753', ( #32, #17, #351 ), #125 ) ;
#204 = CLOSED_SHELL ( 'NONE', ( #250, #98, #238, #279, #317, #48 ) ) ;
#205 = AXIS2_PLACEMENT_3D ( 'NONE', #2, #280, #200 ) ;
#206 = CARTESIAN_POINT ( 'NONE',  ( 8.000000000000000000, 89.00000000000000000, 0.000000000000000000 ) ) ;
#207 = ORIENTED_EDGE ( 'NONE', *, *, #33, .T. ) ;
#208 = ORIENTED_EDGE ( 'NONE', *, *, #37, .F. ) ;
#209 = FILL_AREA_STYLE ('',( #319 ) ) ;
#210 = MECHANICAL_DESIGN_GEOMETRIC_PRESENTATION_REPRESENTATION (  '', ( #305 ), #323 ) ;
#211 = DIRECTION ( 'NONE',  ( 0.000000000000000000, 0.000000000000000000, -1.000000000000000000 ) ) ;
#212 = EDGE_CURVE ( 'NONE', #67, #34, #176, .T. ) ;
#213 = ORIENTED_EDGE ( 'NONE', *, *, #212, .F. ) ;
#214 = CARTESIAN_POINT ( 'NONE',  ( -1.714505518806293849E-15, 89.00000000000000000, 0.000000000000000000 ) ) ;
#215 = EDGE_LOOP ( 'NONE', ( #213, #53 ) ) ;
#216 = MECHANICAL_DESIGN_GEOMETRIC_PRESENTATION_REPRESENTATION (  '', ( #62 ), #271 ) ;
#217 = CARTESIAN_POINT ( 'NONE',  ( 0.000000000000000000, 0.000000000000000000, 0.000000000000000000 ) ) ;
#218 = ORIENTED_EDGE ( 'NONE', *, *, #257, .T. ) ;
#219 = FILL_AREA_STYLE ('',( #297 ) ) ;
#220 = ORIENTED_EDGE ( 'NONE', *, *, #1, .T. ) ;
#221 = EDGE_CURVE ( 'NONE', #88, #294, #370, .T. ) ;
#222 = EDGE_LOOP ( 'NONE', ( #235, #101 ) ) ;
#223 =( LENGTH_UNIT ( ) NAMED_UNIT ( * ) SI_UNIT ( .MILLI., .METRE. ) );
#224 = CARTESIAN_POINT ( 'NONE',  ( 0.000000000000000000, 0.000000000000000000, 0.000000000000000000 ) ) ;
#225 = COLOUR_RGB ( '',0.7921568627450980005, 0.8196078431372548767, 0.9333333333333333481 ) ;
#226 = EDGE_CURVE ( 'NONE', #34, #67, #42, .T. ) ;
#227 = FILL_AREA_STYLE ('',( #197 ) ) ;
#228 = DIRECTION ( 'NONE',  ( -1.213802797673107944E-16, 1.000000000000000000, -0.000000000000000000 ) ) ;
#229 = DIRECTION ( 'NONE',  ( 0.000000000000000000, 0.000000000000000000, -1.000000000000000000 ) ) ;
#230 = CYLINDRICAL_SURFACE ( 'NONE', #58, 8.000000000000000000 ) ;
#231 = FILL_AREA_STYLE ('',( #11 ) ) ;
#232 = ORIENTED_EDGE ( 'NONE', *, *, #119, .F. ) ;
#233 = SURFACE_STYLE_USAGE ( .BOTH. , #292 ) ;
#234 = PRESENTATION_LAYER_ASSIGNMENT (  '', '', ( #305 ) ) ;
#235 = ORIENTED_EDGE ( 'NONE', *, *, #105, .F. ) ;
#236 = PLANE ( 'NONE',  #180 ) ;
#237 = PRODUCT_DEFINITION_FORMATION_WITH_SPECIFIED_SOURCE ( 'ANY', '', #249, .NOT_KNOWN. ) ;
#238 = ADVANCED_FACE ( 'NONE', ( #171 ), #288, .T. ) ;
#239 =( NAMED_UNIT ( * ) PLANE_ANGLE_UNIT ( ) SI_UNIT ( $, .RADIAN. ) );
#240 = CYLINDRICAL_SURFACE ( 'NONE', #15, 7.999999999999998224 ) ;
#241 = SURFACE_STYLE_FILL_AREA ( #95 ) ;
#242 = ORIENTED_EDGE ( 'NONE', *, *, #312, .T. ) ;
#243 = ADVANCED_FACE ( 'NONE', ( #66 ), #236, .F. ) ;
#244 = DIRECTION ( 'NONE',  ( 0.000000000000000000, 0.000000000000000000, -1.000000000000000000 ) ) ;
#245 =( NAMED_UNIT ( * ) SI_UNIT ( $, .STERADIAN. ) SOLID_ANGLE_UNIT ( ) );
#246 = ORIENTED_EDGE ( 'NONE', *, *, #226, .T. ) ;
#247 = CARTESIAN_POINT ( 'NONE',  ( 9.797174393178825657E-16, 0.000000000000000000, 8.000000000000000000 ) ) ;
#248 = DIRECTION ( 'NONE',  ( 1.000000000000000000, 0.000000000000000000, 0.000000000000000000 ) ) ;
#249 = PRODUCT ( '59753', '59753', '', ( #193 ) ) ;
#250 = ADVANCED_FACE ( 'NONE', ( #144 ), #230, .T. ) ;
#251 = DIRECTION ( 'NONE',  ( -1.000000000000000000, 0.000000000000000000, 0.000000000000000000 ) ) ;
#252 = AXIS2_PLACEMENT_3D ( 'NONE', #201, #25, #251 ) ;
#253 = APPLICATION_CONTEXT ( 'automotive_design' ) ;
#254 = STYLED_ITEM ( 'NONE', ( #51 ), #317 ) ;
#255 = CARTESIAN_POINT ( 'NONE',  ( 9.491012693391985815E-16, 0.000000000000000000, 7.500000000000000000 ) ) ;
#256 = VECTOR ( 'NONE', #331, 1000.000000000000000 ) ;
#257 = EDGE_CURVE ( 'NONE', #294, #174, #259, .T. ) ;
#258 = SURFACE_STYLE_USAGE ( .BOTH. , #85 ) ;
#259 = CIRCLE ( 'NONE', #80, 7.500000000000000000 ) ;
#260 = PRESENTATION_STYLE_ASSIGNMENT (( #233 ) ) ;
#261 = PRESENTATION_LAYER_ASSIGNMENT (  '', '', ( #73 ) ) ;
#262 = ORIENTED_EDGE ( 'NONE', *, *, #86, .T. ) ;
#263 =( GEOMETRIC_REPRESENTATION_CONTEXT ( 3 ) GLOBAL_UNCERTAINTY_ASSIGNED_CONTEXT ( ( #21 ) ) GLOBAL_UNIT_ASSIGNED_CONTEXT ( ( #290, #5, #349 ) ) REPRESENTATION_CONTEXT ( 'NONE', 'WORKASPACE' ) );
#264 = CARTESIAN_POINT ( 'NONE',  ( 0.000000000000000000, 32.00000000000000000, 0.000000000000000000 ) ) ;
#265 = ORIENTED_EDGE ( 'NONE', *, *, #270, .F. ) ;
#266 = DIRECTION ( 'NONE',  ( -0.000000000000000000, -1.000000000000000000, -0.000000000000000000 ) ) ;
#267 = AXIS2_PLACEMENT_3D ( 'NONE', #307, #59, #139 ) ;
#268 = CARTESIAN_POINT ( 'NONE',  ( 0.000000000000000000, 32.00000000000000000, 0.000000000000000000 ) ) ;
#269 =( LENGTH_UNIT ( ) NAMED_UNIT ( * ) SI_UNIT ( .MILLI., .METRE. ) );
#270 = EDGE_CURVE ( 'NONE', #107, #88, #70, .T. ) ;
#271 =( GEOMETRIC_REPRESENTATION_CONTEXT ( 3 ) GLOBAL_UNCERTAINTY_ASSIGNED_CONTEXT ( ( #90 ) ) GLOBAL_UNIT_ASSIGNED_CONTEXT ( ( #40, #239, #359 ) ) REPRESENTATION_CONTEXT ( 'NONE', 'WORKASPACE' ) );
#272 = EDGE_LOOP ( 'NONE', ( #220, #178 ) ) ;
#273 = FILL_AREA_STYLE ('',( #71 ) ) ;
#274 = CARTESIAN_POINT ( 'NONE',  ( 8.000000000000000000, 89.00000000000000000, 9.797174393178825657E-16 ) ) ;
#275 = DIRECTION ( 'NONE',  ( -1.213802797673107944E-16, 1.000000000000000000, -0.000000000000000000 ) ) ;
#276 = STYLED_ITEM ( 'NONE', ( #260 ), #250 ) ;
#277 =( NAMED_UNIT ( * ) SI_UNIT ( $, .STERADIAN. ) SOLID_ANGLE_UNIT ( ) );
#278 = CARTESIAN_POINT ( 'NONE',  ( -7.999999999999989342, 32.00000000000000000, 0.000000000000000000 ) ) ;
#279 = ADVANCED_FACE ( 'NONE', ( #20 ), #327, .T. ) ;
#280 = DIRECTION ( 'NONE',  ( 1.000000000000000000, 0.000000000000000000, -1.224646799147353207E-16 ) ) ;
#281 = UNCERTAINTY_MEASURE_WITH_UNIT (LENGTH_MEASURE( 1.000000000000000082E-05 ), #153, 'distance_accuracy_value', 'NONE');
#282 = SURFACE_STYLE_USAGE ( .BOTH. , #308 ) ;
#283 = MECHANICAL_DESIGN_GEOMETRIC_PRESENTATION_REPRESENTATION (  '', ( #73 ), #114 ) ;
#284 =( GEOMETRIC_REPRESENTATION_CONTEXT ( 3 ) GLOBAL_UNCERTAINTY_ASSIGNED_CONTEXT ( ( #355 ) ) GLOBAL_UNIT_ASSIGNED_CONTEXT ( ( #269, #124, #245 ) ) REPRESENTATION_CONTEXT ( 'NONE', 'WORKASPACE' ) );
#285 = CARTESIAN_POINT ( 'NONE',  ( 9.797174393178825657E-16, 32.00000000000000000, 8.000000000000000000 ) ) ;
#286 = DIRECTION ( 'NONE',  ( -1.000000000000000000, 0.000000000000000000, 0.000000000000000000 ) ) ;
#287 = COLOUR_RGB ( '',1.000000000000000000, 0.000000000000000000, 0.000000000000000000 ) ;
#288 = PLANE ( 'NONE',  #346 ) ;
#289 = CIRCLE ( 'NONE', #205, 0.5000000000000004441 ) ;
#290 =( LENGTH_UNIT ( ) NAMED_UNIT ( * ) SI_UNIT ( .MILLI., .METRE. ) );
#291 = ORIENTED_EDGE ( 'NONE', *, *, #212, .T. ) ;
#292 = SURFACE_SIDE_STYLE ('',( #143 ) ) ;
#293 = DIRECTION ( 'NONE',  ( 1.213802797673107944E-16, -1.000000000000000000, 0.000000000000000000 ) ) ;
#294 = VERTEX_POINT ( 'NONE', #295 ) ;
#295 = CARTESIAN_POINT ( 'NONE',  ( 0.000000000000000000, 0.000000000000000000, -7.500000000000000000 ) ) ;
#296 = AXIS2_PLACEMENT_3D ( 'NONE', #94, #123, #149 ) ;
#297 = FILL_AREA_STYLE_COLOUR ( '', #156 ) ;
#298 = MECHANICAL_DESIGN_GEOMETRIC_PRESENTATION_REPRESENTATION (  '', ( #41 ), #175 ) ;
#300 =( LENGTH_UNIT ( ) NAMED_UNIT ( * ) SI_UNIT ( .MILLI., .METRE. ) );
#299 = COLOUR_RGB ( '',1.000000000000000000, 0.000000000000000000, 0.000000000000000000 ) ;
#301 = PRODUCT_DEFINITION ( 'UNKNOWN', '', #237, #120 ) ;
#302 = DIRECTION ( 'NONE',  ( -0.000000000000000000, -1.000000000000000000, -0.000000000000000000 ) ) ;
#303 = SHAPE_DEFINITION_REPRESENTATION ( #133, #203 ) ;
#304 = EDGE_CURVE ( 'NONE', #155, #187, #38, .T. ) ;
#305 = STYLED_ITEM ( 'NONE', ( #56 ), #48 ) ;
#306 = CYLINDRICAL_SURFACE ( 'NONE', #14, 8.000000000000000000 ) ;
#307 = CARTESIAN_POINT ( 'NONE',  ( 0.000000000000000000, 0.5000000000000000000, 0.000000000000000000 ) ) ;
#308 = SURFACE_SIDE_STYLE ('',( #173 ) ) ;
#309 = FACE_OUTER_BOUND ( 'NONE', #222, .T. ) ;
#310 = DIRECTION ( 'NONE',  ( -1.000000000000000000, -1.213802797673107944E-16, 0.000000000000000000 ) ) ;
#311 =( LENGTH_UNIT ( ) NAMED_UNIT ( * ) SI_UNIT ( .MILLI., .METRE. ) );
#312 = EDGE_CURVE ( 'NONE', #155, #107, #54, .T. ) ;
#313 = CARTESIAN_POINT ( 'NONE',  ( 0.000000000000000000, 32.00000000000000000, -8.000000000000000000 ) ) ;
#314 = PLANE ( 'NONE',  #141 ) ;
#315 = PRESENTATION_LAYER_ASSIGNMENT (  '', '', ( #254 ) ) ;
#316 = SURFACE_STYLE_FILL_AREA ( #209 ) ;
#317 = ADVANCED_FACE ( 'NONE', ( #79 ), #306, .T. ) ;
#318 = TOROIDAL_SURFACE ( 'NONE', #267, 7.500000000000000000, 0.5000000000000002220 ) ;
#319 = FILL_AREA_STYLE_COLOUR ( '', #299 ) ;
#320 = VERTEX_POINT ( 'NONE', #274 ) ;
#321 = DIRECTION ( 'NONE',  ( 0.000000000000000000, -1.000000000000000000, -0.000000000000000000 ) ) ;
#322 =( NAMED_UNIT ( * ) SI_UNIT ( $, .STERADIAN. ) SOLID_ANGLE_UNIT ( ) );
#323 =( GEOMETRIC_REPRESENTATION_CONTEXT ( 3 ) GLOBAL_UNCERTAINTY_ASSIGNED_CONTEXT ( ( #342 ) ) GLOBAL_UNIT_ASSIGNED_CONTEXT ( ( #311, #135, #108 ) ) REPRESENTATION_CONTEXT ( 'NONE', 'WORKASPACE' ) );
#324 = FACE_OUTER_BOUND ( 'NONE', #326, .T. ) ;
#325 =( NAMED_UNIT ( * ) PLANE_ANGLE_UNIT ( ) SI_UNIT ( $, .RADIAN. ) );
#326 = EDGE_LOOP ( 'NONE', ( #116, #246, #10, #232 ) ) ;
#327 = TOROIDAL_SURFACE ( 'NONE', #336, 7.500000000000000000, 0.5000000000000002220 ) ;
#328 = SURFACE_STYLE_FILL_AREA ( #273 ) ;
#329 = ORIENTED_EDGE ( 'NONE', *, *, #367, .F. ) ;
#330 = SURFACE_SIDE_STYLE ('',( #122 ) ) ;
#331 = DIRECTION ( 'NONE',  ( -1.213802797673107944E-16, 1.000000000000000000, -0.000000000000000000 ) ) ;
#332 = PRESENTATION_STYLE_ASSIGNMENT (( #363 ) ) ;
#333 = DIRECTION ( 'NONE',  ( -0.000000000000000000, -1.000000000000000000, -0.000000000000000000 ) ) ;
#334 = ORIENTED_EDGE ( 'NONE', *, *, #169, .T. ) ;
#335 = PRESENTATION_STYLE_ASSIGNMENT (( #49 ) ) ;
#336 = AXIS2_PLACEMENT_3D ( 'NONE', #157, #127, #244 ) ;
#337 = PRESENTATION_STYLE_ASSIGNMENT (( #194 ) ) ;
#338 = SURFACE_SIDE_STYLE ('',( #23 ) ) ;
#339 = DIRECTION ( 'NONE',  ( -1.213802797673107944E-16, 1.000000000000000000, -0.000000000000000000 ) ) ;
#340 =( NAMED_UNIT ( * ) SI_UNIT ( $, .STERADIAN. ) SOLID_ANGLE_UNIT ( ) );
#341 = AXIS2_PLACEMENT_3D ( 'NONE', #76, #302, #151 ) ;
#342 = UNCERTAINTY_MEASURE_WITH_UNIT (LENGTH_MEASURE( 1.000000000000000082E-05 ), #311, 'distance_accuracy_value', 'NONE');
#343 = CARTESIAN_POINT ( 'NONE',  ( -8.000000000000000000, 89.00000000000000000, 0.000000000000000000 ) ) ;
#344 = MECHANICAL_DESIGN_GEOMETRIC_PRESENTATION_REPRESENTATION (  '', ( #276 ), #263 ) ;
#345 = DIRECTION ( 'NONE',  ( 0.000000000000000000, 0.000000000000000000, -1.000000000000000000 ) ) ;
#346 = AXIS2_PLACEMENT_3D ( 'NONE', #179, #321, #6 ) ;
#347 = DIRECTION ( 'NONE',  ( -1.000000000000000000, 0.000000000000000000, 0.000000000000000000 ) ) ;
#348 = ADVANCED_FACE ( 'NONE', ( #186 ), #152, .T. ) ;
#349 =( NAMED_UNIT ( * ) SI_UNIT ( $, .STERADIAN. ) SOLID_ANGLE_UNIT ( ) );
#350 = DIRECTION ( 'NONE',  ( 0.000000000000000000, 1.000000000000000000, 0.000000000000000000 ) ) ;
#351 = AXIS2_PLACEMENT_3D ( 'NONE', #103, #364, #248 ) ;
#352 = LINE ( 'NONE', #93, #256 ) ;
#353 = PRESENTATION_LAYER_ASSIGNMENT (  '', '', ( #41 ) ) ;
#354 = PRESENTATION_LAYER_ASSIGNMENT (  '', '', ( #137 ) ) ;
#355 = UNCERTAINTY_MEASURE_WITH_UNIT (LENGTH_MEASURE( 1.000000000000000082E-05 ), #269, 'distance_accuracy_value', 'NONE');
#356 = ORIENTED_EDGE ( 'NONE', *, *, #257, .F. ) ;
#357 = STYLED_ITEM ( 'NONE', ( #335 ), #98 ) ;
#358 = CARTESIAN_POINT ( 'NONE',  ( 0.000000000000000000, 32.00000000000000000, 0.000000000000000000 ) ) ;
#359 =( NAMED_UNIT ( * ) SI_UNIT ( $, .STERADIAN. ) SOLID_ANGLE_UNIT ( ) );
#360 = DIRECTION ( 'NONE',  ( -1.000000000000000000, 0.000000000000000000, 0.000000000000000000 ) ) ;
#361 = CARTESIAN_POINT ( 'NONE',  ( -8.000000000000003553, 89.00000000000000000, 0.000000000000000000 ) ) ;
#362 =( NAMED_UNIT ( * ) SI_UNIT ( $, .STERADIAN. ) SOLID_ANGLE_UNIT ( ) );
#363 = SURFACE_STYLE_USAGE ( .BOTH. , #126 ) ;
#364 = DIRECTION ( 'NONE',  ( 0.000000000000000000, 0.000000000000000000, 1.000000000000000000 ) ) ;
#365 = ORIENTED_EDGE ( 'NONE', *, *, #312, .F. ) ;
#366 = SURFACE_STYLE_FILL_AREA ( #130 ) ;
#367 = EDGE_CURVE ( 'NONE', #187, #88, #39, .T. ) ;
#368 = PRESENTATION_LAYER_ASSIGNMENT (  '', '', ( #276 ) ) ;
#369 = VERTEX_POINT ( 'NONE', #361 ) ;
#370 = CIRCLE ( 'NONE', #115, 0.5000000000000004441 ) ;
ENDSEC;
END-ISO-10303-21;
