ISO-10303-21;
HEADER;
FILE_DESCRIPTION (( 'STEP AP214' ),
    '1' );
FILE_NAME ('Micro_GEMM-030-2X.STEP',
    '2021-09-01T21:24:16',
    ( '' ),
    ( '' ),
    'SwSTEP 2.0',
    'SolidWorks 2020',
    '' );
FILE_SCHEMA (( 'AUTOMOTIVE_DESIGN' ));
ENDSEC;

DATA;
#1 = ORIENTED_EDGE ( 'NONE', *, *, #15, .T. ) ;
#2 = FILL_AREA_STYLE_COLOUR ( '', #236 ) ;
#3 = ADVANCED_FACE ( 'NONE', ( #136 ), #9, .T. ) ;
#4 = VERTEX_POINT ( 'NONE', #68 ) ;
#5 = CIRCLE ( 'NONE', #161, 0.05905499999999998251 ) ;
#6 = FACE_OUTER_BOUND ( 'NONE', #162, .T. ) ;
#7 = EDGE_CURVE ( 'NONE', #249, #111, #106, .T. ) ;
#8 = VECTOR ( 'NONE', #181, 39.37007874015748143 ) ;
#9 = CYLINDRICAL_SURFACE ( 'NONE', #247, 0.05905499999999998251 ) ;
#10 =( CONVERSION_BASED_UNIT ( 'INCH', #92 ) LENGTH_UNIT ( ) NAMED_UNIT ( #65 ) );
#11 = PRODUCT_RELATED_PRODUCT_CATEGORY ( 'part', '', ( #138 ) ) ;
#12 = AXIS2_PLACEMENT_3D ( 'NONE', #164, #91, #112 ) ;
#13 = ADVANCED_FACE ( 'NONE', ( #206 ), #95, .T. ) ;
#14 = DIRECTION ( 'NONE',  ( -1.224646799147352961E-16, -0.0000000000000000000, -1.000000000000000000 ) ) ;
#15 = EDGE_CURVE ( 'NONE', #159, #58, #256, .T. ) ;
#16 = DIRECTION ( 'NONE',  ( 1.000000000000000000, 0.0000000000000000000, 0.0000000000000000000 ) ) ;
#17 = LINE ( 'NONE', #246, #267 ) ;
#18 = PLANE ( 'NONE',  #295 ) ;
#19 = CARTESIAN_POINT ( 'NONE',  ( 0.0000000000000000000, 0.0000000000000000000, 1.496062999999999921 ) ) ;
#20 = CARTESIAN_POINT ( 'NONE',  ( 8.847974565113086764E-34, 0.0000000000000000000, 7.224919520692328148E-18 ) ) ;
#21 = EDGE_LOOP ( 'NONE', ( #203, #86, #250, #23 ) ) ;
#22 = ORIENTED_EDGE ( 'NONE', *, *, #211, .T. ) ;
#23 = ORIENTED_EDGE ( 'NONE', *, *, #15, .F. ) ;
#24 = ADVANCED_FACE ( 'NONE', ( #6 ), #25, .T. ) ;
#25 = CONICAL_SURFACE ( 'NONE', #109, 0.04405500000000001082, 0.7853981633974570498 ) ;
#26 = CARTESIAN_POINT ( 'NONE',  ( 3.379117917267799633E-17, 0.0000000000000000000, 0.2759259175478573911 ) ) ;
#27 = DIRECTION ( 'NONE',  ( -1.224646799147352961E-16, -0.0000000000000000000, -1.000000000000000000 ) ) ;
#28 = LENGTH_MEASURE_WITH_UNIT ( LENGTH_MEASURE( 0.02539999999999999897 ), #263 );
#29 = DIRECTION ( 'NONE',  ( -0.0000000000000000000, -0.0000000000000000000, -1.000000000000000000 ) ) ;
#30 = SHAPE_DEFINITION_REPRESENTATION ( #160, #245 ) ;
#31 = FACE_OUTER_BOUND ( 'NONE', #45, .T. ) ;
#32 = AXIS2_PLACEMENT_3D ( 'NONE', #20, #288, #151 ) ;
#33 = VECTOR ( 'NONE', #143, 39.37007874015748143 ) ;
#34 = APPLICATION_PROTOCOL_DEFINITION ( 'draft international standard', 'automotive_design', 1998, #50 ) ;
#35 = APPLICATION_CONTEXT ( 'automotive_design' ) ;
#36 = DIRECTION ( 'NONE',  ( -1.000000000000000000, 0.0000000000000000000, 0.0000000000000000000 ) ) ;
#37 = ORIENTED_EDGE ( 'NONE', *, *, #199, .T. ) ;
#38 = CARTESIAN_POINT ( 'NONE',  ( 0.0000000000000000000, 0.0000000000000000000, 1.496062999999999921 ) ) ;
#39 = ADVANCED_FACE ( 'NONE', ( #186 ), #251, .T. ) ;
#40 = ORIENTED_EDGE ( 'NONE', *, *, #167, .F. ) ;
#41 = DIRECTION ( 'NONE',  ( 0.0000000000000000000, 0.0000000000000000000, -1.000000000000000000 ) ) ;
#42 = AXIS2_PLACEMENT_3D ( 'NONE', #26, #105, #16 ) ;
#43 = ORIENTED_EDGE ( 'NONE', *, *, #212, .F. ) ;
#44 = MECHANICAL_DESIGN_GEOMETRIC_PRESENTATION_REPRESENTATION (  '', ( #122 ), #116 ) ;
#45 = EDGE_LOOP ( 'NONE', ( #257, #232 ) ) ;
#46 = ORIENTED_EDGE ( 'NONE', *, *, #252, .T. ) ;
#47 = DIRECTION ( 'NONE',  ( -1.000000000000000000, 0.0000000000000000000, 0.0000000000000000000 ) ) ;
#48 = AXIS2_PLACEMENT_3D ( 'NONE', #242, #56, #123 ) ;
#49 = EDGE_CURVE ( 'NONE', #4, #280, #188, .T. ) ;
#50 = APPLICATION_CONTEXT ( 'automotive_design' ) ;
#51 = CARTESIAN_POINT ( 'NONE',  ( -0.05899594499999995939, 7.228535596528510244E-18, 0.2755909999999999749 ) ) ;
#52 = FACE_OUTER_BOUND ( 'NONE', #21, .T. ) ;
#53 = LINE ( 'NONE', #99, #195 ) ;
#54 = DIRECTION ( 'NONE',  ( -1.224646799147352961E-16, -0.0000000000000000000, -1.000000000000000000 ) ) ;
#55 = PRODUCT_DEFINITION ( 'UNKNOWN', '', #152, #182 ) ;
#56 = DIRECTION ( 'NONE',  ( -1.224646799147352961E-16, -0.0000000000000000000, -1.000000000000000000 ) ) ;
#57 = CONICAL_SURFACE ( 'NONE', #142, 0.04405500000000001082, 0.7853981633974570498 ) ;
#58 = VERTEX_POINT ( 'NONE', #140 ) ;
#59 = CARTESIAN_POINT ( 'NONE',  ( 0.05899594499999999409, 7.224919520692329689E-18, -7.224919520692328148E-18 ) ) ;
#60 =( NAMED_UNIT ( * ) PLANE_ANGLE_UNIT ( ) SI_UNIT ( $, .RADIAN. ) );
#61 = ORIENTED_EDGE ( 'NONE', *, *, #141, .F. ) ;
#62 = MANIFOLD_SOLID_BREP ( 'Cut-Revolve1', #244 ) ;
#63 = EDGE_CURVE ( 'NONE', #159, #177, #217, .T. ) ;
#64 = EDGE_LOOP ( 'NONE', ( #90, #22 ) ) ;
#65 = DIMENSIONAL_EXPONENTS ( 1.000000000000000000, 0.0000000000000000000, 0.0000000000000000000, 0.0000000000000000000, 0.0000000000000000000, 0.0000000000000000000, 0.0000000000000000000 ) ;
#66 = AXIS2_PLACEMENT_3D ( 'NONE', #221, #54, #107 ) ;
#67 = ORIENTED_EDGE ( 'NONE', *, *, #252, .F. ) ;
#68 = CARTESIAN_POINT ( 'NONE',  ( 0.05899594500000002878, 0.0000000000000000000, 0.2755909999999999749 ) ) ;
#69 = ORIENTED_EDGE ( 'NONE', *, *, #259, .T. ) ;
#70 = CARTESIAN_POINT ( 'NONE',  ( -0.05899594499999999409, 0.0000000000000000000, 7.224919520692328148E-18 ) ) ;
#71 = ADVANCED_FACE ( 'NONE', ( #200 ), #124, .T. ) ;
#72 = AXIS2_PLACEMENT_3D ( 'NONE', #97, #27, #238 ) ;
#73 = DIRECTION ( 'NONE',  ( 1.000000000000000000, 0.0000000000000000000, 0.0000000000000000000 ) ) ;
#74 = DIRECTION ( 'NONE',  ( 0.0000000000000000000, 0.0000000000000000000, 1.000000000000000000 ) ) ;
#75 = CIRCLE ( 'NONE', #165, 0.05905499999999998251 ) ;
#76 = DIRECTION ( 'NONE',  ( 0.0000000000000000000, 0.0000000000000000000, 1.000000000000000000 ) ) ;
#77 = ADVANCED_FACE ( 'NONE', ( #220 ), #57, .T. ) ;
#78 = DIRECTION ( 'NONE',  ( 0.0000000000000000000, 0.0000000000000000000, 1.000000000000000000 ) ) ;
#79 = CARTESIAN_POINT ( 'NONE',  ( 0.05905500000000002414, 7.232151672364696963E-18, 0.2759259175478573911 ) ) ;
#80 = LINE ( 'NONE', #149, #33 ) ;
#81 = ORIENTED_EDGE ( 'NONE', *, *, #211, .F. ) ;
#82 = CARTESIAN_POINT ( 'NONE',  ( 0.0000000000000000000, 0.0000000000000000000, 1.481063000000000240 ) ) ;
#83 = AXIS2_PLACEMENT_3D ( 'NONE', #192, #74, #268 ) ;
#84 = ORIENTED_EDGE ( 'NONE', *, *, #193, .F. ) ;
#85 = DIRECTION ( 'NONE',  ( -0.0000000000000000000, -0.0000000000000000000, -1.000000000000000000 ) ) ;
#86 = ORIENTED_EDGE ( 'NONE', *, *, #49, .T. ) ;
#87 = DIRECTION ( 'NONE',  ( 1.000000000000000000, 0.0000000000000000000, 0.0000000000000000000 ) ) ;
#88 = ORIENTED_EDGE ( 'NONE', *, *, #225, .T. ) ;
#89 = SURFACE_STYLE_USAGE ( .BOTH. , #258 ) ;
#90 = ORIENTED_EDGE ( 'NONE', *, *, #282, .T. ) ;
#91 = DIRECTION ( 'NONE',  ( -0.0000000000000000000, -0.0000000000000000000, -1.000000000000000000 ) ) ;
#92 = LENGTH_MEASURE_WITH_UNIT ( LENGTH_MEASURE( 0.02539999999999999897 ), #189 );
#93 = CONICAL_SURFACE ( 'NONE', #145, 0.05899594499999999409, 0.1745329251994339192 ) ;
#94 = ADVANCED_FACE ( 'NONE', ( #253 ), #93, .T. ) ;
#95 = CONICAL_SURFACE ( 'NONE', #128, 0.05899594499999999409, 0.1745329251994339192 ) ;
#96 = EDGE_CURVE ( 'NONE', #4, #113, #17, .T. ) ;
#97 = CARTESIAN_POINT ( 'NONE',  ( 0.0000000000000000000, 0.0000000000000000000, 0.0000000000000000000 ) ) ;
#98 = DIMENSIONAL_EXPONENTS ( 1.000000000000000000, 0.0000000000000000000, 0.0000000000000000000, 0.0000000000000000000, 0.0000000000000000000, 0.0000000000000000000, 0.0000000000000000000 ) ;
#99 = CARTESIAN_POINT ( 'NONE',  ( 0.05905499999999998251, 7.232151672364692341E-18, 1.496062999999999921 ) ) ;
#100 = CARTESIAN_POINT ( 'NONE',  ( 0.0000000000000000000, 0.0000000000000000000, 1.496062999999999921 ) ) ;
#101 = PLANE ( 'NONE',  #190 ) ;
#102 = VECTOR ( 'NONE', #287, 39.37007874015747433 ) ;
#103 = DIRECTION ( 'NONE',  ( 0.0000000000000000000, 0.0000000000000000000, -1.000000000000000000 ) ) ;
#104 = SURFACE_SIDE_STYLE ('',( #148 ) ) ;
#105 = DIRECTION ( 'NONE',  ( -1.224646799147352961E-16, -0.0000000000000000000, -1.000000000000000000 ) ) ;
#106 = LINE ( 'NONE', #204, #261 ) ;
#107 = DIRECTION ( 'NONE',  ( -1.000000000000000000, 0.0000000000000000000, 1.224646799147352961E-16 ) ) ;
#108 = ORIENTED_EDGE ( 'NONE', *, *, #63, .F. ) ;
#109 = AXIS2_PLACEMENT_3D ( 'NONE', #19, #137, #47 ) ;
#110 = EDGE_LOOP ( 'NONE', ( #81, #139, #67, #132 ) ) ;
#111 = VERTEX_POINT ( 'NONE', #198 ) ;
#112 = DIRECTION ( 'NONE',  ( -1.000000000000000000, 0.0000000000000000000, 0.0000000000000000000 ) ) ;
#113 = VERTEX_POINT ( 'NONE', #79 ) ;
#114 = DIRECTION ( 'NONE',  ( 1.224646799147352961E-16, 0.0000000000000000000, 1.000000000000000000 ) ) ;
#115 = EDGE_CURVE ( 'NONE', #280, #58, #178, .T. ) ;
#116 =( GEOMETRIC_REPRESENTATION_CONTEXT ( 3 ) GLOBAL_UNCERTAINTY_ASSIGNED_CONTEXT ( ( #297 ) ) GLOBAL_UNIT_ASSIGNED_CONTEXT ( ( #239, #218, #264 ) ) REPRESENTATION_CONTEXT ( 'NONE', 'WORKASPACE' ) );
#117 = ADVANCED_FACE ( 'NONE', ( #31 ), #101, .F. ) ;
#118 = AXIS2_PLACEMENT_3D ( 'NONE', #248, #14, #36 ) ;
#119 = AXIS2_PLACEMENT_3D ( 'NONE', #271, #153, #228 ) ;
#120 = CIRCLE ( 'NONE', #118, 0.05899594499999999409 ) ;
#121 =( NAMED_UNIT ( * ) SI_UNIT ( $, .STERADIAN. ) SOLID_ANGLE_UNIT ( ) );
#122 = STYLED_ITEM ( 'NONE', ( #191 ), #245 ) ;
#123 = DIRECTION ( 'NONE',  ( -1.000000000000000000, 0.0000000000000000000, 0.0000000000000000000 ) ) ;
#124 = CYLINDRICAL_SURFACE ( 'NONE', #72, 0.05899594499999999409 ) ;
#125 = DIRECTION ( 'NONE',  ( 1.000000000000000000, 0.0000000000000000000, 0.0000000000000000000 ) ) ;
#126 =( CONVERSION_BASED_UNIT ( 'INCH', #196 ) LENGTH_UNIT ( ) NAMED_UNIT ( #98 ) );
#127 = CARTESIAN_POINT ( 'NONE',  ( -0.05905499999999994781, 0.0000000000000000000, 0.2759259175478573911 ) ) ;
#128 = AXIS2_PLACEMENT_3D ( 'NONE', #299, #114, #87 ) ;
#129 = FACE_OUTER_BOUND ( 'NONE', #64, .T. ) ;
#130 =( NAMED_UNIT ( * ) PLANE_ANGLE_UNIT ( ) SI_UNIT ( $, .RADIAN. ) );
#131 = DIRECTION ( 'NONE',  ( 1.000000000000000000, 0.0000000000000000000, 0.0000000000000000000 ) ) ;
#132 = ORIENTED_EDGE ( 'NONE', *, *, #7, .F. ) ;
#133 = AXIS2_PLACEMENT_3D ( 'NONE', #82, #103, #131 ) ;
#134 = PRESENTATION_LAYER_ASSIGNMENT (  '', '', ( #122 ) ) ;
#135 = CARTESIAN_POINT ( 'NONE',  ( 3.375016360238180974E-17, 0.0000000000000000000, 0.2755909999999999749 ) ) ;
#136 = FACE_OUTER_BOUND ( 'NONE', #183, .T. ) ;
#137 = DIRECTION ( 'NONE',  ( 0.0000000000000000000, 0.0000000000000000000, -1.000000000000000000 ) ) ;
#138 = PRODUCT ( 'Micro_GEMM-030-2X', 'Micro_GEMM-030-2X', '', ( #243 ) ) ;
#139 = ORIENTED_EDGE ( 'NONE', *, *, #141, .T. ) ;
#140 = CARTESIAN_POINT ( 'NONE',  ( -0.05899594499999999409, 0.0000000000000000000, 1.444983904138465630E-17 ) ) ;
#141 = EDGE_CURVE ( 'NONE', #275, #157, #265, .T. ) ;
#142 = AXIS2_PLACEMENT_3D ( 'NONE', #100, #41, #158 ) ;
#143 = DIRECTION ( 'NONE',  ( -0.0000000000000000000, -0.0000000000000000000, -1.000000000000000000 ) ) ;
#144 = DIMENSIONAL_EXPONENTS ( 1.000000000000000000, 0.0000000000000000000, 0.0000000000000000000, 0.0000000000000000000, 0.0000000000000000000, 0.0000000000000000000, 0.0000000000000000000 ) ;
#145 = AXIS2_PLACEMENT_3D ( 'NONE', #135, #231, #125 ) ;
#146 = CIRCLE ( 'NONE', #273, 0.04405500000000001082 ) ;
#147 = DIRECTION ( 'NONE',  ( 0.7071067811865536790, 8.659560562355008046E-17, -0.7071067811865412445 ) ) ;
#148 = SURFACE_STYLE_FILL_AREA ( #172 ) ;
#149 = CARTESIAN_POINT ( 'NONE',  ( -0.05905499999999998251, 0.0000000000000000000, 1.496062999999999921 ) ) ;
#150 = APPLICATION_PROTOCOL_DEFINITION ( 'draft international standard', 'automotive_design', 1998, #35 ) ;
#151 = DIRECTION ( 'NONE',  ( -1.000000000000000000, 0.0000000000000000000, 1.224646799147352961E-16 ) ) ;
#152 = PRODUCT_DEFINITION_FORMATION_WITH_SPECIFIED_SOURCE ( 'ANY', '', #138, .NOT_KNOWN. ) ;
#153 = DIRECTION ( 'NONE',  ( -1.224646799147352961E-16, -0.0000000000000000000, -1.000000000000000000 ) ) ;
#154 = ORIENTED_EDGE ( 'NONE', *, *, #199, .F. ) ;
#155 = DIRECTION ( 'NONE',  ( -1.224646799147352961E-16, -0.0000000000000000000, -1.000000000000000000 ) ) ;
#156 = ADVANCED_FACE ( 'NONE', ( #52 ), #237, .T. ) ;
#157 = VERTEX_POINT ( 'NONE', #176 ) ;
#158 = DIRECTION ( 'NONE',  ( -1.000000000000000000, 0.0000000000000000000, 0.0000000000000000000 ) ) ;
#159 = VERTEX_POINT ( 'NONE', #51 ) ;
#160 = PRODUCT_DEFINITION_SHAPE ( 'NONE', 'NONE',  #55 ) ;
#161 = AXIS2_PLACEMENT_3D ( 'NONE', #173, #179, #291 ) ;
#162 = EDGE_LOOP ( 'NONE', ( #61, #180, #296, #84 ) ) ;
#163 = ORIENTED_EDGE ( 'NONE', *, *, #225, .F. ) ;
#164 = CARTESIAN_POINT ( 'NONE',  ( 0.0000000000000000000, 0.0000000000000000000, 1.496062999999999921 ) ) ;
#165 = AXIS2_PLACEMENT_3D ( 'NONE', #223, #290, #170 ) ;
#166 = VECTOR ( 'NONE', #155, 39.37007874015748143 ) ;
#167 = EDGE_CURVE ( 'NONE', #159, #4, #262, .T. ) ;
#168 = CARTESIAN_POINT ( 'NONE',  ( -0.05899594499999995939, 7.224919520692329689E-18, 0.2755909999999999749 ) ) ;
#169 =( NAMED_UNIT ( * ) SI_UNIT ( $, .STERADIAN. ) SOLID_ANGLE_UNIT ( ) );
#170 = DIRECTION ( 'NONE',  ( 1.000000000000000000, 0.0000000000000000000, 0.0000000000000000000 ) ) ;
#171 = CIRCLE ( 'NONE', #42, 0.05905499999999998251 ) ;
#172 = FILL_AREA_STYLE ('',( #241 ) ) ;
#173 = CARTESIAN_POINT ( 'NONE',  ( 0.0000000000000000000, 0.0000000000000000000, 1.481063000000000240 ) ) ;
#174 = CARTESIAN_POINT ( 'NONE',  ( -0.04405500000000001082, 0.0000000000000000000, 1.496062999999999921 ) ) ;
#175 = DIRECTION ( 'NONE',  ( 0.0000000000000000000, 0.0000000000000000000, 1.000000000000000000 ) ) ;
#176 = CARTESIAN_POINT ( 'NONE',  ( 0.05905499999999998251, 7.232151672364692341E-18, 1.481063000000000240 ) ) ;
#177 = VERTEX_POINT ( 'NONE', #127 ) ;
#178 = CIRCLE ( 'NONE', #32, 0.05899594499999999409 ) ;
#179 = DIRECTION ( 'NONE',  ( 0.0000000000000000000, 0.0000000000000000000, -1.000000000000000000 ) ) ;
#180 = ORIENTED_EDGE ( 'NONE', *, *, #282, .F. ) ;
#181 = DIRECTION ( 'NONE',  ( -1.224646799147352961E-16, -0.0000000000000000000, -1.000000000000000000 ) ) ;
#182 = PRODUCT_DEFINITION_CONTEXT ( 'detailed design', #50, 'design' ) ;
#183 = EDGE_LOOP ( 'NONE', ( #46, #69, #163, #205 ) ) ;
#184 = DIRECTION ( 'NONE',  ( -1.000000000000000000, 0.0000000000000000000, 0.0000000000000000000 ) ) ;
#185 = ORIENTED_EDGE ( 'NONE', *, *, #115, .F. ) ;
#186 = FACE_OUTER_BOUND ( 'NONE', #276, .T. ) ;
#187 = EDGE_LOOP ( 'NONE', ( #108, #43, #272, #37 ) ) ;
#188 = LINE ( 'NONE', #59, #166 ) ;
#189 =( LENGTH_UNIT ( ) NAMED_UNIT ( * ) SI_UNIT ( $, .METRE. ) );
#190 = AXIS2_PLACEMENT_3D ( 'NONE', #201, #76, #226 ) ;
#191 = PRESENTATION_STYLE_ASSIGNMENT (( #269 ) ) ;
#192 = CARTESIAN_POINT ( 'NONE',  ( 0.0000000000000000000, 0.0000000000000000000, 1.496062999999999921 ) ) ;
#193 = EDGE_CURVE ( 'NONE', #157, #111, #216, .T. ) ;
#194 = DIRECTION ( 'NONE',  ( 0.0000000000000000000, 0.0000000000000000000, 1.000000000000000000 ) ) ;
#195 = VECTOR ( 'NONE', #29, 39.37007874015748143 ) ;
#196 = LENGTH_MEASURE_WITH_UNIT ( LENGTH_MEASURE( 0.02539999999999999897 ), #227 );
#197 = CARTESIAN_POINT ( 'NONE',  ( 0.0000000000000000000, 0.0000000000000000000, 1.496062999999999921 ) ) ;
#198 = CARTESIAN_POINT ( 'NONE',  ( -0.05905499999999998251, 0.0000000000000000000, 1.481063000000000240 ) ) ;
#199 = EDGE_CURVE ( 'NONE', #113, #177, #171, .T. ) ;
#200 = FACE_OUTER_BOUND ( 'NONE', #298, .T. ) ;
#201 = CARTESIAN_POINT ( 'NONE',  ( 0.0000000000000000000, 0.0000000000000000000, 0.0000000000000000000 ) ) ;
#202 = UNCERTAINTY_MEASURE_WITH_UNIT (LENGTH_MEASURE( 1.000000000000000082E-05 ), #10, 'distance_accuracy_value', 'NONE');
#203 = ORIENTED_EDGE ( 'NONE', *, *, #167, .T. ) ;
#204 = CARTESIAN_POINT ( 'NONE',  ( -0.04405500000000001082, 0.0000000000000000000, 1.496062999999999921 ) ) ;
#205 = ORIENTED_EDGE ( 'NONE', *, *, #260, .F. ) ;
#206 = FACE_OUTER_BOUND ( 'NONE', #234, .T. ) ;
#207 = ORIENTED_EDGE ( 'NONE', *, *, #212, .T. ) ;
#208 = DIRECTION ( 'NONE',  ( -0.7071067811865536790, 0.0000000000000000000, -0.7071067811865412445 ) ) ;
#209 = CIRCLE ( 'NONE', #119, 0.05899594499999999409 ) ;
#210 =( GEOMETRIC_REPRESENTATION_CONTEXT ( 3 ) GLOBAL_UNCERTAINTY_ASSIGNED_CONTEXT ( ( #274 ) ) GLOBAL_UNIT_ASSIGNED_CONTEXT ( ( #126, #130, #169 ) ) REPRESENTATION_CONTEXT ( 'NONE', 'WORKASPACE' ) );
#211 = EDGE_CURVE ( 'NONE', #275, #249, #214, .T. ) ;
#212 = EDGE_CURVE ( 'NONE', #4, #159, #120, .T. ) ;
#213 = CARTESIAN_POINT ( 'NONE',  ( 0.0000000000000000000, 0.0000000000000000000, 1.496062999999999921 ) ) ;
#214 = CIRCLE ( 'NONE', #83, 0.04405500000000001082 ) ;
#215 = ADVANCED_FACE ( 'NONE', ( #129 ), #18, .T. ) ;
#216 = CIRCLE ( 'NONE', #133, 0.05905499999999998251 ) ;
#217 = LINE ( 'NONE', #168, #102 ) ;
#218 =( NAMED_UNIT ( * ) PLANE_ANGLE_UNIT ( ) SI_UNIT ( $, .RADIAN. ) );
#219 = DIRECTION ( 'NONE',  ( 1.000000000000000000, 0.0000000000000000000, -0.0000000000000000000 ) ) ;
#220 = FACE_OUTER_BOUND ( 'NONE', #110, .T. ) ;
#221 = CARTESIAN_POINT ( 'NONE',  ( 0.0000000000000000000, 0.0000000000000000000, 0.0000000000000000000 ) ) ;
#222 = DIRECTION ( 'NONE',  ( 1.000000000000000000, 0.0000000000000000000, 0.0000000000000000000 ) ) ;
#223 = CARTESIAN_POINT ( 'NONE',  ( 3.379117917267799633E-17, 0.0000000000000000000, 0.2759259175478573911 ) ) ;
#224 = STYLED_ITEM ( 'NONE', ( #279 ), #62 ) ;
#225 = EDGE_CURVE ( 'NONE', #177, #113, #75, .T. ) ;
#226 = DIRECTION ( 'NONE',  ( 1.000000000000000000, 0.0000000000000000000, -0.0000000000000000000 ) ) ;
#227 =( LENGTH_UNIT ( ) NAMED_UNIT ( * ) SI_UNIT ( $, .METRE. ) );
#228 = DIRECTION ( 'NONE',  ( -1.000000000000000000, 0.0000000000000000000, 1.224646799147352961E-16 ) ) ;
#229 = ORIENTED_EDGE ( 'NONE', *, *, #63, .T. ) ;
#230 = ORIENTED_EDGE ( 'NONE', *, *, #96, .F. ) ;
#231 = DIRECTION ( 'NONE',  ( 1.224646799147352961E-16, 0.0000000000000000000, 1.000000000000000000 ) ) ;
#232 = ORIENTED_EDGE ( 'NONE', *, *, #115, .T. ) ;
#233 = ORIENTED_EDGE ( 'NONE', *, *, #260, .T. ) ;
#234 = EDGE_LOOP ( 'NONE', ( #40, #229, #88, #230 ) ) ;
#235 = VECTOR ( 'NONE', #147, 39.37007874015748854 ) ;
#236 = COLOUR_RGB ( '',0.7921568627450980005, 0.8196078431372548767, 0.9333333333333333481 ) ;
#237 = CYLINDRICAL_SURFACE ( 'NONE', #66, 0.05899594499999999409 ) ;
#238 = DIRECTION ( 'NONE',  ( -1.000000000000000000, 0.0000000000000000000, 1.224646799147352961E-16 ) ) ;
#239 =( CONVERSION_BASED_UNIT ( 'INCH', #28 ) LENGTH_UNIT ( ) NAMED_UNIT ( #144 ) );
#240 = CARTESIAN_POINT ( 'NONE',  ( 0.05899594499999999409, 7.224919520692329689E-18, 0.0000000000000000000 ) ) ;
#241 = FILL_AREA_STYLE_COLOUR ( '', #285 ) ;
#242 = CARTESIAN_POINT ( 'NONE',  ( 3.375016360238180974E-17, 0.0000000000000000000, 0.2755909999999999749 ) ) ;
#243 = PRODUCT_CONTEXT ( 'NONE', #35, 'mechanical' ) ;
#244 = CLOSED_SHELL ( 'NONE', ( #156, #13, #77, #3, #39, #215, #24, #94, #71, #117 ) ) ;
#245 = ADVANCED_BREP_SHAPE_REPRESENTATION ( 'Micro_GEMM-030-2X', ( #62, #283 ), #210 ) ;
#246 = CARTESIAN_POINT ( 'NONE',  ( 0.05899594500000002878, 0.0000000000000000000, 0.2755909999999999749 ) ) ;
#247 = AXIS2_PLACEMENT_3D ( 'NONE', #38, #85, #184 ) ;
#248 = CARTESIAN_POINT ( 'NONE',  ( 3.375016360238180974E-17, 0.0000000000000000000, 0.2755909999999999749 ) ) ;
#249 = VERTEX_POINT ( 'NONE', #174 ) ;
#250 = ORIENTED_EDGE ( 'NONE', *, *, #266, .F. ) ;
#251 = CYLINDRICAL_SURFACE ( 'NONE', #12, 0.05905499999999998251 ) ;
#252 = EDGE_CURVE ( 'NONE', #111, #157, #5, .T. ) ;
#253 = FACE_OUTER_BOUND ( 'NONE', #187, .T. ) ;
#254 = ORIENTED_EDGE ( 'NONE', *, *, #193, .T. ) ;
#255 = PRESENTATION_LAYER_ASSIGNMENT (  '', '', ( #224 ) ) ;
#256 = LINE ( 'NONE', #70, #8 ) ;
#257 = ORIENTED_EDGE ( 'NONE', *, *, #266, .T. ) ;
#258 = SURFACE_SIDE_STYLE ('',( #293 ) ) ;
#259 = EDGE_CURVE ( 'NONE', #157, #113, #53, .T. ) ;
#260 = EDGE_CURVE ( 'NONE', #111, #177, #80, .T. ) ;
#261 = VECTOR ( 'NONE', #208, 39.37007874015748854 ) ;
#262 = CIRCLE ( 'NONE', #48, 0.05899594499999999409 ) ;
#263 =( LENGTH_UNIT ( ) NAMED_UNIT ( * ) SI_UNIT ( $, .METRE. ) );
#264 =( NAMED_UNIT ( * ) SI_UNIT ( $, .STERADIAN. ) SOLID_ANGLE_UNIT ( ) );
#265 = LINE ( 'NONE', #270, #235 ) ;
#266 = EDGE_CURVE ( 'NONE', #58, #280, #209, .T. ) ;
#267 = VECTOR ( 'NONE', #294, 39.37007874015748143 ) ;
#268 = DIRECTION ( 'NONE',  ( 1.000000000000000000, 0.0000000000000000000, 0.0000000000000000000 ) ) ;
#269 = SURFACE_STYLE_USAGE ( .BOTH. , #104 ) ;
#270 = CARTESIAN_POINT ( 'NONE',  ( 0.04405500000000001082, 5.395181473643666598E-18, 1.496062999999999921 ) ) ;
#271 = CARTESIAN_POINT ( 'NONE',  ( 8.847974565113086764E-34, 0.0000000000000000000, 7.224919520692328148E-18 ) ) ;
#272 = ORIENTED_EDGE ( 'NONE', *, *, #96, .T. ) ;
#273 = AXIS2_PLACEMENT_3D ( 'NONE', #213, #78, #222 ) ;
#274 = UNCERTAINTY_MEASURE_WITH_UNIT (LENGTH_MEASURE( 1.000000000000000082E-05 ), #126, 'distance_accuracy_value', 'NONE');
#275 = VERTEX_POINT ( 'NONE', #286 ) ;
#276 = EDGE_LOOP ( 'NONE', ( #277, #254, #233, #154 ) ) ;
#277 = ORIENTED_EDGE ( 'NONE', *, *, #259, .F. ) ;
#278 = MECHANICAL_DESIGN_GEOMETRIC_PRESENTATION_REPRESENTATION (  '', ( #224 ), #284 ) ;
#279 = PRESENTATION_STYLE_ASSIGNMENT (( #89 ) ) ;
#280 = VERTEX_POINT ( 'NONE', #240 ) ;
#281 = FILL_AREA_STYLE ('',( #2 ) ) ;
#282 = EDGE_CURVE ( 'NONE', #249, #275, #146, .T. ) ;
#283 = AXIS2_PLACEMENT_3D ( 'NONE', #289, #175, #73 ) ;
#284 =( GEOMETRIC_REPRESENTATION_CONTEXT ( 3 ) GLOBAL_UNCERTAINTY_ASSIGNED_CONTEXT ( ( #202 ) ) GLOBAL_UNIT_ASSIGNED_CONTEXT ( ( #10, #60, #121 ) ) REPRESENTATION_CONTEXT ( 'NONE', 'WORKASPACE' ) );
#285 = COLOUR_RGB ( '',0.7921568627450980005, 0.8196078431372548767, 0.9333333333333333481 ) ;
#286 = CARTESIAN_POINT ( 'NONE',  ( 0.04405500000000001082, 6.313666573004179469E-18, 1.496062999999999921 ) ) ;
#287 = DIRECTION ( 'NONE',  ( -0.1736481776669312194, 2.126576849575783625E-17, 0.9848077530122080203 ) ) ;
#288 = DIRECTION ( 'NONE',  ( -1.224646799147352961E-16, -0.0000000000000000000, -1.000000000000000000 ) ) ;
#289 = CARTESIAN_POINT ( 'NONE',  ( 0.0000000000000000000, 0.0000000000000000000, 0.0000000000000000000 ) ) ;
#290 = DIRECTION ( 'NONE',  ( -1.224646799147352961E-16, -0.0000000000000000000, -1.000000000000000000 ) ) ;
#291 = DIRECTION ( 'NONE',  ( 1.000000000000000000, 0.0000000000000000000, 0.0000000000000000000 ) ) ;
#292 = ORIENTED_EDGE ( 'NONE', *, *, #49, .F. ) ;
#293 = SURFACE_STYLE_FILL_AREA ( #281 ) ;
#294 = DIRECTION ( 'NONE',  ( 0.1736481776669314137, 0.0000000000000000000, 0.9848077530122077983 ) ) ;
#295 = AXIS2_PLACEMENT_3D ( 'NONE', #197, #194, #219 ) ;
#296 = ORIENTED_EDGE ( 'NONE', *, *, #7, .T. ) ;
#297 = UNCERTAINTY_MEASURE_WITH_UNIT (LENGTH_MEASURE( 1.000000000000000082E-05 ), #239, 'distance_accuracy_value', 'NONE');
#298 = EDGE_LOOP ( 'NONE', ( #292, #207, #1, #185 ) ) ;
#299 = CARTESIAN_POINT ( 'NONE',  ( 3.375016360238180974E-17, 0.0000000000000000000, 0.2755909999999999749 ) ) ;
ENDSEC;
END-ISO-10303-21;
