ISO-10303-21;
HEADER;
FILE_DESCRIPTION (( 'STEP AP214' ),
    '1' );
FILE_NAME ('Micro_SEM-062-04.STEP',
    '2021-09-02T00:52:01',
    ( '' ),
    ( '' ),
    'SwSTEP 2.0',
    'SolidWorks 2020',
    '' );
FILE_SCHEMA (( 'AUTOMOTIVE_DESIGN' ));
ENDSEC;

DATA;
#1 = DIRECTION ( 'NONE',  ( -0.0000000000000000000, -0.0000000000000000000, -1.000000000000000000 ) ) ;
#2 = COLOUR_RGB ( '',0.7921568627450980005, 0.8196078431372548767, 0.9333333333333333481 ) ;
#3 =( CONVERSION_BASED_UNIT ( 'INCH', #182 ) LENGTH_UNIT ( ) NAMED_UNIT ( #188 ) );
#4 = ADVANCED_FACE ( 'NONE', ( #287 ), #216, .T. ) ;
#5 = APPLICATION_PROTOCOL_DEFINITION ( 'draft international standard', 'automotive_design', 1998, #115 ) ;
#6 = VERTEX_POINT ( 'NONE', #60 ) ;
#7 = CIRCLE ( 'NONE', #202, 0.06250000000000000000 ) ;
#8 = AXIS2_PLACEMENT_3D ( 'NONE', #125, #289, #249 ) ;
#9 =( NAMED_UNIT ( * ) SI_UNIT ( $, .STERADIAN. ) SOLID_ANGLE_UNIT ( ) );
#10 = ORIENTED_EDGE ( 'NONE', *, *, #295, .F. ) ;
#11 = CARTESIAN_POINT ( 'NONE',  ( 0.0000000000000000000, 0.0000000000000000000, 0.0000000000000000000 ) ) ;
#12 = DIRECTION ( 'NONE',  ( -1.000000000000000000, 0.0000000000000000000, 1.224646799147353207E-16 ) ) ;
#13 = DIRECTION ( 'NONE',  ( -1.224646799147353454E-16, -0.0000000000000000000, -1.000000000000000000 ) ) ;
#14 = AXIS2_PLACEMENT_3D ( 'NONE', #86, #293, #128 ) ;
#15 = DIRECTION ( 'NONE',  ( -1.224646799147353454E-16, -0.0000000000000000000, -1.000000000000000000 ) ) ;
#16 = CARTESIAN_POINT ( 'NONE',  ( 0.03121875000000002426, 0.0000000000000000000, 0.1250000000000000000 ) ) ;
#17 = DIRECTION ( 'NONE',  ( -1.224646799147353454E-16, -0.0000000000000000000, -1.000000000000000000 ) ) ;
#18 = CIRCLE ( 'NONE', #59, 0.06250000000000000000 ) ;
#19 = AXIS2_PLACEMENT_3D ( 'NONE', #11, #254, #263 ) ;
#20 = DIRECTION ( 'NONE',  ( 0.1736481776669314137, 0.0000000000000000000, 0.9848077530122077983 ) ) ;
#21 = DIRECTION ( 'NONE',  ( -1.224646799147353454E-16, -0.0000000000000000000, -1.000000000000000000 ) ) ;
#22 = PRODUCT ( 'Micro_SEM-062-04', 'Micro_SEM-062-04', '', ( #117 ) ) ;
#23 = DIRECTION ( 'NONE',  ( -1.000000000000000000, 0.0000000000000000000, 0.0000000000000000000 ) ) ;
#24 = AXIS2_PLACEMENT_3D ( 'NONE', #148, #15, #171 ) ;
#25 = EDGE_LOOP ( 'NONE', ( #236, #281, #264, #123 ) ) ;
#26 = FACE_OUTER_BOUND ( 'NONE', #233, .T. ) ;
#27 = EDGE_CURVE ( 'NONE', #119, #262, #7, .T. ) ;
#28 = DIRECTION ( 'NONE',  ( -1.224646799147353454E-16, -0.0000000000000000000, -1.000000000000000000 ) ) ;
#29 = CARTESIAN_POINT ( 'NONE',  ( 0.03121875000000000691, 3.823194226088144458E-18, -3.823194226088144458E-18 ) ) ;
#30 = PRESENTATION_LAYER_ASSIGNMENT (  '', '', ( #46 ) ) ;
#31 = ORIENTED_EDGE ( 'NONE', *, *, #166, .T. ) ;
#32 = PRESENTATION_STYLE_ASSIGNMENT (( #165 ) ) ;
#33 = EDGE_LOOP ( 'NONE', ( #140, #81, #218, #193 ) ) ;
#34 = EDGE_CURVE ( 'NONE', #131, #35, #116, .T. ) ;
#35 = VERTEX_POINT ( 'NONE', #239 ) ;
#36 = ORIENTED_EDGE ( 'NONE', *, *, #34, .T. ) ;
#37 = ORIENTED_EDGE ( 'NONE', *, *, #230, .F. ) ;
#38 = CARTESIAN_POINT ( 'NONE',  ( 0.04750000000000064587, 5.817072295950006528E-18, 1.500000000000000222 ) ) ;
#39 = LINE ( 'NONE', #243, #142 ) ;
#40 = CARTESIAN_POINT ( 'NONE',  ( 0.0000000000000000000, 0.0000000000000000000, 1.500000000000000222 ) ) ;
#41 = EDGE_CURVE ( 'NONE', #262, #164, #102, .T. ) ;
#42 =( GEOMETRIC_REPRESENTATION_CONTEXT ( 3 ) GLOBAL_UNCERTAINTY_ASSIGNED_CONTEXT ( ( #256 ) ) GLOBAL_UNIT_ASSIGNED_CONTEXT ( ( #3, #94, #204 ) ) REPRESENTATION_CONTEXT ( 'NONE', 'WORKASPACE' ) );
#43 = FACE_OUTER_BOUND ( 'NONE', #122, .T. ) ;
#44 = DIRECTION ( 'NONE',  ( 0.7071067811865456854, 8.659560562354911904E-17, -0.7071067811865493491 ) ) ;
#45 = ORIENTED_EDGE ( 'NONE', *, *, #299, .T. ) ;
#46 = STYLED_ITEM ( 'NONE', ( #155 ), #208 ) ;
#47 = AXIS2_PLACEMENT_3D ( 'NONE', #149, #246, #67 ) ;
#48 = ADVANCED_FACE ( 'NONE', ( #105 ), #178, .T. ) ;
#49 = CARTESIAN_POINT ( 'NONE',  ( -0.06250000000000000000, 0.0000000000000000000, 1.500000000000000222 ) ) ;
#50 = VERTEX_POINT ( 'NONE', #129 ) ;
#51 = ADVANCED_FACE ( 'NONE', ( #43 ), #146, .T. ) ;
#52 = FACE_OUTER_BOUND ( 'NONE', #186, .T. ) ;
#53 = AXIS2_PLACEMENT_3D ( 'NONE', #180, #158, #274 ) ;
#54 = FILL_AREA_STYLE ('',( #232 ) ) ;
#55 = ORIENTED_EDGE ( 'NONE', *, *, #71, .F. ) ;
#56 = ORIENTED_EDGE ( 'NONE', *, *, #245, .T. ) ;
#57 = CLOSED_SHELL ( 'NONE', ( #4, #257, #235, #121, #51, #137, #217, #198, #48, #152 ) ) ;
#58 = CARTESIAN_POINT ( 'NONE',  ( 0.0000000000000000000, 0.0000000000000000000, 1.485000000000000764 ) ) ;
#59 = AXIS2_PLACEMENT_3D ( 'NONE', #207, #74, #201 ) ;
#60 = CARTESIAN_POINT ( 'NONE',  ( 0.04750000000000064587, 6.735557395310482421E-18, 1.500000000000000222 ) ) ;
#61 = CARTESIAN_POINT ( 'NONE',  ( 0.06250000000000000000, 7.654042494670956004E-18, 1.500000000000000222 ) ) ;
#62 = FACE_OUTER_BOUND ( 'NONE', #33, .T. ) ;
#63 = CIRCLE ( 'NONE', #226, 0.03121875000000000691 ) ;
#64 = MECHANICAL_DESIGN_GEOMETRIC_PRESENTATION_REPRESENTATION (  '', ( #111 ), #133 ) ;
#65 = DIRECTION ( 'NONE',  ( -0.0000000000000000000, -0.0000000000000000000, -1.000000000000000000 ) ) ;
#66 = FACE_OUTER_BOUND ( 'NONE', #255, .T. ) ;
#67 = DIRECTION ( 'NONE',  ( 1.000000000000000000, 0.0000000000000000000, 0.0000000000000000000 ) ) ;
#68 = CIRCLE ( 'NONE', #222, 0.03121875000000000691 ) ;
#69 = DIRECTION ( 'NONE',  ( 1.000000000000000000, 0.0000000000000000000, 0.0000000000000000000 ) ) ;
#70 =( LENGTH_UNIT ( ) NAMED_UNIT ( * ) SI_UNIT ( $, .METRE. ) );
#71 = EDGE_CURVE ( 'NONE', #131, #163, #63, .T. ) ;
#72 = CARTESIAN_POINT ( 'NONE',  ( 0.06250000000000000000, 7.654042494670956004E-18, 1.485000000000000764 ) ) ;
#73 = AXIS2_PLACEMENT_3D ( 'NONE', #134, #110, #224 ) ;
#74 = DIRECTION ( 'NONE',  ( 0.0000000000000000000, 0.0000000000000000000, -1.000000000000000000 ) ) ;
#75 = DIRECTION ( 'NONE',  ( -1.224646799147353454E-16, -0.0000000000000000000, -1.000000000000000000 ) ) ;
#76 = EDGE_CURVE ( 'NONE', #35, #164, #251, .T. ) ;
#77 = DIRECTION ( 'NONE',  ( 0.0000000000000000000, 0.0000000000000000000, 1.000000000000000000 ) ) ;
#78 = CIRCLE ( 'NONE', #118, 0.03121874999999999997 ) ;
#79 = ORIENTED_EDGE ( 'NONE', *, *, #76, .T. ) ;
#80 = ORIENTED_EDGE ( 'NONE', *, *, #41, .F. ) ;
#81 = ORIENTED_EDGE ( 'NONE', *, *, #41, .T. ) ;
#82 = ORIENTED_EDGE ( 'NONE', *, *, #101, .T. ) ;
#83 = VERTEX_POINT ( 'NONE', #85 ) ;
#84 = DIRECTION ( 'NONE',  ( 1.000000000000000000, 0.0000000000000000000, -0.0000000000000000000 ) ) ;
#85 = CARTESIAN_POINT ( 'NONE',  ( -0.04750000000000064587, 0.0000000000000000000, 1.500000000000000222 ) ) ;
#86 = CARTESIAN_POINT ( 'NONE',  ( 0.0000000000000000000, 0.0000000000000000000, 1.500000000000000222 ) ) ;
#87 = FACE_OUTER_BOUND ( 'NONE', #258, .T. ) ;
#88 = PLANE ( 'NONE',  #8 ) ;
#89 = CARTESIAN_POINT ( 'NONE',  ( 4.682062571497488738E-34, 0.0000000000000000000, 3.823194226088144458E-18 ) ) ;
#90 = DIRECTION ( 'NONE',  ( 0.0000000000000000000, 0.0000000000000000000, -1.000000000000000000 ) ) ;
#91 = MECHANICAL_DESIGN_GEOMETRIC_PRESENTATION_REPRESENTATION (  '', ( #46 ), #42 ) ;
#92 = EDGE_CURVE ( 'NONE', #163, #164, #104, .T. ) ;
#93 = DIRECTION ( 'NONE',  ( -1.224646799147353454E-16, -0.0000000000000000000, -1.000000000000000000 ) ) ;
#94 =( NAMED_UNIT ( * ) PLANE_ANGLE_UNIT ( ) SI_UNIT ( $, .RADIAN. ) );
#95 = ORIENTED_EDGE ( 'NONE', *, *, #92, .T. ) ;
#96 = APPLICATION_PROTOCOL_DEFINITION ( 'draft international standard', 'automotive_design', 1998, #141 ) ;
#97 = CIRCLE ( 'NONE', #266, 0.04750000000000064587 ) ;
#98 = ORIENTED_EDGE ( 'NONE', *, *, #268, .F. ) ;
#99 = ORIENTED_EDGE ( 'NONE', *, *, #177, .T. ) ;
#100 = ORIENTED_EDGE ( 'NONE', *, *, #160, .F. ) ;
#101 = EDGE_CURVE ( 'NONE', #131, #50, #39, .T. ) ;
#102 = LINE ( 'NONE', #61, #179 ) ;
#103 = VECTOR ( 'NONE', #269, 39.37007874015748143 ) ;
#104 = LINE ( 'NONE', #196, #248 ) ;
#105 = FACE_OUTER_BOUND ( 'NONE', #285, .T. ) ;
#106 = CARTESIAN_POINT ( 'NONE',  ( 3.703390512866948185E-17, 0.0000000000000000000, 0.3024047844199154178 ) ) ;
#107 = PLANE ( 'NONE',  #151 ) ;
#108 = CARTESIAN_POINT ( 'NONE',  ( 0.0000000000000000000, 0.0000000000000000000, 0.0000000000000000000 ) ) ;
#109 = PRODUCT_DEFINITION_SHAPE ( 'NONE', 'NONE',  #240 ) ;
#110 = DIRECTION ( 'NONE',  ( 1.224646799147353454E-16, 0.0000000000000000000, 1.000000000000000000 ) ) ;
#111 = STYLED_ITEM ( 'NONE', ( #32 ), #283 ) ;
#112 =( NAMED_UNIT ( * ) PLANE_ANGLE_UNIT ( ) SI_UNIT ( $, .RADIAN. ) );
#113 =( LENGTH_UNIT ( ) NAMED_UNIT ( * ) SI_UNIT ( $, .METRE. ) );
#114 = CIRCLE ( 'NONE', #297, 0.04750000000000064587 ) ;
#115 = APPLICATION_CONTEXT ( 'automotive_design' ) ;
#116 = LINE ( 'NONE', #170, #127 ) ;
#117 = PRODUCT_CONTEXT ( 'NONE', #115, 'mechanical' ) ;
#118 = AXIS2_PLACEMENT_3D ( 'NONE', #298, #28, #277 ) ;
#119 = VERTEX_POINT ( 'NONE', #200 ) ;
#120 = DIRECTION ( 'NONE',  ( 0.0000000000000000000, 0.0000000000000000000, -1.000000000000000000 ) ) ;
#121 = ADVANCED_FACE ( 'NONE', ( #62 ), #199, .T. ) ;
#122 = EDGE_LOOP ( 'NONE', ( #80, #238, #189, #143 ) ) ;
#123 = ORIENTED_EDGE ( 'NONE', *, *, #101, .F. ) ;
#124 = CARTESIAN_POINT ( 'NONE',  ( 0.0000000000000000000, 0.0000000000000000000, 1.500000000000000222 ) ) ;
#125 = CARTESIAN_POINT ( 'NONE',  ( 0.0000000000000000000, 0.0000000000000000000, 1.500000000000000222 ) ) ;
#126 = FILL_AREA_STYLE_COLOUR ( '', #2 ) ;
#127 = VECTOR ( 'NONE', #214, 39.37007874015747433 ) ;
#128 = DIRECTION ( 'NONE',  ( -1.000000000000000000, 0.0000000000000000000, 0.0000000000000000000 ) ) ;
#129 = CARTESIAN_POINT ( 'NONE',  ( -0.03121874999999999997, 0.0000000000000000000, 7.646388452176288915E-18 ) ) ;
#130 = DIRECTION ( 'NONE',  ( 1.000000000000000000, 0.0000000000000000000, 0.0000000000000000000 ) ) ;
#131 = VERTEX_POINT ( 'NONE', #175 ) ;
#132 = CONICAL_SURFACE ( 'NONE', #47, 0.03121875000000000691, 0.1745329251994339192 ) ;
#133 =( GEOMETRIC_REPRESENTATION_CONTEXT ( 3 ) GLOBAL_UNCERTAINTY_ASSIGNED_CONTEXT ( ( #139 ) ) GLOBAL_UNIT_ASSIGNED_CONTEXT ( ( #136, #169, #162 ) ) REPRESENTATION_CONTEXT ( 'NONE', 'WORKASPACE' ) );
#134 = CARTESIAN_POINT ( 'NONE',  ( 1.530808498934191817E-17, 0.0000000000000000000, 0.1250000000000000000 ) ) ;
#135 = CIRCLE ( 'NONE', #53, 0.06250000000000000000 ) ;
#136 =( CONVERSION_BASED_UNIT ( 'INCH', #280 ) LENGTH_UNIT ( ) NAMED_UNIT ( #228 ) );
#137 = ADVANCED_FACE ( 'NONE', ( #221 ), #88, .T. ) ;
#138 = ORIENTED_EDGE ( 'NONE', *, *, #92, .F. ) ;
#139 = UNCERTAINTY_MEASURE_WITH_UNIT (LENGTH_MEASURE( 1.000000000000000082E-05 ), #136, 'distance_accuracy_value', 'NONE');
#140 = ORIENTED_EDGE ( 'NONE', *, *, #27, .T. ) ;
#141 = APPLICATION_CONTEXT ( 'automotive_design' ) ;
#142 = VECTOR ( 'NONE', #21, 39.37007874015748143 ) ;
#143 = ORIENTED_EDGE ( 'NONE', *, *, #299, .F. ) ;
#144 = ORIENTED_EDGE ( 'NONE', *, *, #273, .T. ) ;
#145 = VERTEX_POINT ( 'NONE', #220 ) ;
#146 = CYLINDRICAL_SURFACE ( 'NONE', #14, 0.06250000000000000000 ) ;
#147 = AXIS2_PLACEMENT_3D ( 'NONE', #106, #265, #69 ) ;
#148 = CARTESIAN_POINT ( 'NONE',  ( 0.0000000000000000000, 0.0000000000000000000, 0.0000000000000000000 ) ) ;
#149 = CARTESIAN_POINT ( 'NONE',  ( 1.530808498934191817E-17, 0.0000000000000000000, 0.1250000000000000000 ) ) ;
#150 = FILL_AREA_STYLE ('',( #126 ) ) ;
#151 = AXIS2_PLACEMENT_3D ( 'NONE', #108, #176, #84 ) ;
#152 = ADVANCED_FACE ( 'NONE', ( #87 ), #107, .F. ) ;
#153 = LINE ( 'NONE', #38, #174 ) ;
#154 =( CONVERSION_BASED_UNIT ( 'INCH', #203 ) LENGTH_UNIT ( ) NAMED_UNIT ( #260 ) );
#155 = PRESENTATION_STYLE_ASSIGNMENT (( #294 ) ) ;
#156 = CONICAL_SURFACE ( 'NONE', #73, 0.03121875000000000691, 0.1745329251994339192 ) ;
#157 = DIRECTION ( 'NONE',  ( -1.000000000000000000, 0.0000000000000000000, 0.0000000000000000000 ) ) ;
#158 = DIRECTION ( 'NONE',  ( -1.224646799147353454E-16, -0.0000000000000000000, -1.000000000000000000 ) ) ;
#159 = ORIENTED_EDGE ( 'NONE', *, *, #166, .F. ) ;
#160 = EDGE_CURVE ( 'NONE', #6, #262, #153, .T. ) ;
#161 =( GEOMETRIC_REPRESENTATION_CONTEXT ( 3 ) GLOBAL_UNCERTAINTY_ASSIGNED_CONTEXT ( ( #252 ) ) GLOBAL_UNIT_ASSIGNED_CONTEXT ( ( #154, #112, #9 ) ) REPRESENTATION_CONTEXT ( 'NONE', 'WORKASPACE' ) );
#162 =( NAMED_UNIT ( * ) SI_UNIT ( $, .STERADIAN. ) SOLID_ANGLE_UNIT ( ) );
#163 = VERTEX_POINT ( 'NONE', #16 ) ;
#164 = VERTEX_POINT ( 'NONE', #292 ) ;
#165 = SURFACE_STYLE_USAGE ( .BOTH. , #209 ) ;
#166 = EDGE_CURVE ( 'NONE', #6, #83, #97, .T. ) ;
#167 = EDGE_LOOP ( 'NONE', ( #100, #250, #99, #98 ) ) ;
#168 = ORIENTED_EDGE ( 'NONE', *, *, #230, .T. ) ;
#169 =( NAMED_UNIT ( * ) PLANE_ANGLE_UNIT ( ) SI_UNIT ( $, .RADIAN. ) );
#170 = CARTESIAN_POINT ( 'NONE',  ( -0.03121874999999998956, 3.823194226088144458E-18, 0.1250000000000000000 ) ) ;
#171 = DIRECTION ( 'NONE',  ( -1.000000000000000000, 0.0000000000000000000, 1.224646799147353207E-16 ) ) ;
#172 = CARTESIAN_POINT ( 'NONE',  ( -0.04750000000000064587, 0.0000000000000000000, 1.500000000000000222 ) ) ;
#173 = AXIS2_PLACEMENT_3D ( 'NONE', #259, #13, #12 ) ;
#174 = VECTOR ( 'NONE', #44, 39.37007874015748143 ) ;
#175 = CARTESIAN_POINT ( 'NONE',  ( -0.03121874999999998956, 5.738618360379551386E-18, 0.1250000000000000000 ) ) ;
#176 = DIRECTION ( 'NONE',  ( 0.0000000000000000000, 0.0000000000000000000, 1.000000000000000000 ) ) ;
#177 = EDGE_CURVE ( 'NONE', #83, #119, #219, .T. ) ;
#178 = CYLINDRICAL_SURFACE ( 'NONE', #24, 0.03121875000000000691 ) ;
#179 = VECTOR ( 'NONE', #244, 39.37007874015748143 ) ;
#180 = CARTESIAN_POINT ( 'NONE',  ( 3.703390512866948185E-17, 0.0000000000000000000, 0.3024047844199154178 ) ) ;
#181 = CARTESIAN_POINT ( 'NONE',  ( 0.0000000000000000000, 0.0000000000000000000, 1.500000000000000222 ) ) ;
#182 = LENGTH_MEASURE_WITH_UNIT ( LENGTH_MEASURE( 0.02539999999999999897 ), #113 );
#183 = CONICAL_SURFACE ( 'NONE', #192, 0.04750000000000064587, 0.7853981633974457255 ) ;
#184 = DIRECTION ( 'NONE',  ( -1.000000000000000000, 0.0000000000000000000, 1.224646799147353700E-16 ) ) ;
#185 = PRODUCT_RELATED_PRODUCT_CATEGORY ( 'part', '', ( #22 ) ) ;
#186 = EDGE_LOOP ( 'NONE', ( #55, #36, #79, #138 ) ) ;
#187 = AXIS2_PLACEMENT_3D ( 'NONE', #194, #65, #267 ) ;
#188 = DIMENSIONAL_EXPONENTS ( 1.000000000000000000, 0.0000000000000000000, 0.0000000000000000000, 0.0000000000000000000, 0.0000000000000000000, 0.0000000000000000000, 0.0000000000000000000 ) ;
#189 = ORIENTED_EDGE ( 'NONE', *, *, #276, .T. ) ;
#190 = EDGE_LOOP ( 'NONE', ( #56, #31 ) ) ;
#191 = ORIENTED_EDGE ( 'NONE', *, *, #160, .T. ) ;
#192 = AXIS2_PLACEMENT_3D ( 'NONE', #40, #229, #23 ) ;
#193 = ORIENTED_EDGE ( 'NONE', *, *, #276, .F. ) ;
#194 = CARTESIAN_POINT ( 'NONE',  ( 0.0000000000000000000, 0.0000000000000000000, 1.500000000000000222 ) ) ;
#195 = DIRECTION ( 'NONE',  ( 1.000000000000000000, 0.0000000000000000000, 0.0000000000000000000 ) ) ;
#196 = CARTESIAN_POINT ( 'NONE',  ( 0.03121875000000002426, 0.0000000000000000000, 0.1250000000000000000 ) ) ;
#197 = AXIS2_PLACEMENT_3D ( 'NONE', #205, #90, #253 ) ;
#198 = ADVANCED_FACE ( 'NONE', ( #66 ), #132, .T. ) ;
#199 = CYLINDRICAL_SURFACE ( 'NONE', #187, 0.06250000000000000000 ) ;
#200 = CARTESIAN_POINT ( 'NONE',  ( -0.06250000000000000000, 0.0000000000000000000, 1.485000000000000764 ) ) ;
#201 = DIRECTION ( 'NONE',  ( 1.000000000000000000, 0.0000000000000000000, 0.0000000000000000000 ) ) ;
#202 = AXIS2_PLACEMENT_3D ( 'NONE', #58, #120, #210 ) ;
#203 = LENGTH_MEASURE_WITH_UNIT ( LENGTH_MEASURE( 0.02539999999999999897 ), #70 );
#204 =( NAMED_UNIT ( * ) SI_UNIT ( $, .STERADIAN. ) SOLID_ANGLE_UNIT ( ) );
#205 = CARTESIAN_POINT ( 'NONE',  ( 0.0000000000000000000, 0.0000000000000000000, 1.500000000000000222 ) ) ;
#206 = VECTOR ( 'NONE', #1, 39.37007874015748143 ) ;
#207 = CARTESIAN_POINT ( 'NONE',  ( 0.0000000000000000000, 0.0000000000000000000, 1.485000000000000764 ) ) ;
#208 = MANIFOLD_SOLID_BREP ( 'Cut-Revolve1', #57 ) ;
#209 = SURFACE_SIDE_STYLE ('',( #234 ) ) ;
#210 = DIRECTION ( 'NONE',  ( 1.000000000000000000, 0.0000000000000000000, 0.0000000000000000000 ) ) ;
#211 = PRODUCT_DEFINITION_CONTEXT ( 'detailed design', #141, 'design' ) ;
#212 = ORIENTED_EDGE ( 'NONE', *, *, #286, .T. ) ;
#213 =( LENGTH_UNIT ( ) NAMED_UNIT ( * ) SI_UNIT ( $, .METRE. ) );
#214 = DIRECTION ( 'NONE',  ( -0.1736481776669312194, 2.126576849575783625E-17, 0.9848077530122080203 ) ) ;
#215 = SHAPE_DEFINITION_REPRESENTATION ( #109, #283 ) ;
#216 = CYLINDRICAL_SURFACE ( 'NONE', #173, 0.03121875000000000691 ) ;
#217 = ADVANCED_FACE ( 'NONE', ( #279 ), #183, .T. ) ;
#218 = ORIENTED_EDGE ( 'NONE', *, *, #76, .F. ) ;
#219 = LINE ( 'NONE', #172, #103 ) ;
#220 = CARTESIAN_POINT ( 'NONE',  ( 0.03121874999999999997, 3.823194226088143687E-18, -4.739000847409537175E-34 ) ) ;
#221 = FACE_OUTER_BOUND ( 'NONE', #190, .T. ) ;
#222 = AXIS2_PLACEMENT_3D ( 'NONE', #227, #296, #157 ) ;
#223 = SURFACE_SIDE_STYLE ('',( #247 ) ) ;
#224 = DIRECTION ( 'NONE',  ( 1.000000000000000000, 0.0000000000000000000, 0.0000000000000000000 ) ) ;
#225 = ORIENTED_EDGE ( 'NONE', *, *, #273, .F. ) ;
#226 = AXIS2_PLACEMENT_3D ( 'NONE', #290, #17, #271 ) ;
#227 = CARTESIAN_POINT ( 'NONE',  ( 1.530808498934191817E-17, 0.0000000000000000000, 0.1250000000000000000 ) ) ;
#228 = DIMENSIONAL_EXPONENTS ( 1.000000000000000000, 0.0000000000000000000, 0.0000000000000000000, 0.0000000000000000000, 0.0000000000000000000, 0.0000000000000000000, 0.0000000000000000000 ) ;
#229 = DIRECTION ( 'NONE',  ( 0.0000000000000000000, 0.0000000000000000000, -1.000000000000000000 ) ) ;
#230 = EDGE_CURVE ( 'NONE', #145, #50, #78, .T. ) ;
#231 = AXIS2_PLACEMENT_3D ( 'NONE', #89, #93, #184 ) ;
#232 = FILL_AREA_STYLE_COLOUR ( '', #242 ) ;
#233 = EDGE_LOOP ( 'NONE', ( #159, #191, #284, #288 ) ) ;
#234 = SURFACE_STYLE_FILL_AREA ( #54 ) ;
#235 = ADVANCED_FACE ( 'NONE', ( #26 ), #237, .T. ) ;
#236 = ORIENTED_EDGE ( 'NONE', *, *, #71, .T. ) ;
#237 = CONICAL_SURFACE ( 'NONE', #197, 0.04750000000000064587, 0.7853981633974457255 ) ;
#238 = ORIENTED_EDGE ( 'NONE', *, *, #268, .T. ) ;
#239 = CARTESIAN_POINT ( 'NONE',  ( -0.06249999999999996531, 0.0000000000000000000, 0.3024047844199154178 ) ) ;
#240 = PRODUCT_DEFINITION ( 'UNKNOWN', '', #291, #211 ) ;
#241 = ORIENTED_EDGE ( 'NONE', *, *, #34, .F. ) ;
#242 = COLOUR_RGB ( '',0.7921568627450980005, 0.8196078431372548767, 0.9333333333333333481 ) ;
#243 = CARTESIAN_POINT ( 'NONE',  ( -0.03121875000000000691, 0.0000000000000000000, 3.823194226088144458E-18 ) ) ;
#244 = DIRECTION ( 'NONE',  ( -0.0000000000000000000, -0.0000000000000000000, -1.000000000000000000 ) ) ;
#245 = EDGE_CURVE ( 'NONE', #83, #6, #114, .T. ) ;
#246 = DIRECTION ( 'NONE',  ( 1.224646799147353454E-16, 0.0000000000000000000, 1.000000000000000000 ) ) ;
#247 = SURFACE_STYLE_FILL_AREA ( #150 ) ;
#248 = VECTOR ( 'NONE', #20, 39.37007874015748143 ) ;
#249 = DIRECTION ( 'NONE',  ( 1.000000000000000000, 0.0000000000000000000, -0.0000000000000000000 ) ) ;
#250 = ORIENTED_EDGE ( 'NONE', *, *, #245, .F. ) ;
#251 = CIRCLE ( 'NONE', #147, 0.06250000000000000000 ) ;
#252 = UNCERTAINTY_MEASURE_WITH_UNIT (LENGTH_MEASURE( 1.000000000000000082E-05 ), #154, 'distance_accuracy_value', 'NONE');
#253 = DIRECTION ( 'NONE',  ( -1.000000000000000000, 0.0000000000000000000, 0.0000000000000000000 ) ) ;
#254 = DIRECTION ( 'NONE',  ( 0.0000000000000000000, 0.0000000000000000000, 1.000000000000000000 ) ) ;
#255 = EDGE_LOOP ( 'NONE', ( #241, #225, #95, #45 ) ) ;
#256 = UNCERTAINTY_MEASURE_WITH_UNIT (LENGTH_MEASURE( 1.000000000000000082E-05 ), #3, 'distance_accuracy_value', 'NONE');
#257 = ADVANCED_FACE ( 'NONE', ( #52 ), #156, .T. ) ;
#258 = EDGE_LOOP ( 'NONE', ( #212, #168 ) ) ;
#259 = CARTESIAN_POINT ( 'NONE',  ( 0.0000000000000000000, 0.0000000000000000000, 0.0000000000000000000 ) ) ;
#260 = DIMENSIONAL_EXPONENTS ( 1.000000000000000000, 0.0000000000000000000, 0.0000000000000000000, 0.0000000000000000000, 0.0000000000000000000, 0.0000000000000000000, 0.0000000000000000000 ) ;
#261 = CIRCLE ( 'NONE', #231, 0.03121874999999999997 ) ;
#262 = VERTEX_POINT ( 'NONE', #72 ) ;
#263 = DIRECTION ( 'NONE',  ( 1.000000000000000000, 0.0000000000000000000, 0.0000000000000000000 ) ) ;
#264 = ORIENTED_EDGE ( 'NONE', *, *, #286, .F. ) ;
#265 = DIRECTION ( 'NONE',  ( -1.224646799147353454E-16, -0.0000000000000000000, -1.000000000000000000 ) ) ;
#266 = AXIS2_PLACEMENT_3D ( 'NONE', #124, #270, #195 ) ;
#267 = DIRECTION ( 'NONE',  ( -1.000000000000000000, 0.0000000000000000000, 0.0000000000000000000 ) ) ;
#268 = EDGE_CURVE ( 'NONE', #262, #119, #18, .T. ) ;
#269 = DIRECTION ( 'NONE',  ( -0.7071067811865456854, 0.0000000000000000000, -0.7071067811865493491 ) ) ;
#270 = DIRECTION ( 'NONE',  ( 0.0000000000000000000, 0.0000000000000000000, 1.000000000000000000 ) ) ;
#271 = DIRECTION ( 'NONE',  ( -1.000000000000000000, 0.0000000000000000000, 0.0000000000000000000 ) ) ;
#272 = VECTOR ( 'NONE', #75, 39.37007874015748143 ) ;
#273 = EDGE_CURVE ( 'NONE', #163, #131, #68, .T. ) ;
#274 = DIRECTION ( 'NONE',  ( 1.000000000000000000, 0.0000000000000000000, 0.0000000000000000000 ) ) ;
#275 = LINE ( 'NONE', #49, #206 ) ;
#276 = EDGE_CURVE ( 'NONE', #119, #35, #275, .T. ) ;
#277 = DIRECTION ( 'NONE',  ( -1.000000000000000000, 0.0000000000000000000, 1.224646799147353700E-16 ) ) ;
#278 = LINE ( 'NONE', #29, #272 ) ;
#279 = FACE_OUTER_BOUND ( 'NONE', #167, .T. ) ;
#280 = LENGTH_MEASURE_WITH_UNIT ( LENGTH_MEASURE( 0.02539999999999999897 ), #213 );
#281 = ORIENTED_EDGE ( 'NONE', *, *, #295, .T. ) ;
#282 = PRESENTATION_LAYER_ASSIGNMENT (  '', '', ( #111 ) ) ;
#283 = ADVANCED_BREP_SHAPE_REPRESENTATION ( 'Micro_SEM-062-04', ( #208, #19 ), #161 ) ;
#284 = ORIENTED_EDGE ( 'NONE', *, *, #27, .F. ) ;
#285 = EDGE_LOOP ( 'NONE', ( #10, #144, #82, #37 ) ) ;
#286 = EDGE_CURVE ( 'NONE', #50, #145, #261, .T. ) ;
#287 = FACE_OUTER_BOUND ( 'NONE', #25, .T. ) ;
#288 = ORIENTED_EDGE ( 'NONE', *, *, #177, .F. ) ;
#289 = DIRECTION ( 'NONE',  ( 0.0000000000000000000, 0.0000000000000000000, 1.000000000000000000 ) ) ;
#290 = CARTESIAN_POINT ( 'NONE',  ( 1.530808498934191817E-17, 0.0000000000000000000, 0.1250000000000000000 ) ) ;
#291 = PRODUCT_DEFINITION_FORMATION_WITH_SPECIFIED_SOURCE ( 'ANY', '', #22, .NOT_KNOWN. ) ;
#292 = CARTESIAN_POINT ( 'NONE',  ( 0.06250000000000002776, 7.654042494670959086E-18, 0.3024047844199154178 ) ) ;
#293 = DIRECTION ( 'NONE',  ( -0.0000000000000000000, -0.0000000000000000000, -1.000000000000000000 ) ) ;
#294 = SURFACE_STYLE_USAGE ( .BOTH. , #223 ) ;
#295 = EDGE_CURVE ( 'NONE', #163, #145, #278, .T. ) ;
#296 = DIRECTION ( 'NONE',  ( -1.224646799147353454E-16, -0.0000000000000000000, -1.000000000000000000 ) ) ;
#297 = AXIS2_PLACEMENT_3D ( 'NONE', #181, #77, #130 ) ;
#298 = CARTESIAN_POINT ( 'NONE',  ( 4.682062571497488738E-34, 0.0000000000000000000, 3.823194226088144458E-18 ) ) ;
#299 = EDGE_CURVE ( 'NONE', #164, #35, #135, .T. ) ;
ENDSEC;
END-ISO-10303-21;
