ISO-10303-21;
HEADER;
FILE_DESCRIPTION (( 'STEP AP214' ),
    '1' );
FILE_NAME ('Micro_GEM-109-2.STEP',
    '2021-09-01T19:23:25',
    ( '' ),
    ( '' ),
    'SwSTEP 2.0',
    'SolidWorks 2020',
    '' );
FILE_SCHEMA (( 'AUTOMOTIVE_DESIGN' ));
ENDSEC;

DATA;
#1 = AXIS2_PLACEMENT_3D ( 'NONE', #294, #177, #157 ) ;
#2 = DIRECTION ( 'NONE',  ( 1.224646799147353700E-16, 0.0000000000000000000, 1.000000000000000000 ) ) ;
#3 = EDGE_CURVE ( 'NONE', #277, #229, #72, .T. ) ;
#4 = CARTESIAN_POINT ( 'NONE',  ( 0.0000000000000000000, 0.0000000000000000000, 1.500000000000000222 ) ) ;
#5 = APPLICATION_CONTEXT ( 'automotive_design' ) ;
#6 = DIRECTION ( 'NONE',  ( 1.000000000000000000, 0.0000000000000000000, 0.0000000000000000000 ) ) ;
#7 = LENGTH_MEASURE_WITH_UNIT ( LENGTH_MEASURE( 0.02539999999999999897 ), #283 );
#8 = APPLICATION_CONTEXT ( 'automotive_design' ) ;
#9 = FACE_OUTER_BOUND ( 'NONE', #89, .T. ) ;
#10 = VERTEX_POINT ( 'NONE', #140 ) ;
#11 = SURFACE_STYLE_FILL_AREA ( #65 ) ;
#12 = AXIS2_PLACEMENT_3D ( 'NONE', #4, #99, #75 ) ;
#13 = ORIENTED_EDGE ( 'NONE', *, *, #119, .T. ) ;
#14 =( NAMED_UNIT ( * ) SI_UNIT ( $, .STERADIAN. ) SOLID_ANGLE_UNIT ( ) );
#15 = ORIENTED_EDGE ( 'NONE', *, *, #200, .T. ) ;
#16 = SURFACE_SIDE_STYLE ('',( #11 ) ) ;
#17 = LINE ( 'NONE', #161, #64 ) ;
#18 = ORIENTED_EDGE ( 'NONE', *, *, #210, .F. ) ;
#19 = DIRECTION ( 'NONE',  ( 1.000000000000000000, 0.0000000000000000000, 0.0000000000000000000 ) ) ;
#20 = EDGE_LOOP ( 'NONE', ( #180, #190, #211, #204 ) ) ;
#21 = ORIENTED_EDGE ( 'NONE', *, *, #191, .T. ) ;
#22 = DIRECTION ( 'NONE',  ( 0.0000000000000000000, 0.0000000000000000000, 1.000000000000000000 ) ) ;
#23 = DIRECTION ( 'NONE',  ( -0.0000000000000000000, -0.0000000000000000000, -1.000000000000000000 ) ) ;
#24 = AXIS2_PLACEMENT_3D ( 'NONE', #29, #172, #124 ) ;
#25 =( NAMED_UNIT ( * ) PLANE_ANGLE_UNIT ( ) SI_UNIT ( $, .RADIAN. ) );
#26 = ADVANCED_FACE ( 'NONE', ( #236 ), #121, .F. ) ;
#27 = FACE_OUTER_BOUND ( 'NONE', #66, .T. ) ;
#28 = ADVANCED_FACE ( 'NONE', ( #159 ), #38, .T. ) ;
#29 = CARTESIAN_POINT ( 'NONE',  ( 0.0000000000000000000, 0.0000000000000000000, 1.500000000000000222 ) ) ;
#30 = CARTESIAN_POINT ( 'NONE',  ( -0.05464529999999999388, 0.0000000000000000000, 1.338423834668937635E-17 ) ) ;
#31 = FACE_OUTER_BOUND ( 'NONE', #268, .T. ) ;
#32 = DIRECTION ( 'NONE',  ( 1.000000000000000000, 0.0000000000000000000, 0.0000000000000000000 ) ) ;
#33 = FILL_AREA_STYLE_COLOUR ( '', #262 ) ;
#34 = DIRECTION ( 'NONE',  ( -1.000000000000000000, 0.0000000000000000000, 1.224646799147353700E-16 ) ) ;
#35 = DIRECTION ( 'NONE',  ( -1.000000000000000000, 0.0000000000000000000, 0.0000000000000000000 ) ) ;
#36 = DIRECTION ( 'NONE',  ( 0.0000000000000000000, 0.0000000000000000000, -1.000000000000000000 ) ) ;
#37 = DIRECTION ( 'NONE',  ( 0.1736481776669313581, 0.0000000000000000000, 0.9848077530122077983 ) ) ;
#38 = CONICAL_SURFACE ( 'NONE', #147, 0.05464529999999999388, 0.1745329251994338637 ) ;
#39 = ORIENTED_EDGE ( 'NONE', *, *, #265, .F. ) ;
#40 = ORIENTED_EDGE ( 'NONE', *, *, #256, .T. ) ;
#41 = CYLINDRICAL_SURFACE ( 'NONE', #234, 0.05464529999999999388 ) ;
#42 = ADVANCED_FACE ( 'NONE', ( #27 ), #57, .T. ) ;
#43 = ORIENTED_EDGE ( 'NONE', *, *, #104, .T. ) ;
#44 = PRODUCT ( 'Micro_GEM-109-2', 'Micro_GEM-109-2', '', ( #48 ) ) ;
#45 = EDGE_LOOP ( 'NONE', ( #88, #39, #116, #43 ) ) ;
#46 = CIRCLE ( 'NONE', #78, 0.06250000000000002776 ) ;
#47 = ORIENTED_EDGE ( 'NONE', *, *, #86, .T. ) ;
#48 = PRODUCT_CONTEXT ( 'NONE', #8, 'mechanical' ) ;
#49 = EDGE_LOOP ( 'NONE', ( #209, #297, #275, #238 ) ) ;
#50 = VECTOR ( 'NONE', #23, 39.37007874015748143 ) ;
#51 = CARTESIAN_POINT ( 'NONE',  ( 0.0000000000000000000, 0.0000000000000000000, 1.500000000000000222 ) ) ;
#52 = DIRECTION ( 'NONE',  ( 0.0000000000000000000, 0.0000000000000000000, 1.000000000000000000 ) ) ;
#53 = FACE_OUTER_BOUND ( 'NONE', #141, .T. ) ;
#54 = CYLINDRICAL_SURFACE ( 'NONE', #197, 0.05464529999999999388 ) ;
#55 = FILL_AREA_STYLE ('',( #33 ) ) ;
#56 = ADVANCED_FACE ( 'NONE', ( #216 ), #224, .T. ) ;
#57 = CONICAL_SURFACE ( 'NONE', #12, 0.04750000000000064587, 0.7853981633974466137 ) ;
#58 =( NAMED_UNIT ( * ) PLANE_ANGLE_UNIT ( ) SI_UNIT ( $, .RADIAN. ) );
#59 = AXIS2_PLACEMENT_3D ( 'NONE', #151, #287, #105 ) ;
#60 = FILL_AREA_STYLE_COLOUR ( '', #214 ) ;
#61 = APPLICATION_PROTOCOL_DEFINITION ( 'draft international standard', 'automotive_design', 1998, #8 ) ;
#62 = ORIENTED_EDGE ( 'NONE', *, *, #84, .T. ) ;
#63 =( CONVERSION_BASED_UNIT ( 'INCH', #266 ) LENGTH_UNIT ( ) NAMED_UNIT ( #290 ) );
#64 = VECTOR ( 'NONE', #276, 39.37007874015748143 ) ;
#65 = FILL_AREA_STYLE ('',( #60 ) ) ;
#66 = EDGE_LOOP ( 'NONE', ( #136, #186, #227, #237 ) ) ;
#67 = MANIFOLD_SOLID_BREP ( 'Cut-Revolve1', #130 ) ;
#68 = CARTESIAN_POINT ( 'NONE',  ( 0.0000000000000000000, 0.0000000000000000000, 1.485000000000000764 ) ) ;
#69 = EDGE_LOOP ( 'NONE', ( #18, #62, #230, #252 ) ) ;
#70 = ADVANCED_FACE ( 'NONE', ( #31 ), #125, .T. ) ;
#71 = AXIS2_PLACEMENT_3D ( 'NONE', #109, #82, #35 ) ;
#72 = LINE ( 'NONE', #137, #50 ) ;
#73 =( GEOMETRIC_REPRESENTATION_CONTEXT ( 3 ) GLOBAL_UNCERTAINTY_ASSIGNED_CONTEXT ( ( #231 ) ) GLOBAL_UNIT_ASSIGNED_CONTEXT ( ( #63, #58, #14 ) ) REPRESENTATION_CONTEXT ( 'NONE', 'WORKASPACE' ) );
#74 = DIRECTION ( 'NONE',  ( -0.1736481776669311639, 2.126576849575783008E-17, 0.9848077530122080203 ) ) ;
#75 = DIRECTION ( 'NONE',  ( -1.000000000000000000, 0.0000000000000000000, 0.0000000000000000000 ) ) ;
#76 = CYLINDRICAL_SURFACE ( 'NONE', #201, 0.06250000000000002776 ) ;
#77 = DIRECTION ( 'NONE',  ( 1.000000000000000000, 0.0000000000000000000, -0.0000000000000000000 ) ) ;
#78 = AXIS2_PLACEMENT_3D ( 'NONE', #223, #83, #202 ) ;
#79 = CARTESIAN_POINT ( 'NONE',  ( -0.05464529999999999388, 0.0000000000000000000, 6.692119173344688177E-18 ) ) ;
#80 = DIRECTION ( 'NONE',  ( -1.224646799147353700E-16, -0.0000000000000000000, -1.000000000000000000 ) ) ;
#81 = DIRECTION ( 'NONE',  ( -1.000000000000000000, 0.0000000000000000000, 0.0000000000000000000 ) ) ;
#82 = DIRECTION ( 'NONE',  ( -1.224646799147353700E-16, -0.0000000000000000000, -1.000000000000000000 ) ) ;
#83 = DIRECTION ( 'NONE',  ( 0.0000000000000000000, 0.0000000000000000000, -1.000000000000000000 ) ) ;
#84 = EDGE_CURVE ( 'NONE', #255, #229, #175, .T. ) ;
#85 = CIRCLE ( 'NONE', #139, 0.06250000000000002776 ) ;
#86 = EDGE_CURVE ( 'NONE', #10, #260, #170, .T. ) ;
#87 = LINE ( 'NONE', #155, #183 ) ;
#88 = ORIENTED_EDGE ( 'NONE', *, *, #84, .F. ) ;
#89 = EDGE_LOOP ( 'NONE', ( #166, #13, #154, #272 ) ) ;
#90 = AXIS2_PLACEMENT_3D ( 'NONE', #68, #163, #235 ) ;
#91 = ORIENTED_EDGE ( 'NONE', *, *, #119, .F. ) ;
#92 = CARTESIAN_POINT ( 'NONE',  ( 0.0000000000000000000, 0.0000000000000000000, 0.0000000000000000000 ) ) ;
#93 = ADVANCED_FACE ( 'NONE', ( #53 ), #241, .T. ) ;
#94 = AXIS2_PLACEMENT_3D ( 'NONE', #243, #2, #6 ) ;
#95 = CIRCLE ( 'NONE', #261, 0.06250000000000002776 ) ;
#96 = AXIS2_PLACEMENT_3D ( 'NONE', #259, #22, #185 ) ;
#97 = ADVANCED_FACE ( 'NONE', ( #132 ), #54, .T. ) ;
#98 = CARTESIAN_POINT ( 'NONE',  ( 0.0000000000000000000, 0.0000000000000000000, 1.500000000000000222 ) ) ;
#99 = DIRECTION ( 'NONE',  ( 0.0000000000000000000, 0.0000000000000000000, -1.000000000000000000 ) ) ;
#100 = EDGE_CURVE ( 'NONE', #134, #164, #245, .T. ) ;
#101 = SURFACE_STYLE_FILL_AREA ( #55 ) ;
#102 = CIRCLE ( 'NONE', #59, 0.05464529999999999388 ) ;
#103 = DIRECTION ( 'NONE',  ( -1.224646799147353700E-16, -0.0000000000000000000, -1.000000000000000000 ) ) ;
#104 = EDGE_CURVE ( 'NONE', #260, #229, #85, .T. ) ;
#105 = DIRECTION ( 'NONE',  ( -1.000000000000000000, 0.0000000000000000000, 1.224646799147353700E-16 ) ) ;
#106 = CARTESIAN_POINT ( 'NONE',  ( 0.0000000000000000000, 0.0000000000000000000, 0.0000000000000000000 ) ) ;
#107 = DIMENSIONAL_EXPONENTS ( 1.000000000000000000, 0.0000000000000000000, 0.0000000000000000000, 0.0000000000000000000, 0.0000000000000000000, 0.0000000000000000000, 0.0000000000000000000 ) ;
#108 = PRESENTATION_LAYER_ASSIGNMENT (  '', '', ( #114 ) ) ;
#109 = CARTESIAN_POINT ( 'NONE',  ( 4.592425496802576684E-17, 0.0000000000000000000, 0.3750000000000000555 ) ) ;
#110 = ORIENTED_EDGE ( 'NONE', *, *, #176, .F. ) ;
#111 = LINE ( 'NONE', #288, #144 ) ;
#112 = ORIENTED_EDGE ( 'NONE', *, *, #3, .F. ) ;
#113 = PRODUCT_DEFINITION_CONTEXT ( 'detailed design', #5, 'design' ) ;
#114 = STYLED_ITEM ( 'NONE', ( #218 ), #67 ) ;
#115 = STYLED_ITEM ( 'NONE', ( #249 ), #174 ) ;
#116 = ORIENTED_EDGE ( 'NONE', *, *, #148, .T. ) ;
#117 = CIRCLE ( 'NONE', #71, 0.05464529999999999388 ) ;
#118 = VERTEX_POINT ( 'NONE', #182 ) ;
#119 = EDGE_CURVE ( 'NONE', #184, #134, #17, .T. ) ;
#120 = APPLICATION_PROTOCOL_DEFINITION ( 'draft international standard', 'automotive_design', 1998, #5 ) ;
#121 = PLANE ( 'NONE',  #220 ) ;
#122 = VECTOR ( 'NONE', #282, 39.37007874015748143 ) ;
#123 = CARTESIAN_POINT ( 'NONE',  ( 0.0000000000000000000, 0.0000000000000000000, 1.500000000000000222 ) ) ;
#124 = DIRECTION ( 'NONE',  ( -1.000000000000000000, 0.0000000000000000000, 0.0000000000000000000 ) ) ;
#125 = PLANE ( 'NONE',  #239 ) ;
#126 = CARTESIAN_POINT ( 'NONE',  ( 0.0000000000000000000, 0.0000000000000000000, 1.500000000000000222 ) ) ;
#127 = SURFACE_STYLE_USAGE ( .BOTH. , #173 ) ;
#128 = DIRECTION ( 'NONE',  ( -1.224646799147353700E-16, -0.0000000000000000000, -1.000000000000000000 ) ) ;
#129 = CARTESIAN_POINT ( 'NONE',  ( 8.195482325149207809E-34, 0.0000000000000000000, 6.692119173344688177E-18 ) ) ;
#130 = CLOSED_SHELL ( 'NONE', ( #248, #28, #293, #93, #179, #70, #42, #56, #97, #26 ) ) ;
#131 = VECTOR ( 'NONE', #128, 39.37007874015748143 ) ;
#132 = FACE_OUTER_BOUND ( 'NONE', #295, .T. ) ;
#133 =( LENGTH_UNIT ( ) NAMED_UNIT ( * ) SI_UNIT ( $, .METRE. ) );
#134 = VERTEX_POINT ( 'NONE', #270 ) ;
#135 = PRODUCT_RELATED_PRODUCT_CATEGORY ( 'part', '', ( #44 ) ) ;
#136 = ORIENTED_EDGE ( 'NONE', *, *, #247, .F. ) ;
#137 = CARTESIAN_POINT ( 'NONE',  ( -0.06250000000000002776, 0.0000000000000000000, 1.500000000000000222 ) ) ;
#138 = UNCERTAINTY_MEASURE_WITH_UNIT (LENGTH_MEASURE( 1.000000000000000082E-05 ), #198, 'distance_accuracy_value', 'NONE');
#139 = AXIS2_PLACEMENT_3D ( 'NONE', #222, #199, #156 ) ;
#140 = CARTESIAN_POINT ( 'NONE',  ( 0.06250000000000002776, 7.654042494670959086E-18, 1.485000000000000764 ) ) ;
#141 = EDGE_LOOP ( 'NONE', ( #40, #47, #110, #112 ) ) ;
#142 = DIRECTION ( 'NONE',  ( -0.0000000000000000000, -0.0000000000000000000, -1.000000000000000000 ) ) ;
#143 = ORIENTED_EDGE ( 'NONE', *, *, #265, .T. ) ;
#144 = VECTOR ( 'NONE', #203, 39.37007874015748854 ) ;
#145 = CARTESIAN_POINT ( 'NONE',  ( 0.04750000000000064587, 6.735557395310483192E-18, 1.500000000000000222 ) ) ;
#146 = EDGE_CURVE ( 'NONE', #10, #277, #225, .T. ) ;
#147 = AXIS2_PLACEMENT_3D ( 'NONE', #251, #264, #240 ) ;
#148 = EDGE_CURVE ( 'NONE', #184, #260, #267, .T. ) ;
#149 =( GEOMETRIC_REPRESENTATION_CONTEXT ( 3 ) GLOBAL_UNCERTAINTY_ASSIGNED_CONTEXT ( ( #138 ) ) GLOBAL_UNIT_ASSIGNED_CONTEXT ( ( #198, #25, #192 ) ) REPRESENTATION_CONTEXT ( 'NONE', 'WORKASPACE' ) );
#150 = DIRECTION ( 'NONE',  ( 0.0000000000000000000, 0.0000000000000000000, 1.000000000000000000 ) ) ;
#151 = CARTESIAN_POINT ( 'NONE',  ( 8.195482325149207809E-34, 0.0000000000000000000, 6.692119173344688177E-18 ) ) ;
#152 = CARTESIAN_POINT ( 'NONE',  ( 0.0000000000000000000, 0.0000000000000000000, 0.0000000000000000000 ) ) ;
#153 = CARTESIAN_POINT ( 'NONE',  ( -0.06249999999999997224, 0.0000000000000000000, 0.4195462173085511837 ) ) ;
#154 = ORIENTED_EDGE ( 'NONE', *, *, #200, .F. ) ;
#155 = CARTESIAN_POINT ( 'NONE',  ( -0.04750000000000064587, 0.0000000000000000000, 1.500000000000000222 ) ) ;
#156 = DIRECTION ( 'NONE',  ( 1.000000000000000000, 0.0000000000000000000, 0.0000000000000000000 ) ) ;
#157 = DIRECTION ( 'NONE',  ( -1.000000000000000000, 0.0000000000000000000, 0.0000000000000000000 ) ) ;
#158 = AXIS2_PLACEMENT_3D ( 'NONE', #129, #219, #286 ) ;
#159 = FACE_OUTER_BOUND ( 'NONE', #69, .T. ) ;
#160 = SURFACE_STYLE_USAGE ( .BOTH. , #16 ) ;
#161 = CARTESIAN_POINT ( 'NONE',  ( 0.05464529999999999388, 6.692119173344685866E-18, -6.692119173344688177E-18 ) ) ;
#162 = FACE_OUTER_BOUND ( 'NONE', #20, .T. ) ;
#163 = DIRECTION ( 'NONE',  ( 0.0000000000000000000, 0.0000000000000000000, -1.000000000000000000 ) ) ;
#164 = VERTEX_POINT ( 'NONE', #30 ) ;
#165 = VECTOR ( 'NONE', #37, 39.37007874015748143 ) ;
#166 = ORIENTED_EDGE ( 'NONE', *, *, #210, .T. ) ;
#167 = AXIS2_PLACEMENT_3D ( 'NONE', #51, #150, #32 ) ;
#168 =( NAMED_UNIT ( * ) SI_UNIT ( $, .STERADIAN. ) SOLID_ANGLE_UNIT ( ) );
#169 =( NAMED_UNIT ( * ) PLANE_ANGLE_UNIT ( ) SI_UNIT ( $, .RADIAN. ) );
#170 = LINE ( 'NONE', #195, #122 ) ;
#171 = AXIS2_PLACEMENT_3D ( 'NONE', #126, #217, #19 ) ;
#172 = DIRECTION ( 'NONE',  ( -0.0000000000000000000, -0.0000000000000000000, -1.000000000000000000 ) ) ;
#173 = SURFACE_SIDE_STYLE ('',( #101 ) ) ;
#174 = ADVANCED_BREP_SHAPE_REPRESENTATION ( 'Micro_GEM-109-2', ( #67, #96 ), #73 ) ;
#175 = LINE ( 'NONE', #242, #221 ) ;
#176 = EDGE_CURVE ( 'NONE', #229, #260, #95, .T. ) ;
#177 = DIRECTION ( 'NONE',  ( -1.224646799147353700E-16, -0.0000000000000000000, -1.000000000000000000 ) ) ;
#178 = CIRCLE ( 'NONE', #171, 0.04750000000000064587 ) ;
#179 = ADVANCED_FACE ( 'NONE', ( #162 ), #76, .T. ) ;
#180 = ORIENTED_EDGE ( 'NONE', *, *, #86, .F. ) ;
#181 = DIRECTION ( 'NONE',  ( -0.7071067811865462405, 0.0000000000000000000, -0.7071067811865486830 ) ) ;
#182 = CARTESIAN_POINT ( 'NONE',  ( -0.04750000000000064587, 0.0000000000000000000, 1.500000000000000222 ) ) ;
#183 = VECTOR ( 'NONE', #181, 39.37007874015748854 ) ;
#184 = VERTEX_POINT ( 'NONE', #271 ) ;
#185 = DIRECTION ( 'NONE',  ( 1.000000000000000000, 0.0000000000000000000, 0.0000000000000000000 ) ) ;
#186 = ORIENTED_EDGE ( 'NONE', *, *, #196, .F. ) ;
#187 = SHAPE_DEFINITION_REPRESENTATION ( #278, #174 ) ;
#188 = DIRECTION ( 'NONE',  ( 0.0000000000000000000, 0.0000000000000000000, 1.000000000000000000 ) ) ;
#189 = CONICAL_SURFACE ( 'NONE', #298, 0.04750000000000064587, 0.7853981633974466137 ) ;
#190 = ORIENTED_EDGE ( 'NONE', *, *, #146, .T. ) ;
#191 = EDGE_CURVE ( 'NONE', #207, #118, #193, .T. ) ;
#192 =( NAMED_UNIT ( * ) SI_UNIT ( $, .STERADIAN. ) SOLID_ANGLE_UNIT ( ) );
#193 = CIRCLE ( 'NONE', #167, 0.04750000000000064587 ) ;
#194 = EDGE_CURVE ( 'NONE', #255, #164, #299, .T. ) ;
#195 = CARTESIAN_POINT ( 'NONE',  ( 0.06250000000000002776, 7.654042494670959086E-18, 1.500000000000000222 ) ) ;
#196 = EDGE_CURVE ( 'NONE', #118, #207, #178, .T. ) ;
#197 = AXIS2_PLACEMENT_3D ( 'NONE', #152, #80, #34 ) ;
#198 =( CONVERSION_BASED_UNIT ( 'INCH', #232 ) LENGTH_UNIT ( ) NAMED_UNIT ( #107 ) );
#199 = DIRECTION ( 'NONE',  ( -1.224646799147353700E-16, -0.0000000000000000000, -1.000000000000000000 ) ) ;
#200 = EDGE_CURVE ( 'NONE', #164, #134, #102, .T. ) ;
#201 = AXIS2_PLACEMENT_3D ( 'NONE', #123, #142, #81 ) ;
#202 = DIRECTION ( 'NONE',  ( 1.000000000000000000, 0.0000000000000000000, 0.0000000000000000000 ) ) ;
#203 = DIRECTION ( 'NONE',  ( 0.7071067811865462405, 8.659560562354916834E-17, -0.7071067811865486830 ) ) ;
#204 = ORIENTED_EDGE ( 'NONE', *, *, #104, .F. ) ;
#205 = DIRECTION ( 'NONE',  ( 1.000000000000000000, 0.0000000000000000000, 0.0000000000000000000 ) ) ;
#206 = CARTESIAN_POINT ( 'NONE',  ( 0.0000000000000000000, 0.0000000000000000000, 1.500000000000000222 ) ) ;
#207 = VERTEX_POINT ( 'NONE', #145 ) ;
#208 = CIRCLE ( 'NONE', #1, 0.05464529999999999388 ) ;
#209 = ORIENTED_EDGE ( 'NONE', *, *, #191, .F. ) ;
#210 = EDGE_CURVE ( 'NONE', #255, #184, #208, .T. ) ;
#211 = ORIENTED_EDGE ( 'NONE', *, *, #3, .T. ) ;
#212 = ORIENTED_EDGE ( 'NONE', *, *, #194, .T. ) ;
#213 = PRODUCT_DEFINITION ( 'UNKNOWN', '', #281, #113 ) ;
#214 = COLOUR_RGB ( '',0.7921568627450980005, 0.8196078431372548767, 0.9333333333333333481 ) ;
#215 = DIRECTION ( 'NONE',  ( 1.000000000000000000, 0.0000000000000000000, -0.0000000000000000000 ) ) ;
#216 = FACE_OUTER_BOUND ( 'NONE', #45, .T. ) ;
#217 = DIRECTION ( 'NONE',  ( 0.0000000000000000000, 0.0000000000000000000, 1.000000000000000000 ) ) ;
#218 = PRESENTATION_STYLE_ASSIGNMENT (( #127 ) ) ;
#219 = DIRECTION ( 'NONE',  ( -1.224646799147353700E-16, -0.0000000000000000000, -1.000000000000000000 ) ) ;
#220 = AXIS2_PLACEMENT_3D ( 'NONE', #92, #188, #215 ) ;
#221 = VECTOR ( 'NONE', #74, 39.37007874015747433 ) ;
#222 = CARTESIAN_POINT ( 'NONE',  ( 5.137959321212973182E-17, 0.0000000000000000000, 0.4195462173085511837 ) ) ;
#223 = CARTESIAN_POINT ( 'NONE',  ( 0.0000000000000000000, 0.0000000000000000000, 1.485000000000000764 ) ) ;
#224 = CONICAL_SURFACE ( 'NONE', #94, 0.05464529999999999388, 0.1745329251994338637 ) ;
#225 = CIRCLE ( 'NONE', #90, 0.06250000000000002776 ) ;
#226 = DIRECTION ( 'NONE',  ( -1.000000000000000000, 0.0000000000000000000, 0.0000000000000000000 ) ) ;
#227 = ORIENTED_EDGE ( 'NONE', *, *, #296, .T. ) ;
#228 = CARTESIAN_POINT ( 'NONE',  ( 5.137959321212973182E-17, 0.0000000000000000000, 0.4195462173085511837 ) ) ;
#229 = VERTEX_POINT ( 'NONE', #153 ) ;
#230 = ORIENTED_EDGE ( 'NONE', *, *, #176, .T. ) ;
#231 = UNCERTAINTY_MEASURE_WITH_UNIT (LENGTH_MEASURE( 1.000000000000000082E-05 ), #63, 'distance_accuracy_value', 'NONE');
#232 = LENGTH_MEASURE_WITH_UNIT ( LENGTH_MEASURE( 0.02539999999999999897 ), #289 );
#233 = ORIENTED_EDGE ( 'NONE', *, *, #100, .T. ) ;
#234 = AXIS2_PLACEMENT_3D ( 'NONE', #106, #103, #292 ) ;
#235 = DIRECTION ( 'NONE',  ( 1.000000000000000000, 0.0000000000000000000, 0.0000000000000000000 ) ) ;
#236 = FACE_OUTER_BOUND ( 'NONE', #258, .T. ) ;
#237 = ORIENTED_EDGE ( 'NONE', *, *, #146, .F. ) ;
#238 = ORIENTED_EDGE ( 'NONE', *, *, #296, .F. ) ;
#239 = AXIS2_PLACEMENT_3D ( 'NONE', #98, #52, #77 ) ;
#240 = DIRECTION ( 'NONE',  ( 1.000000000000000000, 0.0000000000000000000, 0.0000000000000000000 ) ) ;
#241 = CYLINDRICAL_SURFACE ( 'NONE', #24, 0.06250000000000002776 ) ;
#242 = CARTESIAN_POINT ( 'NONE',  ( -0.05464529999999995225, 6.692119173344685866E-18, 0.3750000000000000555 ) ) ;
#243 = CARTESIAN_POINT ( 'NONE',  ( 4.592425496802576684E-17, 0.0000000000000000000, 0.3750000000000000555 ) ) ;
#244 =( CONVERSION_BASED_UNIT ( 'INCH', #7 ) LENGTH_UNIT ( ) NAMED_UNIT ( #284 ) );
#245 = CIRCLE ( 'NONE', #158, 0.05464529999999999388 ) ;
#246 = CARTESIAN_POINT ( 'NONE',  ( -0.05464529999999995225, 7.173080834007822861E-18, 0.3750000000000000555 ) ) ;
#247 = EDGE_CURVE ( 'NONE', #207, #10, #111, .T. ) ;
#248 = ADVANCED_FACE ( 'NONE', ( #9 ), #41, .T. ) ;
#249 = PRESENTATION_STYLE_ASSIGNMENT (( #160 ) ) ;
#250 = FACE_OUTER_BOUND ( 'NONE', #49, .T. ) ;
#251 = CARTESIAN_POINT ( 'NONE',  ( 4.592425496802576684E-17, 0.0000000000000000000, 0.3750000000000000555 ) ) ;
#252 = ORIENTED_EDGE ( 'NONE', *, *, #148, .F. ) ;
#253 = UNCERTAINTY_MEASURE_WITH_UNIT (LENGTH_MEASURE( 1.000000000000000082E-05 ), #244, 'distance_accuracy_value', 'NONE');
#254 = CARTESIAN_POINT ( 'NONE',  ( 0.05464530000000004245, 0.0000000000000000000, 0.3750000000000000555 ) ) ;
#255 = VERTEX_POINT ( 'NONE', #246 ) ;
#256 = EDGE_CURVE ( 'NONE', #277, #10, #46, .T. ) ;
#257 = PRESENTATION_LAYER_ASSIGNMENT (  '', '', ( #115 ) ) ;
#258 = EDGE_LOOP ( 'NONE', ( #15, #233 ) ) ;
#259 = CARTESIAN_POINT ( 'NONE',  ( 0.0000000000000000000, 0.0000000000000000000, 0.0000000000000000000 ) ) ;
#260 = VERTEX_POINT ( 'NONE', #269 ) ;
#261 = AXIS2_PLACEMENT_3D ( 'NONE', #228, #291, #205 ) ;
#262 = COLOUR_RGB ( '',0.7921568627450980005, 0.8196078431372548767, 0.9333333333333333481 ) ;
#263 = MECHANICAL_DESIGN_GEOMETRIC_PRESENTATION_REPRESENTATION (  '', ( #114 ), #285 ) ;
#264 = DIRECTION ( 'NONE',  ( 1.224646799147353700E-16, 0.0000000000000000000, 1.000000000000000000 ) ) ;
#265 = EDGE_CURVE ( 'NONE', #184, #255, #117, .T. ) ;
#266 = LENGTH_MEASURE_WITH_UNIT ( LENGTH_MEASURE( 0.02539999999999999897 ), #133 );
#267 = LINE ( 'NONE', #254, #165 ) ;
#268 = EDGE_LOOP ( 'NONE', ( #280, #21 ) ) ;
#269 = CARTESIAN_POINT ( 'NONE',  ( 0.06250000000000008327, 7.654042494670966789E-18, 0.4195462173085511837 ) ) ;
#270 = CARTESIAN_POINT ( 'NONE',  ( 0.05464529999999999388, 6.692119173344685866E-18, 0.0000000000000000000 ) ) ;
#271 = CARTESIAN_POINT ( 'NONE',  ( 0.05464530000000004245, 0.0000000000000000000, 0.3750000000000000555 ) ) ;
#272 = ORIENTED_EDGE ( 'NONE', *, *, #194, .F. ) ;
#273 = ORIENTED_EDGE ( 'NONE', *, *, #100, .F. ) ;
#274 = CARTESIAN_POINT ( 'NONE',  ( -0.06250000000000002776, 0.0000000000000000000, 1.485000000000000764 ) ) ;
#275 = ORIENTED_EDGE ( 'NONE', *, *, #256, .F. ) ;
#276 = DIRECTION ( 'NONE',  ( -1.224646799147353700E-16, -0.0000000000000000000, -1.000000000000000000 ) ) ;
#277 = VERTEX_POINT ( 'NONE', #274 ) ;
#278 = PRODUCT_DEFINITION_SHAPE ( 'NONE', 'NONE',  #213 ) ;
#279 = MECHANICAL_DESIGN_GEOMETRIC_PRESENTATION_REPRESENTATION (  '', ( #115 ), #149 ) ;
#280 = ORIENTED_EDGE ( 'NONE', *, *, #196, .T. ) ;
#281 = PRODUCT_DEFINITION_FORMATION_WITH_SPECIFIED_SOURCE ( 'ANY', '', #44, .NOT_KNOWN. ) ;
#282 = DIRECTION ( 'NONE',  ( -0.0000000000000000000, -0.0000000000000000000, -1.000000000000000000 ) ) ;
#283 =( LENGTH_UNIT ( ) NAMED_UNIT ( * ) SI_UNIT ( $, .METRE. ) );
#284 = DIMENSIONAL_EXPONENTS ( 1.000000000000000000, 0.0000000000000000000, 0.0000000000000000000, 0.0000000000000000000, 0.0000000000000000000, 0.0000000000000000000, 0.0000000000000000000 ) ;
#285 =( GEOMETRIC_REPRESENTATION_CONTEXT ( 3 ) GLOBAL_UNCERTAINTY_ASSIGNED_CONTEXT ( ( #253 ) ) GLOBAL_UNIT_ASSIGNED_CONTEXT ( ( #244, #169, #168 ) ) REPRESENTATION_CONTEXT ( 'NONE', 'WORKASPACE' ) );
#286 = DIRECTION ( 'NONE',  ( -1.000000000000000000, 0.0000000000000000000, 1.224646799147353700E-16 ) ) ;
#287 = DIRECTION ( 'NONE',  ( -1.224646799147353700E-16, -0.0000000000000000000, -1.000000000000000000 ) ) ;
#288 = CARTESIAN_POINT ( 'NONE',  ( 0.04750000000000064587, 5.817072295950006528E-18, 1.500000000000000222 ) ) ;
#289 =( LENGTH_UNIT ( ) NAMED_UNIT ( * ) SI_UNIT ( $, .METRE. ) );
#290 = DIMENSIONAL_EXPONENTS ( 1.000000000000000000, 0.0000000000000000000, 0.0000000000000000000, 0.0000000000000000000, 0.0000000000000000000, 0.0000000000000000000, 0.0000000000000000000 ) ;
#291 = DIRECTION ( 'NONE',  ( -1.224646799147353700E-16, -0.0000000000000000000, -1.000000000000000000 ) ) ;
#292 = DIRECTION ( 'NONE',  ( -1.000000000000000000, 0.0000000000000000000, 1.224646799147353700E-16 ) ) ;
#293 = ADVANCED_FACE ( 'NONE', ( #250 ), #189, .T. ) ;
#294 = CARTESIAN_POINT ( 'NONE',  ( 4.592425496802576684E-17, 0.0000000000000000000, 0.3750000000000000555 ) ) ;
#295 = EDGE_LOOP ( 'NONE', ( #91, #143, #212, #273 ) ) ;
#296 = EDGE_CURVE ( 'NONE', #118, #277, #87, .T. ) ;
#297 = ORIENTED_EDGE ( 'NONE', *, *, #247, .T. ) ;
#298 = AXIS2_PLACEMENT_3D ( 'NONE', #206, #36, #226 ) ;
#299 = LINE ( 'NONE', #79, #131 ) ;
ENDSEC;
END-ISO-10303-21;
