ISO-10303-21;
HEADER;
FILE_DESCRIPTION (( 'STEP AP214' ),
    '1' );
FILE_NAME ('59568.STEP',
    '2023-07-24T15:49:15',
    ( '' ),
    ( '' ),
    'SwSTEP 2.0',
    'SolidWorks 2023',
    '' );
FILE_SCHEMA (( 'AUTOMOTIVE_DESIGN' ));
ENDSEC;

DATA;
#1 =( GEOMETRIC_REPRESENTATION_CONTEXT ( 3 ) GLOBAL_UNCERTAINTY_ASSIGNED_CONTEXT ( ( #119 ) ) GLOBAL_UNIT_ASSIGNED_CONTEXT ( ( #215, #27, #193 ) ) REPRESENTATION_CONTEXT ( 'NONE', 'WORKASPACE' ) );
#2 = EDGE_CURVE ( 'NONE', #134, #127, #56, .T. ) ;
#3 = ADVANCED_FACE ( 'NONE', ( #33 ), #194, .T. ) ;
#4 = VERTEX_POINT ( 'NONE', #170 ) ;
#5 = CARTESIAN_POINT ( 'NONE',  ( 2.999999999999999112, 63.00000000000000000, 0.000000000000000000 ) ) ;
#6 = DIRECTION ( 'NONE',  ( 0.000000000000000000, 0.000000000000000000, -1.000000000000000000 ) ) ;
#7 = FILL_AREA_STYLE ('',( #28 ) ) ;
#8 = CARTESIAN_POINT ( 'NONE',  ( -2.999999999999987566, 63.00000000000000000, 0.000000000000000000 ) ) ;
#9 = FILL_AREA_STYLE_COLOUR ( '', #40 ) ;
#10 = SURFACE_SIDE_STYLE ('',( #25 ) ) ;
#11 = CARTESIAN_POINT ( 'NONE',  ( 0.000000000000000000, 18.00000000000000355, 0.000000000000000000 ) ) ;
#12 = ORIENTED_EDGE ( 'NONE', *, *, #94, .T. ) ;
#13 = DIRECTION ( 'NONE',  ( -0.000000000000000000, -1.000000000000000000, -0.000000000000000000 ) ) ;
#14 = DIRECTION ( 'NONE',  ( 1.687291145491908606E-16, 1.000000000000000000, -0.000000000000000000 ) ) ;
#15 = FACE_OUTER_BOUND ( 'NONE', #213, .T. ) ;
#16 =( GEOMETRIC_REPRESENTATION_CONTEXT ( 3 ) GLOBAL_UNCERTAINTY_ASSIGNED_CONTEXT ( ( #258 ) ) GLOBAL_UNIT_ASSIGNED_CONTEXT ( ( #224, #185, #98 ) ) REPRESENTATION_CONTEXT ( 'NONE', 'WORKASPACE' ) );
#17 =( NAMED_UNIT ( * ) PLANE_ANGLE_UNIT ( ) SI_UNIT ( $, .RADIAN. ) );
#18 = PRESENTATION_LAYER_ASSIGNMENT (  '', '', ( #69 ) ) ;
#19 = LINE ( 'NONE', #151, #216 ) ;
#20 = COLOUR_RGB ( '',1.000000000000000000, 0.000000000000000000, 0.000000000000000000 ) ;
#21 = ORIENTED_EDGE ( 'NONE', *, *, #255, .F. ) ;
#22 = DIRECTION ( 'NONE',  ( -0.000000000000000000, -1.000000000000000000, -0.000000000000000000 ) ) ;
#23 = AXIS2_PLACEMENT_3D ( 'NONE', #218, #153, #58 ) ;
#24 = MECHANICAL_DESIGN_GEOMETRIC_PRESENTATION_REPRESENTATION (  '', ( #249 ), #1 ) ;
#25 = SURFACE_STYLE_FILL_AREA ( #266 ) ;
#26 = ORIENTED_EDGE ( 'NONE', *, *, #227, .F. ) ;
#27 =( NAMED_UNIT ( * ) PLANE_ANGLE_UNIT ( ) SI_UNIT ( $, .RADIAN. ) );
#28 = FILL_AREA_STYLE_COLOUR ( '', #284 ) ;
#29 = ORIENTED_EDGE ( 'NONE', *, *, #43, .T. ) ;
#30 = CARTESIAN_POINT ( 'NONE',  ( 2.999999999999999556, 18.00000000000000355, 3.673940397442056417E-16 ) ) ;
#31 = ADVANCED_BREP_SHAPE_REPRESENTATION ( '59568', ( #76, #262, #174 ), #252 ) ;
#32 = DIRECTION ( 'NONE',  ( -0.000000000000000000, -1.000000000000000000, -0.000000000000000000 ) ) ;
#33 = FACE_OUTER_BOUND ( 'NONE', #209, .T. ) ;
#34 = PRESENTATION_LAYER_ASSIGNMENT (  '', '', ( #149 ) ) ;
#35 = PRODUCT_DEFINITION_FORMATION_WITH_SPECIFIED_SOURCE ( 'ANY', '', #154, .NOT_KNOWN. ) ;
#36 = EDGE_CURVE ( 'NONE', #253, #83, #275, .T. ) ;
#37 = PRODUCT_CONTEXT ( 'NONE', #156, 'mechanical' ) ;
#38 = DIRECTION ( 'NONE',  ( -1.000000000000000000, 0.000000000000000000, 0.000000000000000000 ) ) ;
#39 = UNCERTAINTY_MEASURE_WITH_UNIT (LENGTH_MEASURE( 1.000000000000000082E-05 ), #150, 'distance_accuracy_value', 'NONE');
#40 = COLOUR_RGB ( '',1.000000000000000000, 0.000000000000000000, 0.000000000000000000 ) ;
#41 = DIRECTION ( 'NONE',  ( 0.000000000000000000, 0.000000000000000000, -1.000000000000000000 ) ) ;
#42 = STYLED_ITEM ( 'NONE', ( #92 ), #262 ) ;
#43 = EDGE_CURVE ( 'NONE', #83, #240, #232, .T. ) ;
#44 = EDGE_LOOP ( 'NONE', ( #259, #187 ) ) ;
#45 = CARTESIAN_POINT ( 'NONE',  ( 0.000000000000000000, 0.000000000000000000, 0.000000000000000000 ) ) ;
#46 = PRESENTATION_LAYER_ASSIGNMENT (  '', '', ( #249 ) ) ;
#47 = SURFACE_STYLE_USAGE ( .BOTH. , #248 ) ;
#48 = PRODUCT_RELATED_PRODUCT_CATEGORY ( 'part', '', ( #154 ) ) ;
#49 = CARTESIAN_POINT ( 'NONE',  ( 3.673940397442058882E-16, 18.00000000000000355, 2.999999999999999112 ) ) ;
#50 = ADVANCED_FACE ( 'NONE', ( #280 ), #207, .T. ) ;
#51 = MECHANICAL_DESIGN_GEOMETRIC_PRESENTATION_REPRESENTATION (  '', ( #141 ), #120 ) ;
#52 = DIRECTION ( 'NONE',  ( -1.000000000000000000, 0.000000000000000000, 0.000000000000000000 ) ) ;
#53 = CARTESIAN_POINT ( 'NONE',  ( 0.000000000000000000, 0.000000000000000000, 0.000000000000000000 ) ) ;
#54 =( NAMED_UNIT ( * ) SI_UNIT ( $, .STERADIAN. ) SOLID_ANGLE_UNIT ( ) );
#55 =( NAMED_UNIT ( * ) SI_UNIT ( $, .STERADIAN. ) SOLID_ANGLE_UNIT ( ) );
#56 = CIRCLE ( 'NONE', #23, 2.999999999999991562 ) ;
#57 = PRESENTATION_LAYER_ASSIGNMENT (  '', '', ( #141 ) ) ;
#58 = DIRECTION ( 'NONE',  ( -1.000000000000000000, 0.000000000000000000, 0.000000000000000000 ) ) ;
#59 = DIRECTION ( 'NONE',  ( -1.000000000000000000, 0.000000000000000000, 0.000000000000000000 ) ) ;
#60 = ORIENTED_EDGE ( 'NONE', *, *, #43, .F. ) ;
#61 = SURFACE_STYLE_USAGE ( .BOTH. , #68 ) ;
#62 = CARTESIAN_POINT ( 'NONE',  ( 3.673940397442058882E-16, 0.000000000000000000, 2.999999999999999112 ) ) ;
#63 = CARTESIAN_POINT ( 'NONE',  ( 0.000000000000000000, 0.000000000000000000, 0.000000000000000000 ) ) ;
#64 =( NAMED_UNIT ( * ) SI_UNIT ( $, .STERADIAN. ) SOLID_ANGLE_UNIT ( ) );
#65 = PRESENTATION_LAYER_ASSIGNMENT (  '', '', ( #42 ) ) ;
#66 = FILL_AREA_STYLE_COLOUR ( '', #173 ) ;
#67 = DIRECTION ( 'NONE',  ( 1.000000000000000000, 0.000000000000000000, 0.000000000000000000 ) ) ;
#68 = SURFACE_SIDE_STYLE ('',( #137 ) ) ;
#69 = STYLED_ITEM ( 'NONE', ( #273 ), #3 ) ;
#70 =( GEOMETRIC_REPRESENTATION_CONTEXT ( 3 ) GLOBAL_UNCERTAINTY_ASSIGNED_CONTEXT ( ( #286 ) ) GLOBAL_UNIT_ASSIGNED_CONTEXT ( ( #279, #17, #157 ) ) REPRESENTATION_CONTEXT ( 'NONE', 'WORKASPACE' ) );
#71 = ADVANCED_FACE ( 'NONE', ( #101 ), #75, .T. ) ;
#72 = FILL_AREA_STYLE_COLOUR ( '', #20 ) ;
#73 =( GEOMETRIC_REPRESENTATION_CONTEXT ( 3 ) GLOBAL_UNCERTAINTY_ASSIGNED_CONTEXT ( ( #139 ) ) GLOBAL_UNIT_ASSIGNED_CONTEXT ( ( #87, #178, #64 ) ) REPRESENTATION_CONTEXT ( 'NONE', 'WORKASPACE' ) );
#74 = ORIENTED_EDGE ( 'NONE', *, *, #95, .F. ) ;
#75 = PLANE ( 'NONE',  #116 ) ;
#76 = MANIFOLD_SOLID_BREP ( 'Revolve - Cutting Edge', #242 ) ;
#77 = CYLINDRICAL_SURFACE ( 'NONE', #88, 2.999999999999999112 ) ;
#78 = CIRCLE ( 'NONE', #99, 2.999999999999999112 ) ;
#79 = ORIENTED_EDGE ( 'NONE', *, *, #270, .F. ) ;
#80 = CARTESIAN_POINT ( 'NONE',  ( 0.000000000000000000, 18.00000000000000355, 0.000000000000000000 ) ) ;
#81 =( NAMED_UNIT ( * ) PLANE_ANGLE_UNIT ( ) SI_UNIT ( $, .RADIAN. ) );
#82 = COLOUR_RGB ( '',0.7921568627450980005, 0.8196078431372548767, 0.9333333333333333481 ) ;
#83 = VERTEX_POINT ( 'NONE', #49 ) ;
#84 = DIRECTION ( 'NONE',  ( 1.687291145491908606E-16, 1.000000000000000000, -0.000000000000000000 ) ) ;
#85 = DIRECTION ( 'NONE',  ( 0.000000000000000000, 0.000000000000000000, -1.000000000000000000 ) ) ;
#86 =( NAMED_UNIT ( * ) PLANE_ANGLE_UNIT ( ) SI_UNIT ( $, .RADIAN. ) );
#87 =( LENGTH_UNIT ( ) NAMED_UNIT ( * ) SI_UNIT ( .MILLI., .METRE. ) );
#88 = AXIS2_PLACEMENT_3D ( 'NONE', #53, #210, #6 ) ;
#89 = FACE_OUTER_BOUND ( 'NONE', #96, .T. ) ;
#90 = DIRECTION ( 'NONE',  ( 0.000000000000000000, 0.000000000000000000, 1.000000000000000000 ) ) ;
#91 = PRODUCT_DEFINITION ( 'UNKNOWN', '', #35, #133 ) ;
#92 = PRESENTATION_STYLE_ASSIGNMENT (( #61 ) ) ;
#93 = PRESENTATION_LAYER_ASSIGNMENT (  '', '', ( #161 ) ) ;
#94 = EDGE_CURVE ( 'NONE', #184, #134, #19, .T. ) ;
#95 = EDGE_CURVE ( 'NONE', #184, #4, #144, .T. ) ;
#96 = EDGE_LOOP ( 'NONE', ( #125, #12, #142, #107 ) ) ;
#97 = AXIS2_PLACEMENT_3D ( 'NONE', #234, #108, #114 ) ;
#98 =( NAMED_UNIT ( * ) SI_UNIT ( $, .STERADIAN. ) SOLID_ANGLE_UNIT ( ) );
#99 = AXIS2_PLACEMENT_3D ( 'NONE', #169, #106, #233 ) ;
#100 = ORIENTED_EDGE ( 'NONE', *, *, #246, .F. ) ;
#101 = FACE_OUTER_BOUND ( 'NONE', #145, .T. ) ;
#102 = FACE_OUTER_BOUND ( 'NONE', #206, .T. ) ;
#103 = LINE ( 'NONE', #109, #202 ) ;
#104 = AXIS2_PLACEMENT_3D ( 'NONE', #245, #238, #241 ) ;
#105 = SURFACE_SIDE_STYLE ('',( #211 ) ) ;
#106 = DIRECTION ( 'NONE',  ( -0.000000000000000000, -1.000000000000000000, -0.000000000000000000 ) ) ;
#107 = ORIENTED_EDGE ( 'NONE', *, *, #198, .F. ) ;
#108 = DIRECTION ( 'NONE',  ( 0.000000000000000000, -1.000000000000000000, -0.000000000000000000 ) ) ;
#109 = CARTESIAN_POINT ( 'NONE',  ( 0.000000000000000000, 0.000000000000000000, -2.999999999999999112 ) ) ;
#110 = AXIS2_PLACEMENT_3D ( 'NONE', #146, #278, #59 ) ;
#111 = ADVANCED_FACE ( 'NONE', ( #102 ), #77, .T. ) ;
#112 = EDGE_LOOP ( 'NONE', ( #175, #196, #164, #225 ) ) ;
#113 = DIRECTION ( 'NONE',  ( 1.687291145491908606E-16, 1.000000000000000000, -0.000000000000000000 ) ) ;
#114 = DIRECTION ( 'NONE',  ( 0.000000000000000000, 0.000000000000000000, -1.000000000000000000 ) ) ;
#115 =( LENGTH_UNIT ( ) NAMED_UNIT ( * ) SI_UNIT ( .MILLI., .METRE. ) );
#116 = AXIS2_PLACEMENT_3D ( 'NONE', #183, #124, #118 ) ;
#117 = SHAPE_DEFINITION_REPRESENTATION ( #177, #31 ) ;
#118 = DIRECTION ( 'NONE',  ( 0.000000000000000000, -0.000000000000000000, 1.000000000000000000 ) ) ;
#119 = UNCERTAINTY_MEASURE_WITH_UNIT (LENGTH_MEASURE( 1.000000000000000082E-05 ), #215, 'distance_accuracy_value', 'NONE');
#120 =( GEOMETRIC_REPRESENTATION_CONTEXT ( 3 ) GLOBAL_UNCERTAINTY_ASSIGNED_CONTEXT ( ( #282 ) ) GLOBAL_UNIT_ASSIGNED_CONTEXT ( ( #265, #254, #55 ) ) REPRESENTATION_CONTEXT ( 'NONE', 'WORKASPACE' ) );
#121 = VERTEX_POINT ( 'NONE', #230 ) ;
#122 = DIRECTION ( 'NONE',  ( 0.000000000000000000, 0.000000000000000000, -1.000000000000000000 ) ) ;
#123 = ORIENTED_EDGE ( 'NONE', *, *, #227, .T. ) ;
#124 = DIRECTION ( 'NONE',  ( 0.000000000000000000, 1.000000000000000000, 0.000000000000000000 ) ) ;
#125 = ORIENTED_EDGE ( 'NONE', *, *, #270, .T. ) ;
#126 = FACE_OUTER_BOUND ( 'NONE', #44, .T. ) ;
#127 = VERTEX_POINT ( 'NONE', #176 ) ;
#128 = CARTESIAN_POINT ( 'NONE',  ( 2.999999999999999556, 63.00000000000000000, 3.673940397442056417E-16 ) ) ;
#129 = CIRCLE ( 'NONE', #200, 2.999999999999999112 ) ;
#130 = AXIS2_PLACEMENT_3D ( 'NONE', #136, #113, #263 ) ;
#131 = SURFACE_STYLE_USAGE ( .BOTH. , #214 ) ;
#132 = DIRECTION ( 'NONE',  ( -0.000000000000000000, -1.000000000000000000, -0.000000000000000000 ) ) ;
#133 = PRODUCT_DEFINITION_CONTEXT ( 'detailed design', #217, 'design' ) ;
#134 = VERTEX_POINT ( 'NONE', #128 ) ;
#135 = APPLICATION_PROTOCOL_DEFINITION ( 'draft international standard', 'automotive_design', 1998, #156 ) ;
#136 = CARTESIAN_POINT ( 'NONE',  ( 4.270427114483094353E-32, 18.00000000000000355, 0.000000000000000000 ) ) ;
#137 = SURFACE_STYLE_FILL_AREA ( #219 ) ;
#138 = CIRCLE ( 'NONE', #277, 2.999999999999999112 ) ;
#139 = UNCERTAINTY_MEASURE_WITH_UNIT (LENGTH_MEASURE( 1.000000000000000082E-05 ), #87, 'distance_accuracy_value', 'NONE');
#140 = SURFACE_SIDE_STYLE ('',( #226 ) ) ;
#141 = STYLED_ITEM ( 'NONE', ( #179 ), #76 ) ;
#142 = ORIENTED_EDGE ( 'NONE', *, *, #247, .F. ) ;
#143 = EDGE_CURVE ( 'NONE', #253, #121, #103, .T. ) ;
#144 = CIRCLE ( 'NONE', #251, 2.999999999999999112 ) ;
#145 = EDGE_LOOP ( 'NONE', ( #152, #100 ) ) ;
#146 = CARTESIAN_POINT ( 'NONE',  ( 7.592810154713587074E-15, 63.00000000000000000, 0.000000000000000000 ) ) ;
#147 = SURFACE_STYLE_USAGE ( .BOTH. , #105 ) ;
#148 = FACE_OUTER_BOUND ( 'NONE', #112, .T. ) ;
#149 = STYLED_ITEM ( 'NONE', ( #223 ), #71 ) ;
#150 =( LENGTH_UNIT ( ) NAMED_UNIT ( * ) SI_UNIT ( .MILLI., .METRE. ) );
#151 = CARTESIAN_POINT ( 'NONE',  ( 3.000000000000003109, 63.00000000000000000, 3.673940397442053952E-16 ) ) ;
#152 = ORIENTED_EDGE ( 'NONE', *, *, #36, .F. ) ;
#153 = DIRECTION ( 'NONE',  ( 1.687291145491908606E-16, 1.000000000000000000, -0.000000000000000000 ) ) ;
#154 = PRODUCT ( '59568', '59568', '', ( #37 ) ) ;
#155 = VECTOR ( 'NONE', #269, 1000.000000000000000 ) ;
#156 = APPLICATION_CONTEXT ( 'automotive_design' ) ;
#157 =( NAMED_UNIT ( * ) SI_UNIT ( $, .STERADIAN. ) SOLID_ANGLE_UNIT ( ) );
#158 = AXIS2_PLACEMENT_3D ( 'NONE', #197, #14, #38 ) ;
#159 = FILL_AREA_STYLE ('',( #180 ) ) ;
#160 = MECHANICAL_DESIGN_GEOMETRIC_PRESENTATION_REPRESENTATION (  '', ( #69 ), #220 ) ;
#161 = STYLED_ITEM ( 'NONE', ( #236 ), #50 ) ;
#162 = FILL_AREA_STYLE ('',( #72 ) ) ;
#163 = ORIENTED_EDGE ( 'NONE', *, *, #143, .T. ) ;
#164 = ORIENTED_EDGE ( 'NONE', *, *, #198, .T. ) ;
#165 = FILL_AREA_STYLE_COLOUR ( '', #221 ) ;
#166 = MECHANICAL_DESIGN_GEOMETRIC_PRESENTATION_REPRESENTATION (  '', ( #161 ), #73 ) ;
#167 = EDGE_LOOP ( 'NONE', ( #268, #29, #21, #271 ) ) ;
#168 = CYLINDRICAL_SURFACE ( 'NONE', #110, 2.999999999999995115 ) ;
#169 = CARTESIAN_POINT ( 'NONE',  ( 0.000000000000000000, 0.000000000000000000, 0.000000000000000000 ) ) ;
#170 = CARTESIAN_POINT ( 'NONE',  ( -2.999999999999999112, 18.00000000000000355, 0.000000000000000000 ) ) ;
#171 = CARTESIAN_POINT ( 'NONE',  ( -1.540743955509788682E-30, 18.00000000000000355, 0.000000000000000000 ) ) ;
#172 = AXIS2_PLACEMENT_3D ( 'NONE', #11, #192, #85 ) ;
#173 = COLOUR_RGB ( '',0.7921568627450980005, 0.8196078431372548767, 0.9333333333333333481 ) ;
#174 = AXIS2_PLACEMENT_3D ( 'NONE', #285, #90, #67 ) ;
#175 = ORIENTED_EDGE ( 'NONE', *, *, #94, .F. ) ;
#176 = CARTESIAN_POINT ( 'NONE',  ( -2.999999999999983569, 63.00000000000000000, 0.000000000000000000 ) ) ;
#177 = PRODUCT_DEFINITION_SHAPE ( 'NONE', 'NONE',  #91 ) ;
#178 =( NAMED_UNIT ( * ) PLANE_ANGLE_UNIT ( ) SI_UNIT ( $, .RADIAN. ) );
#179 = PRESENTATION_STYLE_ASSIGNMENT (( #47 ) ) ;
#180 = FILL_AREA_STYLE_COLOUR ( '', #82 ) ;
#181 = AXIS2_PLACEMENT_3D ( 'NONE', #45, #22, #122 ) ;
#182 = ORIENTED_EDGE ( 'NONE', *, *, #255, .T. ) ;
#183 = CARTESIAN_POINT ( 'NONE',  ( 0.000000000000000000, 18.00000000000000355, 0.000000000000000000 ) ) ;
#184 = VERTEX_POINT ( 'NONE', #30 ) ;
#185 =( NAMED_UNIT ( * ) PLANE_ANGLE_UNIT ( ) SI_UNIT ( $, .RADIAN. ) );
#186 = LINE ( 'NONE', #8, #155 ) ;
#187 = ORIENTED_EDGE ( 'NONE', *, *, #2, .T. ) ;
#188 = DIRECTION ( 'NONE',  ( -1.687291145491908606E-16, -1.000000000000000000, 0.000000000000000000 ) ) ;
#189 = SURFACE_STYLE_FILL_AREA ( #276 ) ;
#190 = DIRECTION ( 'NONE',  ( 1.687291145491908606E-16, 1.000000000000000000, -0.000000000000000000 ) ) ;
#191 = UNCERTAINTY_MEASURE_WITH_UNIT (LENGTH_MEASURE( 1.000000000000000082E-05 ), #115, 'distance_accuracy_value', 'NONE');
#192 = DIRECTION ( 'NONE',  ( -0.000000000000000000, -1.000000000000000000, -0.000000000000000000 ) ) ;
#193 =( NAMED_UNIT ( * ) SI_UNIT ( $, .STERADIAN. ) SOLID_ANGLE_UNIT ( ) );
#194 = PLANE ( 'NONE',  #97 ) ;
#195 = DIRECTION ( 'NONE',  ( -1.000000000000000000, 0.000000000000000000, 0.000000000000000000 ) ) ;
#196 = ORIENTED_EDGE ( 'NONE', *, *, #95, .T. ) ;
#197 = CARTESIAN_POINT ( 'NONE',  ( -1.540743955509788682E-30, 18.00000000000000355, 0.000000000000000000 ) ) ;
#198 = EDGE_CURVE ( 'NONE', #4, #127, #186, .T. ) ;
#199 = CARTESIAN_POINT ( 'NONE',  ( 0.000000000000000000, 18.00000000000000355, -2.999999999999999112 ) ) ;
#200 = AXIS2_PLACEMENT_3D ( 'NONE', #80, #32, #235 ) ;
#201 = SURFACE_STYLE_FILL_AREA ( #159 ) ;
#202 = VECTOR ( 'NONE', #132, 1000.000000000000000 ) ;
#203 = SURFACE_STYLE_USAGE ( .BOTH. , #140 ) ;
#204 = ADVANCED_FACE ( 'NONE', ( #148 ), #168, .T. ) ;
#205 = MECHANICAL_DESIGN_GEOMETRIC_PRESENTATION_REPRESENTATION (  '', ( #42 ), #70 ) ;
#206 = EDGE_LOOP ( 'NONE', ( #60, #250, #163, #26 ) ) ;
#207 = CYLINDRICAL_SURFACE ( 'NONE', #181, 2.999999999999999112 ) ;
#208 = PLANE ( 'NONE',  #243 ) ;
#209 = EDGE_LOOP ( 'NONE', ( #182, #123 ) ) ;
#210 = DIRECTION ( 'NONE',  ( -0.000000000000000000, -1.000000000000000000, -0.000000000000000000 ) ) ;
#211 = SURFACE_STYLE_FILL_AREA ( #7 ) ;
#212 = MECHANICAL_DESIGN_GEOMETRIC_PRESENTATION_REPRESENTATION (  '', ( #149 ), #16 ) ;
#213 = EDGE_LOOP ( 'NONE', ( #79, #74 ) ) ;
#214 = SURFACE_SIDE_STYLE ('',( #189 ) ) ;
#215 =( LENGTH_UNIT ( ) NAMED_UNIT ( * ) SI_UNIT ( .MILLI., .METRE. ) );
#216 = VECTOR ( 'NONE', #190, 1000.000000000000000 ) ;
#217 = APPLICATION_CONTEXT ( 'automotive_design' ) ;
#218 = CARTESIAN_POINT ( 'NONE',  ( 7.592810154713587074E-15, 63.00000000000000000, 0.000000000000000000 ) ) ;
#219 = FILL_AREA_STYLE ('',( #66 ) ) ;
#220 =( GEOMETRIC_REPRESENTATION_CONTEXT ( 3 ) GLOBAL_UNCERTAINTY_ASSIGNED_CONTEXT ( ( #39 ) ) GLOBAL_UNIT_ASSIGNED_CONTEXT ( ( #150, #81, #54 ) ) REPRESENTATION_CONTEXT ( 'NONE', 'WORKASPACE' ) );
#221 = COLOUR_RGB ( '',1.000000000000000000, 0.000000000000000000, 0.000000000000000000 ) ;
#222 = APPLICATION_PROTOCOL_DEFINITION ( 'draft international standard', 'automotive_design', 1998, #217 ) ;
#223 = PRESENTATION_STYLE_ASSIGNMENT (( #203 ) ) ;
#224 =( LENGTH_UNIT ( ) NAMED_UNIT ( * ) SI_UNIT ( .MILLI., .METRE. ) );
#225 = ORIENTED_EDGE ( 'NONE', *, *, #2, .F. ) ;
#226 = SURFACE_STYLE_FILL_AREA ( #162 ) ;
#227 = EDGE_CURVE ( 'NONE', #240, #121, #78, .T. ) ;
#228 = VECTOR ( 'NONE', #13, 1000.000000000000000 ) ;
#229 = CIRCLE ( 'NONE', #158, 2.999999999999999112 ) ;
#230 = CARTESIAN_POINT ( 'NONE',  ( 0.000000000000000000, 0.000000000000000000, -2.999999999999999112 ) ) ;
#231 = SURFACE_STYLE_USAGE ( .BOTH. , #10 ) ;
#232 = LINE ( 'NONE', #62, #228 ) ;
#233 = DIRECTION ( 'NONE',  ( 0.000000000000000000, 0.000000000000000000, -1.000000000000000000 ) ) ;
#234 = CARTESIAN_POINT ( 'NONE',  ( 0.000000000000000000, 0.000000000000000000, 0.000000000000000000 ) ) ;
#235 = DIRECTION ( 'NONE',  ( 0.000000000000000000, 0.000000000000000000, -1.000000000000000000 ) ) ;
#236 = PRESENTATION_STYLE_ASSIGNMENT (( #147 ) ) ;
#237 = CARTESIAN_POINT ( 'NONE',  ( 3.673940397442058882E-16, 0.000000000000000000, 2.999999999999999112 ) ) ;
#238 = DIRECTION ( 'NONE',  ( 1.687291145491908606E-16, 1.000000000000000000, -0.000000000000000000 ) ) ;
#239 = ADVANCED_FACE ( 'NONE', ( #126 ), #208, .F. ) ;
#240 = VERTEX_POINT ( 'NONE', #237 ) ;
#241 = DIRECTION ( 'NONE',  ( -1.000000000000000000, 0.000000000000000000, 0.000000000000000000 ) ) ;
#242 = CLOSED_SHELL ( 'NONE', ( #50, #71, #111, #3 ) ) ;
#243 = AXIS2_PLACEMENT_3D ( 'NONE', #5, #188, #272 ) ;
#244 = CYLINDRICAL_SURFACE ( 'NONE', #104, 2.999999999999995115 ) ;
#245 = CARTESIAN_POINT ( 'NONE',  ( 7.592810154713587074E-15, 63.00000000000000000, 0.000000000000000000 ) ) ;
#246 = EDGE_CURVE ( 'NONE', #83, #253, #129, .T. ) ;
#247 = EDGE_CURVE ( 'NONE', #127, #134, #257, .T. ) ;
#248 = SURFACE_SIDE_STYLE ('',( #201 ) ) ;
#249 = STYLED_ITEM ( 'NONE', ( #274 ), #111 ) ;
#250 = ORIENTED_EDGE ( 'NONE', *, *, #246, .T. ) ;
#251 = AXIS2_PLACEMENT_3D ( 'NONE', #171, #84, #52 ) ;
#252 =( GEOMETRIC_REPRESENTATION_CONTEXT ( 3 ) GLOBAL_UNCERTAINTY_ASSIGNED_CONTEXT ( ( #191 ) ) GLOBAL_UNIT_ASSIGNED_CONTEXT ( ( #115, #86, #261 ) ) REPRESENTATION_CONTEXT ( 'NONE', 'WORKASPACE' ) );
#253 = VERTEX_POINT ( 'NONE', #199 ) ;
#254 =( NAMED_UNIT ( * ) PLANE_ANGLE_UNIT ( ) SI_UNIT ( $, .RADIAN. ) );
#255 = EDGE_CURVE ( 'NONE', #121, #240, #138, .T. ) ;
#256 = CLOSED_SHELL ( 'NONE', ( #264, #288, #204, #239 ) ) ;
#257 = CIRCLE ( 'NONE', #267, 2.999999999999991562 ) ;
#258 = UNCERTAINTY_MEASURE_WITH_UNIT (LENGTH_MEASURE( 1.000000000000000082E-05 ), #224, 'distance_accuracy_value', 'NONE');
#259 = ORIENTED_EDGE ( 'NONE', *, *, #247, .T. ) ;
#260 = PLANE ( 'NONE',  #130 ) ;
#261 =( NAMED_UNIT ( * ) SI_UNIT ( $, .STERADIAN. ) SOLID_ANGLE_UNIT ( ) );
#262 = MANIFOLD_SOLID_BREP ( 'Revolve - Tool Body (Straight Shanked)', #256 ) ;
#263 = DIRECTION ( 'NONE',  ( -1.000000000000000000, 1.687291145491908606E-16, 0.000000000000000000 ) ) ;
#264 = ADVANCED_FACE ( 'NONE', ( #89 ), #244, .T. ) ;
#265 =( LENGTH_UNIT ( ) NAMED_UNIT ( * ) SI_UNIT ( .MILLI., .METRE. ) );
#266 = FILL_AREA_STYLE ('',( #165 ) ) ;
#267 = AXIS2_PLACEMENT_3D ( 'NONE', #287, #281, #195 ) ;
#268 = ORIENTED_EDGE ( 'NONE', *, *, #36, .T. ) ;
#269 = DIRECTION ( 'NONE',  ( 1.687291145491908606E-16, 1.000000000000000000, -0.000000000000000000 ) ) ;
#270 = EDGE_CURVE ( 'NONE', #4, #184, #229, .T. ) ;
#271 = ORIENTED_EDGE ( 'NONE', *, *, #143, .F. ) ;
#272 = DIRECTION ( 'NONE',  ( 1.000000000000000000, -1.687291145491908606E-16, 0.000000000000000000 ) ) ;
#273 = PRESENTATION_STYLE_ASSIGNMENT (( #131 ) ) ;
#274 = PRESENTATION_STYLE_ASSIGNMENT (( #231 ) ) ;
#275 = CIRCLE ( 'NONE', #172, 2.999999999999999112 ) ;
#276 = FILL_AREA_STYLE ('',( #9 ) ) ;
#277 = AXIS2_PLACEMENT_3D ( 'NONE', #63, #283, #41 ) ;
#278 = DIRECTION ( 'NONE',  ( 1.687291145491908606E-16, 1.000000000000000000, -0.000000000000000000 ) ) ;
#279 =( LENGTH_UNIT ( ) NAMED_UNIT ( * ) SI_UNIT ( .MILLI., .METRE. ) );
#280 = FACE_OUTER_BOUND ( 'NONE', #167, .T. ) ;
#281 = DIRECTION ( 'NONE',  ( 1.687291145491908606E-16, 1.000000000000000000, -0.000000000000000000 ) ) ;
#282 = UNCERTAINTY_MEASURE_WITH_UNIT (LENGTH_MEASURE( 1.000000000000000082E-05 ), #265, 'distance_accuracy_value', 'NONE');
#283 = DIRECTION ( 'NONE',  ( -0.000000000000000000, -1.000000000000000000, -0.000000000000000000 ) ) ;
#284 = COLOUR_RGB ( '',1.000000000000000000, 0.000000000000000000, 0.000000000000000000 ) ;
#285 = CARTESIAN_POINT ( 'NONE',  ( 0.000000000000000000, 0.000000000000000000, 0.000000000000000000 ) ) ;
#286 = UNCERTAINTY_MEASURE_WITH_UNIT (LENGTH_MEASURE( 1.000000000000000082E-05 ), #279, 'distance_accuracy_value', 'NONE');
#287 = CARTESIAN_POINT ( 'NONE',  ( 7.592810154713587074E-15, 63.00000000000000000, 0.000000000000000000 ) ) ;
#288 = ADVANCED_FACE ( 'NONE', ( #15 ), #260, .F. ) ;
ENDSEC;
END-ISO-10303-21;
