ISO-10303-21;
HEADER;
FILE_DESCRIPTION (( 'STEP AP214' ),
    '1' );
FILE_NAME ('59273.STEP',
    '2023-06-22T22:43:59',
    ( '' ),
    ( '' ),
    'SwSTEP 2.0',
    'SolidWorks 2023',
    '' );
FILE_SCHEMA (( 'AUTOMOTIVE_DESIGN' ));
ENDSEC;

DATA;
#1 = VERTEX_POINT ( 'NONE', #284 ) ;
#2 = CARTESIAN_POINT ( 'NONE',  ( 0.000000000000000000, 0.000000000000000000, 0.000000000000000000 ) ) ;
#3 = FILL_AREA_STYLE ('',( #251 ) ) ;
#4 = CYLINDRICAL_SURFACE ( 'NONE', #307, 0.3750000000000001110 ) ;
#5 = VERTEX_POINT ( 'NONE', #95 ) ;
#6 = AXIS2_PLACEMENT_3D ( 'NONE', #64, #262, #10 ) ;
#7 =( LENGTH_UNIT ( ) NAMED_UNIT ( * ) SI_UNIT ( $, .METRE. ) );
#8 = SURFACE_STYLE_USAGE ( .BOTH. , #124 ) ;
#9 = EDGE_LOOP ( 'NONE', ( #130, #204, #208, #255 ) ) ;
#10 = DIRECTION ( 'NONE',  ( -1.000000000000000000, 0.000000000000000000, 0.000000000000000000 ) ) ;
#11 = DIMENSIONAL_EXPONENTS ( 1.000000000000000000, 0.000000000000000000, 0.000000000000000000, 0.000000000000000000, 0.000000000000000000, 0.000000000000000000, 0.000000000000000000 ) ;
#12 =( GEOMETRIC_REPRESENTATION_CONTEXT ( 3 ) GLOBAL_UNCERTAINTY_ASSIGNED_CONTEXT ( ( #158 ) ) GLOBAL_UNIT_ASSIGNED_CONTEXT ( ( #254, #176, #247 ) ) REPRESENTATION_CONTEXT ( 'NONE', 'WORKASPACE' ) );
#13 =( NAMED_UNIT ( * ) PLANE_ANGLE_UNIT ( ) SI_UNIT ( $, .RADIAN. ) );
#14 = DIRECTION ( 'NONE',  ( -1.000000000000000000, 0.000000000000000000, 0.000000000000000000 ) ) ;
#15 = DIMENSIONAL_EXPONENTS ( 1.000000000000000000, 0.000000000000000000, 0.000000000000000000, 0.000000000000000000, 0.000000000000000000, 0.000000000000000000, 0.000000000000000000 ) ;
#16 = FACE_OUTER_BOUND ( 'NONE', #151, .T. ) ;
#17 = ADVANCED_FACE ( 'NONE', ( #48 ), #121, .T. ) ;
#18 = LINE ( 'NONE', #174, #148 ) ;
#19 = CARTESIAN_POINT ( 'NONE',  ( -0.3750000000000002220, 4.000000000000000000, 0.000000000000000000 ) ) ;
#20 = LENGTH_MEASURE_WITH_UNIT ( LENGTH_MEASURE( 0.02539999999999999897 ), #86 );
#21 = PLANE ( 'NONE',  #225 ) ;
#22 = CARTESIAN_POINT ( 'NONE',  ( 0.000000000000000000, 0.000000000000000000, 0.000000000000000000 ) ) ;
#23 = STYLED_ITEM ( 'NONE', ( #223 ), #17 ) ;
#24 = MECHANICAL_DESIGN_GEOMETRIC_PRESENTATION_REPRESENTATION (  '', ( #256 ), #248 ) ;
#25 = DIRECTION ( 'NONE',  ( -5.156407575357275299E-17, 1.000000000000000000, -0.000000000000000000 ) ) ;
#26 = AXIS2_PLACEMENT_3D ( 'NONE', #220, #50, #197 ) ;
#27 = ORIENTED_EDGE ( 'NONE', *, *, #189, .T. ) ;
#28 = EDGE_CURVE ( 'NONE', #1, #105, #264, .T. ) ;
#29 =( CONVERSION_BASED_UNIT ( 'INCH', #96 ) LENGTH_UNIT ( ) NAMED_UNIT ( #165 ) );
#30 = UNCERTAINTY_MEASURE_WITH_UNIT (LENGTH_MEASURE( 1.000000000000000082E-05 ), #51, 'distance_accuracy_value', 'NONE');
#31 = FILL_AREA_STYLE ('',( #99 ) ) ;
#32 = EDGE_LOOP ( 'NONE', ( #161, #294 ) ) ;
#33 = COLOUR_RGB ( '',0.7921568627450980005, 0.8196078431372548767, 0.9333333333333333481 ) ;
#34 = LENGTH_MEASURE_WITH_UNIT ( LENGTH_MEASURE( 0.02539999999999999897 ), #156 );
#35 = VERTEX_POINT ( 'NONE', #282 ) ;
#36 = ORIENTED_EDGE ( 'NONE', *, *, #302, .F. ) ;
#37 = CIRCLE ( 'NONE', #118, 0.3750000000000000555 ) ;
#38 = PRODUCT_DEFINITION ( 'UNKNOWN', '', #288, #126 ) ;
#39 = PRODUCT ( '59273', '59273', '', ( #103 ) ) ;
#40 = ORIENTED_EDGE ( 'NONE', *, *, #280, .T. ) ;
#41 = LENGTH_MEASURE_WITH_UNIT ( LENGTH_MEASURE( 0.02539999999999999897 ), #107 );
#42 = VERTEX_POINT ( 'NONE', #117 ) ;
#43 = MECHANICAL_DESIGN_GEOMETRIC_PRESENTATION_REPRESENTATION (  '', ( #62 ), #74 ) ;
#44 = DIRECTION ( 'NONE',  ( 0.000000000000000000, -0.000000000000000000, 1.000000000000000000 ) ) ;
#45 = SURFACE_STYLE_USAGE ( .BOTH. , #170 ) ;
#46 = SURFACE_STYLE_USAGE ( .BOTH. , #266 ) ;
#47 = STYLED_ITEM ( 'NONE', ( #277 ), #205 ) ;
#48 = FACE_OUTER_BOUND ( 'NONE', #56, .T. ) ;
#49 = SURFACE_STYLE_FILL_AREA ( #68 ) ;
#50 = DIRECTION ( 'NONE',  ( -0.000000000000000000, -1.000000000000000000, -0.000000000000000000 ) ) ;
#51 =( CONVERSION_BASED_UNIT ( 'INCH', #268 ) LENGTH_UNIT ( ) NAMED_UNIT ( #234 ) );
#52 = UNCERTAINTY_MEASURE_WITH_UNIT (LENGTH_MEASURE( 1.000000000000000082E-05 ), #77, 'distance_accuracy_value', 'NONE');
#53 = FACE_OUTER_BOUND ( 'NONE', #132, .T. ) ;
#54 =( NAMED_UNIT ( * ) PLANE_ANGLE_UNIT ( ) SI_UNIT ( $, .RADIAN. ) );
#55 =( NAMED_UNIT ( * ) SI_UNIT ( $, .STERADIAN. ) SOLID_ANGLE_UNIT ( ) );
#56 = EDGE_LOOP ( 'NONE', ( #27, #258, #182, #211 ) ) ;
#57 = SURFACE_STYLE_USAGE ( .BOTH. , #203 ) ;
#58 = ORIENTED_EDGE ( 'NONE', *, *, #214, .T. ) ;
#59 = EDGE_CURVE ( 'NONE', #35, #272, #123, .T. ) ;
#60 = DIMENSIONAL_EXPONENTS ( 1.000000000000000000, 0.000000000000000000, 0.000000000000000000, 0.000000000000000000, 0.000000000000000000, 0.000000000000000000, 0.000000000000000000 ) ;
#61 =( GEOMETRIC_REPRESENTATION_CONTEXT ( 3 ) GLOBAL_UNCERTAINTY_ASSIGNED_CONTEXT ( ( #140 ) ) GLOBAL_UNIT_ASSIGNED_CONTEXT ( ( #213, #13, #139 ) ) REPRESENTATION_CONTEXT ( 'NONE', 'WORKASPACE' ) );
#62 = STYLED_ITEM ( 'NONE', ( #183 ), #298 ) ;
#63 = SURFACE_SIDE_STYLE ('',( #193 ) ) ;
#64 = CARTESIAN_POINT ( 'NONE',  ( 3.032960542342103792E-32, 1.625000000000000000, 0.000000000000000000 ) ) ;
#65 = CIRCLE ( 'NONE', #222, 0.3750000000000000555 ) ;
#66 = AXIS2_PLACEMENT_3D ( 'NONE', #22, #128, #245 ) ;
#67 = CARTESIAN_POINT ( 'NONE',  ( 0.000000000000000000, 1.625000000000000000, 0.000000000000000000 ) ) ;
#68 = FILL_AREA_STYLE ('',( #238 ) ) ;
#69 = DIRECTION ( 'NONE',  ( -5.156407575357275299E-17, 1.000000000000000000, -0.000000000000000000 ) ) ;
#70 = FILL_AREA_STYLE ('',( #144 ) ) ;
#71 = PRESENTATION_LAYER_ASSIGNMENT (  '', '', ( #23 ) ) ;
#72 = DIRECTION ( 'NONE',  ( 1.000000000000000000, 5.156407575357275916E-17, 0.000000000000000000 ) ) ;
#73 = MECHANICAL_DESIGN_GEOMETRIC_PRESENTATION_REPRESENTATION (  '', ( #273 ), #12 ) ;
#74 =( GEOMETRIC_REPRESENTATION_CONTEXT ( 3 ) GLOBAL_UNCERTAINTY_ASSIGNED_CONTEXT ( ( #30 ) ) GLOBAL_UNIT_ASSIGNED_CONTEXT ( ( #51, #250, #155 ) ) REPRESENTATION_CONTEXT ( 'NONE', 'WORKASPACE' ) );
#75 = DIRECTION ( 'NONE',  ( -5.156407575357275299E-17, 1.000000000000000000, -0.000000000000000000 ) ) ;
#76 =( NAMED_UNIT ( * ) PLANE_ANGLE_UNIT ( ) SI_UNIT ( $, .RADIAN. ) );
#77 =( CONVERSION_BASED_UNIT ( 'INCH', #34 ) LENGTH_UNIT ( ) NAMED_UNIT ( #191 ) );
#78 = DIRECTION ( 'NONE',  ( 0.000000000000000000, 0.000000000000000000, -1.000000000000000000 ) ) ;
#79 = DIRECTION ( 'NONE',  ( -1.000000000000000000, 0.000000000000000000, 0.000000000000000000 ) ) ;
#80 = DIRECTION ( 'NONE',  ( 0.000000000000000000, 0.000000000000000000, -1.000000000000000000 ) ) ;
#81 = CARTESIAN_POINT ( 'NONE',  ( 3.032960542342103792E-32, 1.625000000000000000, 0.000000000000000000 ) ) ;
#82 = CLOSED_SHELL ( 'NONE', ( #17, #241, #116, #298 ) ) ;
#83 = AXIS2_PLACEMENT_3D ( 'NONE', #67, #169, #239 ) ;
#84 = CARTESIAN_POINT ( 'NONE',  ( 0.000000000000000000, 1.625000000000000000, 0.000000000000000000 ) ) ;
#85 = LINE ( 'NONE', #260, #167 ) ;
#86 =( LENGTH_UNIT ( ) NAMED_UNIT ( * ) SI_UNIT ( $, .METRE. ) );
#87 = MANIFOLD_SOLID_BREP ( 'Revolve - Tool Body (Straight Shanked)', #300 ) ;
#88 = PRESENTATION_LAYER_ASSIGNMENT (  '', '', ( #256 ) ) ;
#89 = FILL_AREA_STYLE ('',( #303 ) ) ;
#90 = SURFACE_STYLE_FILL_AREA ( #70 ) ;
#91 = DIRECTION ( 'NONE',  ( -1.000000000000000000, 0.000000000000000000, 0.000000000000000000 ) ) ;
#92 =( NAMED_UNIT ( * ) PLANE_ANGLE_UNIT ( ) SI_UNIT ( $, .RADIAN. ) );
#93 = ADVANCED_FACE ( 'NONE', ( #227 ), #4, .T. ) ;
#94 = AXIS2_PLACEMENT_3D ( 'NONE', #304, #25, #184 ) ;
#95 = CARTESIAN_POINT ( 'NONE',  ( 0.3750000000000000555, 1.625000000000000000, 4.592425496802576684E-17 ) ) ;
#96 = LENGTH_MEASURE_WITH_UNIT ( LENGTH_MEASURE( 0.02539999999999999897 ), #289 );
#97 = CARTESIAN_POINT ( 'NONE',  ( 0.000000000000000000, 1.625000000000000000, -0.3750000000000000555 ) ) ;
#98 = ORIENTED_EDGE ( 'NONE', *, *, #137, .T. ) ;
#99 = FILL_AREA_STYLE_COLOUR ( '', #192 ) ;
#100 = CARTESIAN_POINT ( 'NONE',  ( 0.000000000000000000, 0.000000000000000000, 0.000000000000000000 ) ) ;
#101 = PRESENTATION_LAYER_ASSIGNMENT (  '', '', ( #186 ) ) ;
#102 = CYLINDRICAL_SURFACE ( 'NONE', #179, 0.3750000000000001110 ) ;
#103 = PRODUCT_CONTEXT ( 'NONE', #127, 'mechanical' ) ;
#104 = PRESENTATION_STYLE_ASSIGNMENT (( #8 ) ) ;
#105 = VERTEX_POINT ( 'NONE', #97 ) ;
#106 = UNCERTAINTY_MEASURE_WITH_UNIT (LENGTH_MEASURE( 1.000000000000000082E-05 ), #224, 'distance_accuracy_value', 'NONE');
#107 =( LENGTH_UNIT ( ) NAMED_UNIT ( * ) SI_UNIT ( $, .METRE. ) );
#108 = MECHANICAL_DESIGN_GEOMETRIC_PRESENTATION_REPRESENTATION (  '', ( #23 ), #163 ) ;
#109 = COLOUR_RGB ( '',0.7921568627450980005, 0.8196078431372548767, 0.9333333333333333481 ) ;
#110 = DIRECTION ( 'NONE',  ( -0.000000000000000000, -1.000000000000000000, -0.000000000000000000 ) ) ;
#111 = CIRCLE ( 'NONE', #66, 0.3750000000000000555 ) ;
#112 = FACE_OUTER_BOUND ( 'NONE', #228, .T. ) ;
#113 = CARTESIAN_POINT ( 'NONE',  ( -0.3750000000000002776, 4.000000000000000000, 0.000000000000000000 ) ) ;
#114 =( NAMED_UNIT ( * ) SI_UNIT ( $, .STERADIAN. ) SOLID_ANGLE_UNIT ( ) );
#115 = DIRECTION ( 'NONE',  ( -5.156407575357275916E-17, 1.000000000000000000, -0.000000000000000000 ) ) ;
#116 = ADVANCED_FACE ( 'NONE', ( #53 ), #177, .T. ) ;
#117 = CARTESIAN_POINT ( 'NONE',  ( 4.592425496802575451E-17, 0.000000000000000000, 0.3750000000000000555 ) ) ;
#118 = AXIS2_PLACEMENT_3D ( 'NONE', #162, #110, #299 ) ;
#119 = DIRECTION ( 'NONE',  ( -0.000000000000000000, -1.000000000000000000, -0.000000000000000000 ) ) ;
#120 = ORIENTED_EDGE ( 'NONE', *, *, #280, .F. ) ;
#121 = CYLINDRICAL_SURFACE ( 'NONE', #26, 0.3750000000000000555 ) ;
#122 = COLOUR_RGB ( '',1.000000000000000000, 0.000000000000000000, 0.000000000000000000 ) ;
#123 = CIRCLE ( 'NONE', #94, 0.3750000000000001665 ) ;
#124 = SURFACE_SIDE_STYLE ('',( #212 ) ) ;
#125 = ORIENTED_EDGE ( 'NONE', *, *, #28, .T. ) ;
#126 = PRODUCT_DEFINITION_CONTEXT ( 'detailed design', #306, 'design' ) ;
#127 = APPLICATION_CONTEXT ( 'automotive_design' ) ;
#128 = DIRECTION ( 'NONE',  ( -0.000000000000000000, -1.000000000000000000, -0.000000000000000000 ) ) ;
#129 = CARTESIAN_POINT ( 'NONE',  ( 0.000000000000000000, 0.000000000000000000, -0.3750000000000000555 ) ) ;
#130 = ORIENTED_EDGE ( 'NONE', *, *, #178, .F. ) ;
#131 = PRODUCT_RELATED_PRODUCT_CATEGORY ( 'part', '', ( #39 ) ) ;
#132 = EDGE_LOOP ( 'NONE', ( #296, #125, #98, #36 ) ) ;
#133 =( GEOMETRIC_REPRESENTATION_CONTEXT ( 3 ) GLOBAL_UNCERTAINTY_ASSIGNED_CONTEXT ( ( #297 ) ) GLOBAL_UNIT_ASSIGNED_CONTEXT ( ( #168, #194, #243 ) ) REPRESENTATION_CONTEXT ( 'NONE', 'WORKASPACE' ) );
#134 = AXIS2_PLACEMENT_3D ( 'NONE', #2, #175, #309 ) ;
#135 = ORIENTED_EDGE ( 'NONE', *, *, #28, .F. ) ;
#136 = LENGTH_MEASURE_WITH_UNIT ( LENGTH_MEASURE( 0.02539999999999999897 ), #160 );
#137 = EDGE_CURVE ( 'NONE', #105, #157, #153, .T. ) ;
#138 = DIRECTION ( 'NONE',  ( -5.156407575357275916E-17, 1.000000000000000000, -0.000000000000000000 ) ) ;
#139 =( NAMED_UNIT ( * ) SI_UNIT ( $, .STERADIAN. ) SOLID_ANGLE_UNIT ( ) );
#140 = UNCERTAINTY_MEASURE_WITH_UNIT (LENGTH_MEASURE( 1.000000000000000082E-05 ), #213, 'distance_accuracy_value', 'NONE');
#141 = DIRECTION ( 'NONE',  ( 0.000000000000000000, 0.000000000000000000, -1.000000000000000000 ) ) ;
#142 = EDGE_LOOP ( 'NONE', ( #58, #290, #120, #231 ) ) ;
#143 = CARTESIAN_POINT ( 'NONE',  ( 0.3750000000000000555, 4.000000000000000000, 0.000000000000000000 ) ) ;
#144 = FILL_AREA_STYLE_COLOUR ( '', #122 ) ;
#145 = ADVANCED_FACE ( 'NONE', ( #252 ), #102, .T. ) ;
#146 = LINE ( 'NONE', #19, #201 ) ;
#147 = DIMENSIONAL_EXPONENTS ( 1.000000000000000000, 0.000000000000000000, 0.000000000000000000, 0.000000000000000000, 0.000000000000000000, 0.000000000000000000, 0.000000000000000000 ) ;
#148 = VECTOR ( 'NONE', #119, 39.37007874015748143 ) ;
#149 = PRESENTATION_LAYER_ASSIGNMENT (  '', '', ( #62 ) ) ;
#150 = DIRECTION ( 'NONE',  ( -1.000000000000000000, -5.156407575357275916E-17, 0.000000000000000000 ) ) ;
#151 = EDGE_LOOP ( 'NONE', ( #261, #188 ) ) ;
#152 = APPLICATION_PROTOCOL_DEFINITION ( 'draft international standard', 'automotive_design', 1998, #127 ) ;
#153 = LINE ( 'NONE', #129, #159 ) ;
#154 = EDGE_CURVE ( 'NONE', #157, #42, #37, .T. ) ;
#155 =( NAMED_UNIT ( * ) SI_UNIT ( $, .STERADIAN. ) SOLID_ANGLE_UNIT ( ) );
#156 =( LENGTH_UNIT ( ) NAMED_UNIT ( * ) SI_UNIT ( $, .METRE. ) );
#157 = VERTEX_POINT ( 'NONE', #216 ) ;
#158 = UNCERTAINTY_MEASURE_WITH_UNIT (LENGTH_MEASURE( 1.000000000000000082E-05 ), #254, 'distance_accuracy_value', 'NONE');
#159 = VECTOR ( 'NONE', #291, 39.37007874015748143 ) ;
#160 =( LENGTH_UNIT ( ) NAMED_UNIT ( * ) SI_UNIT ( $, .METRE. ) );
#161 = ORIENTED_EDGE ( 'NONE', *, *, #154, .T. ) ;
#162 = CARTESIAN_POINT ( 'NONE',  ( 0.000000000000000000, 0.000000000000000000, 0.000000000000000000 ) ) ;
#163 =( GEOMETRIC_REPRESENTATION_CONTEXT ( 3 ) GLOBAL_UNCERTAINTY_ASSIGNED_CONTEXT ( ( #106 ) ) GLOBAL_UNIT_ASSIGNED_CONTEXT ( ( #224, #92, #114 ) ) REPRESENTATION_CONTEXT ( 'NONE', 'WORKASPACE' ) );
#164 = SURFACE_STYLE_USAGE ( .BOTH. , #63 ) ;
#165 = DIMENSIONAL_EXPONENTS ( 1.000000000000000000, 0.000000000000000000, 0.000000000000000000, 0.000000000000000000, 0.000000000000000000, 0.000000000000000000, 0.000000000000000000 ) ;
#166 = AXIS2_PLACEMENT_3D ( 'NONE', #81, #281, #91 ) ;
#167 = VECTOR ( 'NONE', #138, 39.37007874015748143 ) ;
#168 =( CONVERSION_BASED_UNIT ( 'INCH', #20 ) LENGTH_UNIT ( ) NAMED_UNIT ( #147 ) );
#169 = DIRECTION ( 'NONE',  ( -0.000000000000000000, -1.000000000000000000, -0.000000000000000000 ) ) ;
#170 = SURFACE_SIDE_STYLE ('',( #196 ) ) ;
#171 = CARTESIAN_POINT ( 'NONE',  ( -0.3750000000000000555, 1.625000000000000000, 0.000000000000000000 ) ) ;
#172 = SURFACE_STYLE_USAGE ( .BOTH. , #286 ) ;
#173 = AXIS2_PLACEMENT_3D ( 'NONE', #200, #69, #278 ) ;
#174 = CARTESIAN_POINT ( 'NONE',  ( 4.592425496802575451E-17, 0.000000000000000000, 0.3750000000000000555 ) ) ;
#175 = DIRECTION ( 'NONE',  ( 0.000000000000000000, 0.000000000000000000, 1.000000000000000000 ) ) ;
#176 =( NAMED_UNIT ( * ) PLANE_ANGLE_UNIT ( ) SI_UNIT ( $, .RADIAN. ) );
#177 = CYLINDRICAL_SURFACE ( 'NONE', #271, 0.3750000000000000555 ) ;
#178 = EDGE_CURVE ( 'NONE', #5, #35, #85, .T. ) ;
#179 = AXIS2_PLACEMENT_3D ( 'NONE', #209, #181, #14 ) ;
#180 = CARTESIAN_POINT ( 'NONE',  ( 0.000000000000000000, 0.000000000000000000, 0.000000000000000000 ) ) ;
#181 = DIRECTION ( 'NONE',  ( -5.156407575357275299E-17, 1.000000000000000000, -0.000000000000000000 ) ) ;
#182 = ORIENTED_EDGE ( 'NONE', *, *, #154, .F. ) ;
#183 = PRESENTATION_STYLE_ASSIGNMENT (( #45 ) ) ;
#184 = DIRECTION ( 'NONE',  ( -1.000000000000000000, 0.000000000000000000, 0.000000000000000000 ) ) ;
#185 = ORIENTED_EDGE ( 'NONE', *, *, #189, .F. ) ;
#186 = STYLED_ITEM ( 'NONE', ( #240 ), #241 ) ;
#187 = FILL_AREA_STYLE ('',( #190 ) ) ;
#188 = ORIENTED_EDGE ( 'NONE', *, *, #202, .F. ) ;
#189 = EDGE_CURVE ( 'NONE', #105, #1, #65, .T. ) ;
#190 = FILL_AREA_STYLE_COLOUR ( '', #33 ) ;
#191 = DIMENSIONAL_EXPONENTS ( 1.000000000000000000, 0.000000000000000000, 0.000000000000000000, 0.000000000000000000, 0.000000000000000000, 0.000000000000000000, 0.000000000000000000 ) ;
#192 = COLOUR_RGB ( '',1.000000000000000000, 0.000000000000000000, 0.000000000000000000 ) ;
#193 = SURFACE_STYLE_FILL_AREA ( #187 ) ;
#194 =( NAMED_UNIT ( * ) PLANE_ANGLE_UNIT ( ) SI_UNIT ( $, .RADIAN. ) );
#195 = AXIS2_PLACEMENT_3D ( 'NONE', #198, #283, #150 ) ;
#196 = SURFACE_STYLE_FILL_AREA ( #89 ) ;
#197 = DIRECTION ( 'NONE',  ( 0.000000000000000000, 0.000000000000000000, -1.000000000000000000 ) ) ;
#198 = CARTESIAN_POINT ( 'NONE',  ( 4.985351078100356093E-34, 1.625000000000000000, 0.000000000000000000 ) ) ;
#199 = PRODUCT_DEFINITION_SHAPE ( 'NONE', 'NONE',  #38 ) ;
#200 = CARTESIAN_POINT ( 'NONE',  ( -1.224646799147352714E-16, 4.000000000000000000, 0.000000000000000000 ) ) ;
#201 = VECTOR ( 'NONE', #115, 39.37007874015748143 ) ;
#202 = EDGE_CURVE ( 'NONE', #5, #229, #287, .T. ) ;
#203 = SURFACE_SIDE_STYLE ('',( #226 ) ) ;
#204 = ORIENTED_EDGE ( 'NONE', *, *, #202, .T. ) ;
#205 = MANIFOLD_SOLID_BREP ( 'Revolve - Cutting Edge', #82 ) ;
#206 = APPLICATION_PROTOCOL_DEFINITION ( 'draft international standard', 'automotive_design', 1998, #306 ) ;
#207 = DIRECTION ( 'NONE',  ( -0.000000000000000000, -1.000000000000000000, -0.000000000000000000 ) ) ;
#208 = ORIENTED_EDGE ( 'NONE', *, *, #292, .T. ) ;
#209 = CARTESIAN_POINT ( 'NONE',  ( -1.224646799147352714E-16, 4.000000000000000000, 0.000000000000000000 ) ) ;
#210 = ADVANCED_BREP_SHAPE_REPRESENTATION ( '59273', ( #205, #87, #134 ), #308 ) ;
#211 = ORIENTED_EDGE ( 'NONE', *, *, #137, .F. ) ;
#212 = SURFACE_STYLE_FILL_AREA ( #3 ) ;
#213 =( CONVERSION_BASED_UNIT ( 'INCH', #41 ) LENGTH_UNIT ( ) NAMED_UNIT ( #15 ) );
#214 = EDGE_CURVE ( 'NONE', #229, #5, #230, .T. ) ;
#215 = ORIENTED_EDGE ( 'NONE', *, *, #59, .T. ) ;
#216 = CARTESIAN_POINT ( 'NONE',  ( 0.000000000000000000, 0.000000000000000000, -0.3750000000000000555 ) ) ;
#217 = MECHANICAL_DESIGN_GEOMETRIC_PRESENTATION_REPRESENTATION (  '', ( #186 ), #133 ) ;
#218 = FACE_OUTER_BOUND ( 'NONE', #237, .T. ) ;
#219 = CARTESIAN_POINT ( 'NONE',  ( 0.000000000000000000, 1.625000000000000000, 0.000000000000000000 ) ) ;
#220 = CARTESIAN_POINT ( 'NONE',  ( 0.000000000000000000, 0.000000000000000000, 0.000000000000000000 ) ) ;
#221 = FACE_OUTER_BOUND ( 'NONE', #32, .T. ) ;
#222 = AXIS2_PLACEMENT_3D ( 'NONE', #84, #276, #141 ) ;
#223 = PRESENTATION_STYLE_ASSIGNMENT (( #172 ) ) ;
#224 =( CONVERSION_BASED_UNIT ( 'INCH', #244 ) LENGTH_UNIT ( ) NAMED_UNIT ( #60 ) );
#225 = AXIS2_PLACEMENT_3D ( 'NONE', #143, #285, #72 ) ;
#226 = SURFACE_STYLE_FILL_AREA ( #31 ) ;
#227 = FACE_OUTER_BOUND ( 'NONE', #9, .T. ) ;
#228 = EDGE_LOOP ( 'NONE', ( #40, #215 ) ) ;
#229 = VERTEX_POINT ( 'NONE', #171 ) ;
#230 = CIRCLE ( 'NONE', #166, 0.3750000000000000555 ) ;
#231 = ORIENTED_EDGE ( 'NONE', *, *, #292, .F. ) ;
#232 = ADVANCED_FACE ( 'NONE', ( #16 ), #305, .F. ) ;
#233 = MECHANICAL_DESIGN_GEOMETRIC_PRESENTATION_REPRESENTATION (  '', ( #47 ), #61 ) ;
#234 = DIMENSIONAL_EXPONENTS ( 1.000000000000000000, 0.000000000000000000, 0.000000000000000000, 0.000000000000000000, 0.000000000000000000, 0.000000000000000000, 0.000000000000000000 ) ;
#235 = COLOUR_RGB ( '',1.000000000000000000, 0.000000000000000000, 0.000000000000000000 ) ;
#236 = DIRECTION ( 'NONE',  ( 0.000000000000000000, 1.000000000000000000, 0.000000000000000000 ) ) ;
#237 = EDGE_LOOP ( 'NONE', ( #185, #135 ) ) ;
#238 = FILL_AREA_STYLE_COLOUR ( '', #242 ) ;
#239 = DIRECTION ( 'NONE',  ( 0.000000000000000000, 0.000000000000000000, -1.000000000000000000 ) ) ;
#240 = PRESENTATION_STYLE_ASSIGNMENT (( #46 ) ) ;
#241 = ADVANCED_FACE ( 'NONE', ( #218 ), #263, .T. ) ;
#242 = COLOUR_RGB ( '',1.000000000000000000, 0.000000000000000000, 0.000000000000000000 ) ;
#243 =( NAMED_UNIT ( * ) SI_UNIT ( $, .STERADIAN. ) SOLID_ANGLE_UNIT ( ) );
#244 = LENGTH_MEASURE_WITH_UNIT ( LENGTH_MEASURE( 0.02539999999999999897 ), #267 );
#245 = DIRECTION ( 'NONE',  ( 0.000000000000000000, 0.000000000000000000, -1.000000000000000000 ) ) ;
#246 = ADVANCED_FACE ( 'NONE', ( #112 ), #21, .F. ) ;
#247 =( NAMED_UNIT ( * ) SI_UNIT ( $, .STERADIAN. ) SOLID_ANGLE_UNIT ( ) );
#248 =( GEOMETRIC_REPRESENTATION_CONTEXT ( 3 ) GLOBAL_UNCERTAINTY_ASSIGNED_CONTEXT ( ( #52 ) ) GLOBAL_UNIT_ASSIGNED_CONTEXT ( ( #77, #54, #270 ) ) REPRESENTATION_CONTEXT ( 'NONE', 'WORKASPACE' ) );
#249 = UNCERTAINTY_MEASURE_WITH_UNIT (LENGTH_MEASURE( 1.000000000000000082E-05 ), #29, 'distance_accuracy_value', 'NONE');
#250 =( NAMED_UNIT ( * ) PLANE_ANGLE_UNIT ( ) SI_UNIT ( $, .RADIAN. ) );
#251 = FILL_AREA_STYLE_COLOUR ( '', #109 ) ;
#252 = FACE_OUTER_BOUND ( 'NONE', #142, .T. ) ;
#253 = SHAPE_DEFINITION_REPRESENTATION ( #199, #210 ) ;
#254 =( CONVERSION_BASED_UNIT ( 'INCH', #136 ) LENGTH_UNIT ( ) NAMED_UNIT ( #11 ) );
#255 = ORIENTED_EDGE ( 'NONE', *, *, #59, .F. ) ;
#256 = STYLED_ITEM ( 'NONE', ( #104 ), #87 ) ;
#257 = PRESENTATION_STYLE_ASSIGNMENT (( #57 ) ) ;
#258 = ORIENTED_EDGE ( 'NONE', *, *, #259, .T. ) ;
#259 = EDGE_CURVE ( 'NONE', #1, #42, #18, .T. ) ;
#260 = CARTESIAN_POINT ( 'NONE',  ( 0.3749999999999999445, 4.000000000000000000, 4.592425496802576068E-17 ) ) ;
#261 = ORIENTED_EDGE ( 'NONE', *, *, #214, .F. ) ;
#262 = DIRECTION ( 'NONE',  ( -5.156407575357275299E-17, 1.000000000000000000, -0.000000000000000000 ) ) ;
#263 = PLANE ( 'NONE',  #275 ) ;
#264 = CIRCLE ( 'NONE', #83, 0.3750000000000000555 ) ;
#265 = PLANE ( 'NONE',  #274 ) ;
#266 = SURFACE_SIDE_STYLE ('',( #49 ) ) ;
#267 =( LENGTH_UNIT ( ) NAMED_UNIT ( * ) SI_UNIT ( $, .METRE. ) );
#268 = LENGTH_MEASURE_WITH_UNIT ( LENGTH_MEASURE( 0.02539999999999999897 ), #7 );
#269 = CARTESIAN_POINT ( 'NONE',  ( -1.224646799147352714E-16, 4.000000000000000000, 0.000000000000000000 ) ) ;
#270 =( NAMED_UNIT ( * ) SI_UNIT ( $, .STERADIAN. ) SOLID_ANGLE_UNIT ( ) );
#271 = AXIS2_PLACEMENT_3D ( 'NONE', #180, #207, #80 ) ;
#272 = VERTEX_POINT ( 'NONE', #113 ) ;
#273 = STYLED_ITEM ( 'NONE', ( #257 ), #116 ) ;
#274 = AXIS2_PLACEMENT_3D ( 'NONE', #100, #295, #78 ) ;
#275 = AXIS2_PLACEMENT_3D ( 'NONE', #219, #236, #44 ) ;
#276 = DIRECTION ( 'NONE',  ( -0.000000000000000000, -1.000000000000000000, -0.000000000000000000 ) ) ;
#277 = PRESENTATION_STYLE_ASSIGNMENT (( #164 ) ) ;
#278 = DIRECTION ( 'NONE',  ( -1.000000000000000000, 0.000000000000000000, 0.000000000000000000 ) ) ;
#279 = PRESENTATION_LAYER_ASSIGNMENT (  '', '', ( #47 ) ) ;
#280 = EDGE_CURVE ( 'NONE', #272, #35, #301, .T. ) ;
#281 = DIRECTION ( 'NONE',  ( -5.156407575357275299E-17, 1.000000000000000000, -0.000000000000000000 ) ) ;
#282 = CARTESIAN_POINT ( 'NONE',  ( 0.3750000000000000555, 4.000000000000000000, 4.592425496802576684E-17 ) ) ;
#283 = DIRECTION ( 'NONE',  ( -5.156407575357275916E-17, 1.000000000000000000, 0.000000000000000000 ) ) ;
#284 = CARTESIAN_POINT ( 'NONE',  ( 4.592425496802575451E-17, 1.625000000000000000, 0.3750000000000000555 ) ) ;
#285 = DIRECTION ( 'NONE',  ( 5.156407575357275916E-17, -1.000000000000000000, 0.000000000000000000 ) ) ;
#286 = SURFACE_SIDE_STYLE ('',( #90 ) ) ;
#287 = CIRCLE ( 'NONE', #6, 0.3750000000000000555 ) ;
#288 = PRODUCT_DEFINITION_FORMATION_WITH_SPECIFIED_SOURCE ( 'ANY', '', #39, .NOT_KNOWN. ) ;
#289 =( LENGTH_UNIT ( ) NAMED_UNIT ( * ) SI_UNIT ( $, .METRE. ) );
#290 = ORIENTED_EDGE ( 'NONE', *, *, #178, .T. ) ;
#291 = DIRECTION ( 'NONE',  ( -0.000000000000000000, -1.000000000000000000, -0.000000000000000000 ) ) ;
#292 = EDGE_CURVE ( 'NONE', #229, #272, #146, .T. ) ;
#293 = PRESENTATION_LAYER_ASSIGNMENT (  '', '', ( #273 ) ) ;
#294 = ORIENTED_EDGE ( 'NONE', *, *, #302, .T. ) ;
#295 = DIRECTION ( 'NONE',  ( 0.000000000000000000, -1.000000000000000000, -0.000000000000000000 ) ) ;
#296 = ORIENTED_EDGE ( 'NONE', *, *, #259, .F. ) ;
#297 = UNCERTAINTY_MEASURE_WITH_UNIT (LENGTH_MEASURE( 1.000000000000000082E-05 ), #168, 'distance_accuracy_value', 'NONE');
#298 = ADVANCED_FACE ( 'NONE', ( #221 ), #265, .T. ) ;
#299 = DIRECTION ( 'NONE',  ( 0.000000000000000000, 0.000000000000000000, -1.000000000000000000 ) ) ;
#300 = CLOSED_SHELL ( 'NONE', ( #145, #232, #93, #246 ) ) ;
#301 = CIRCLE ( 'NONE', #173, 0.3750000000000001665 ) ;
#302 = EDGE_CURVE ( 'NONE', #42, #157, #111, .T. ) ;
#303 = FILL_AREA_STYLE_COLOUR ( '', #235 ) ;
#304 = CARTESIAN_POINT ( 'NONE',  ( -1.224646799147352714E-16, 4.000000000000000000, 0.000000000000000000 ) ) ;
#305 = PLANE ( 'NONE',  #195 ) ;
#306 = APPLICATION_CONTEXT ( 'automotive_design' ) ;
#307 = AXIS2_PLACEMENT_3D ( 'NONE', #269, #75, #79 ) ;
#308 =( GEOMETRIC_REPRESENTATION_CONTEXT ( 3 ) GLOBAL_UNCERTAINTY_ASSIGNED_CONTEXT ( ( #249 ) ) GLOBAL_UNIT_ASSIGNED_CONTEXT ( ( #29, #76, #55 ) ) REPRESENTATION_CONTEXT ( 'NONE', 'WORKASPACE' ) );
#309 = DIRECTION ( 'NONE',  ( 1.000000000000000000, 0.000000000000000000, 0.000000000000000000 ) ) ;
ENDSEC;
END-ISO-10303-21;
