ISO-10303-21;
HEADER;
FILE_DESCRIPTION (( 'STEP AP214' ),
    '1' );
FILE_NAME ('59822.STEP',
    '2023-07-12T13:06:26',
    ( '' ),
    ( '' ),
    'SwSTEP 2.0',
    'SolidWorks 2023',
    '' );
FILE_SCHEMA (( 'AUTOMOTIVE_DESIGN' ));
ENDSEC;

DATA;
#1 = DIMENSIONAL_EXPONENTS ( 1.000000000000000000, 0.000000000000000000, 0.000000000000000000, 0.000000000000000000, 0.000000000000000000, 0.000000000000000000, 0.000000000000000000 ) ;
#2 = ORIENTED_EDGE ( 'NONE', *, *, #126, .T. ) ;
#3 = EDGE_CURVE ( 'NONE', #172, #250, #59, .T. ) ;
#4 = PRESENTATION_LAYER_ASSIGNMENT (  '', '', ( #30 ) ) ;
#5 = ORIENTED_EDGE ( 'NONE', *, *, #281, .F. ) ;
#6 = UNCERTAINTY_MEASURE_WITH_UNIT (LENGTH_MEASURE( 1.000000000000000082E-05 ), #191, 'distance_accuracy_value', 'NONE');
#7 = LINE ( 'NONE', #270, #22 ) ;
#8 = DIRECTION ( 'NONE',  ( -1.220637216299921050E-16, 1.000000000000000000, 0.000000000000000000 ) ) ;
#9 = CARTESIAN_POINT ( 'NONE',  ( 0.04000000000000000083, 0.000000000000000000, 1.775737858763662224E-17 ) ) ;
#10 = EDGE_CURVE ( 'NONE', #172, #62, #153, .T. ) ;
#11 = CARTESIAN_POINT ( 'NONE',  ( 9.534859808300810328E-37, 1.380931555747844464E-19, 0.000000000000000000 ) ) ;
#12 = DIMENSIONAL_EXPONENTS ( 1.000000000000000000, 0.000000000000000000, 0.000000000000000000, 0.000000000000000000, 0.000000000000000000, 0.000000000000000000, 0.000000000000000000 ) ;
#13 = ORIENTED_EDGE ( 'NONE', *, *, #154, .T. ) ;
#14 = LENGTH_MEASURE_WITH_UNIT ( LENGTH_MEASURE( 0.02539999999999999897 ), #24 );
#15 =( NAMED_UNIT ( * ) SI_UNIT ( $, .STERADIAN. ) SOLID_ANGLE_UNIT ( ) );
#16 =( NAMED_UNIT ( * ) SI_UNIT ( $, .STERADIAN. ) SOLID_ANGLE_UNIT ( ) );
#17 = PRESENTATION_STYLE_ASSIGNMENT (( #245 ) ) ;
#18 = ORIENTED_EDGE ( 'NONE', *, *, #10, .F. ) ;
#19 = FACE_OUTER_BOUND ( 'NONE', #26, .T. ) ;
#20 = SURFACE_STYLE_USAGE ( .BOTH. , #168 ) ;
#21 = COLOUR_RGB ( '',1.000000000000000000, 0.000000000000000000, 0.000000000000000000 ) ;
#22 = VECTOR ( 'NONE', #113, 39.37007874015748854 ) ;
#23 = UNCERTAINTY_MEASURE_WITH_UNIT (LENGTH_MEASURE( 1.000000000000000082E-05 ), #243, 'distance_accuracy_value', 'NONE');
#24 =( LENGTH_UNIT ( ) NAMED_UNIT ( * ) SI_UNIT ( $, .METRE. ) );
#25 = FILL_AREA_STYLE_COLOUR ( '', #91 ) ;
#26 = EDGE_LOOP ( 'NONE', ( #13, #121 ) ) ;
#27 = ADVANCED_BREP_SHAPE_REPRESENTATION ( '59822', ( #204, #196, #99 ), #166 ) ;
#28 = FACE_OUTER_BOUND ( 'NONE', #186, .T. ) ;
#29 = EDGE_CURVE ( 'NONE', #250, #138, #39, .T. ) ;
#30 = STYLED_ITEM ( 'NONE', ( #170 ), #204 ) ;
#31 = STYLED_ITEM ( 'NONE', ( #159 ), #240 ) ;
#32 = LENGTH_MEASURE_WITH_UNIT ( LENGTH_MEASURE( 0.02539999999999999897 ), #56 );
#33 = AXIS2_PLACEMENT_3D ( 'NONE', #93, #164, #226 ) ;
#34 =( GEOMETRIC_REPRESENTATION_CONTEXT ( 3 ) GLOBAL_UNCERTAINTY_ASSIGNED_CONTEXT ( ( #297 ) ) GLOBAL_UNIT_ASSIGNED_CONTEXT ( ( #195, #110, #15 ) ) REPRESENTATION_CONTEXT ( 'NONE', 'WORKASPACE' ) );
#35 = SURFACE_STYLE_USAGE ( .BOTH. , #190 ) ;
#36 = AXIS2_PLACEMENT_3D ( 'NONE', #229, #221, #269 ) ;
#37 = SURFACE_STYLE_FILL_AREA ( #157 ) ;
#38 = DIRECTION ( 'NONE',  ( -1.000000000000000000, -1.365923996832133335E-16, 0.000000000000000000 ) ) ;
#39 = CIRCLE ( 'NONE', #303, 0.2500000000000000555 ) ;
#40 = DIRECTION ( 'NONE',  ( 1.000000000000000000, -6.904657778739222128E-18, 0.000000000000000000 ) ) ;
#41 = FILL_AREA_STYLE_COLOUR ( '', #222 ) ;
#42 = DIRECTION ( 'NONE',  ( -1.220637216299921050E-16, 1.000000000000000000, -0.000000000000000000 ) ) ;
#43 = ORIENTED_EDGE ( 'NONE', *, *, #57, .T. ) ;
#44 = DIRECTION ( 'NONE',  ( 1.220637216299921050E-16, -1.000000000000000000, 0.000000000000000000 ) ) ;
#45 = LENGTH_MEASURE_WITH_UNIT ( LENGTH_MEASURE( 0.02539999999999999897 ), #167 );
#46 = UNCERTAINTY_MEASURE_WITH_UNIT (LENGTH_MEASURE( 1.000000000000000082E-05 ), #298, 'distance_accuracy_value', 'NONE');
#47 = PRESENTATION_STYLE_ASSIGNMENT (( #88 ) ) ;
#48 = VERTEX_POINT ( 'NONE', #161 ) ;
#49 = FILL_AREA_STYLE ('',( #216 ) ) ;
#50 =( NAMED_UNIT ( * ) SI_UNIT ( $, .STERADIAN. ) SOLID_ANGLE_UNIT ( ) );
#51 = AXIS2_PLACEMENT_3D ( 'NONE', #294, #8, #183 ) ;
#52 = CIRCLE ( 'NONE', #122, 0.2499999999999999722 ) ;
#53 = APPLICATION_PROTOCOL_DEFINITION ( 'draft international standard', 'automotive_design', 1998, #77 ) ;
#54 = ORIENTED_EDGE ( 'NONE', *, *, #233, .F. ) ;
#55 = VECTOR ( 'NONE', #112, 39.37007874015748143 ) ;
#56 =( LENGTH_UNIT ( ) NAMED_UNIT ( * ) SI_UNIT ( $, .METRE. ) );
#57 = EDGE_CURVE ( 'NONE', #138, #250, #219, .T. ) ;
#58 =( NAMED_UNIT ( * ) PLANE_ANGLE_UNIT ( ) SI_UNIT ( $, .RADIAN. ) );
#59 = LINE ( 'NONE', #207, #265 ) ;
#60 =( NAMED_UNIT ( * ) SI_UNIT ( $, .STERADIAN. ) SOLID_ANGLE_UNIT ( ) );
#61 = PRODUCT_DEFINITION_FORMATION_WITH_SPECIFIED_SOURCE ( 'ANY', '', #175, .NOT_KNOWN. ) ;
#62 = VERTEX_POINT ( 'NONE', #242 ) ;
#63 = CARTESIAN_POINT ( 'NONE',  ( -6.123233995736772199E-17, 3.000000000000000444, 0.000000000000000000 ) ) ;
#64 =( GEOMETRIC_REPRESENTATION_CONTEXT ( 3 ) GLOBAL_UNCERTAINTY_ASSIGNED_CONTEXT ( ( #23 ) ) GLOBAL_UNIT_ASSIGNED_CONTEXT ( ( #243, #58, #60 ) ) REPRESENTATION_CONTEXT ( 'NONE', 'WORKASPACE' ) );
#65 = CARTESIAN_POINT ( 'NONE',  ( 1.906971961660162066E-36, 2.761863111495688928E-19, 0.000000000000000000 ) ) ;
#66 = ORIENTED_EDGE ( 'NONE', *, *, #29, .F. ) ;
#67 = FACE_OUTER_BOUND ( 'NONE', #230, .T. ) ;
#68 = DIRECTION ( 'NONE',  ( 1.000000000000000000, 0.000000000000000000, 0.000000000000000000 ) ) ;
#69 =( GEOMETRIC_REPRESENTATION_CONTEXT ( 3 ) GLOBAL_UNCERTAINTY_ASSIGNED_CONTEXT ( ( #111 ) ) GLOBAL_UNIT_ASSIGNED_CONTEXT ( ( #155, #223, #199 ) ) REPRESENTATION_CONTEXT ( 'NONE', 'WORKASPACE' ) );
#70 = DIRECTION ( 'NONE',  ( -1.000000000000000000, -1.365923996832133335E-16, 0.000000000000000000 ) ) ;
#71 = CIRCLE ( 'NONE', #148, 0.04000000000000000083 ) ;
#72 = CARTESIAN_POINT ( 'NONE',  ( 1.449978133535231054E-18, 0.2099999999999991873, 0.000000000000000000 ) ) ;
#73 = AXIS2_PLACEMENT_3D ( 'NONE', #252, #144, #231 ) ;
#74 = VERTEX_POINT ( 'NONE', #273 ) ;
#75 =( NAMED_UNIT ( * ) PLANE_ANGLE_UNIT ( ) SI_UNIT ( $, .RADIAN. ) );
#76 = SURFACE_STYLE_FILL_AREA ( #276 ) ;
#77 = APPLICATION_CONTEXT ( 'automotive_design' ) ;
#78 = PRODUCT_CONTEXT ( 'NONE', #141, 'mechanical' ) ;
#79 = CIRCLE ( 'NONE', #73, 0.2499999999999999722 ) ;
#80 = STYLED_ITEM ( 'NONE', ( #47 ), #158 ) ;
#81 = DIRECTION ( 'NONE',  ( -1.220637216299921050E-16, 1.000000000000000000, -0.000000000000000000 ) ) ;
#82 = ORIENTED_EDGE ( 'NONE', *, *, #171, .F. ) ;
#83 = CONICAL_SURFACE ( 'NONE', #237, 0.04000000000000000083, 0.7853981633974500554 ) ;
#84 = STYLED_ITEM ( 'NONE', ( #290 ), #196 ) ;
#85 = LENGTH_MEASURE_WITH_UNIT ( LENGTH_MEASURE( 0.02539999999999999897 ), #248 );
#86 = LINE ( 'NONE', #209, #55 ) ;
#87 = CYLINDRICAL_SURFACE ( 'NONE', #308, 0.2499999999999998612 ) ;
#88 = SURFACE_STYLE_USAGE ( .BOTH. , #146 ) ;
#89 = DIRECTION ( 'NONE',  ( -6.904657778739222128E-18, -1.000000000000000000, -0.000000000000000000 ) ) ;
#90 = SURFACE_STYLE_FILL_AREA ( #198 ) ;
#91 = COLOUR_RGB ( '',1.000000000000000000, 0.000000000000000000, 0.000000000000000000 ) ;
#92 = LENGTH_MEASURE_WITH_UNIT ( LENGTH_MEASURE( 0.02539999999999999897 ), #163 );
#93 = CARTESIAN_POINT ( 'NONE',  ( 1.906971961660162066E-36, 2.761863111495688928E-19, 0.000000000000000000 ) ) ;
#94 =( GEOMETRIC_REPRESENTATION_CONTEXT ( 3 ) GLOBAL_UNCERTAINTY_ASSIGNED_CONTEXT ( ( #225 ) ) GLOBAL_UNIT_ASSIGNED_CONTEXT ( ( #279, #255, #50 ) ) REPRESENTATION_CONTEXT ( 'NONE', 'WORKASPACE' ) );
#95 = PRESENTATION_STYLE_ASSIGNMENT (( #20 ) ) ;
#96 = ORIENTED_EDGE ( 'NONE', *, *, #3, .F. ) ;
#97 = ADVANCED_FACE ( 'NONE', ( #19 ), #134, .T. ) ;
#98 = AXIS2_PLACEMENT_3D ( 'NONE', #115, #185, #124 ) ;
#99 = AXIS2_PLACEMENT_3D ( 'NONE', #282, #261, #309 ) ;
#100 = DIRECTION ( 'NONE',  ( -0.7071067811865486830, 0.7071067811865462405, 0.000000000000000000 ) ) ;
#101 = STYLED_ITEM ( 'NONE', ( #17 ), #97 ) ;
#102 = SURFACE_STYLE_FILL_AREA ( #49 ) ;
#103 = LENGTH_MEASURE_WITH_UNIT ( LENGTH_MEASURE( 0.02539999999999999897 ), #306 );
#104 = AXIS2_PLACEMENT_3D ( 'NONE', #254, #44, #253 ) ;
#105 = MECHANICAL_DESIGN_GEOMETRIC_PRESENTATION_REPRESENTATION (  '', ( #280 ), #94 ) ;
#106 = PRODUCT_RELATED_PRODUCT_CATEGORY ( 'part', '', ( #175 ) ) ;
#107 = DIMENSIONAL_EXPONENTS ( 1.000000000000000000, 0.000000000000000000, 0.000000000000000000, 0.000000000000000000, 0.000000000000000000, 0.000000000000000000, 0.000000000000000000 ) ;
#108 =( GEOMETRIC_REPRESENTATION_CONTEXT ( 3 ) GLOBAL_UNCERTAINTY_ASSIGNED_CONTEXT ( ( #46 ) ) GLOBAL_UNIT_ASSIGNED_CONTEXT ( ( #298, #75, #151 ) ) REPRESENTATION_CONTEXT ( 'NONE', 'WORKASPACE' ) );
#109 = ORIENTED_EDGE ( 'NONE', *, *, #154, .F. ) ;
#110 =( NAMED_UNIT ( * ) PLANE_ANGLE_UNIT ( ) SI_UNIT ( $, .RADIAN. ) );
#111 = UNCERTAINTY_MEASURE_WITH_UNIT (LENGTH_MEASURE( 1.000000000000000082E-05 ), #155, 'distance_accuracy_value', 'NONE');
#112 = DIRECTION ( 'NONE',  ( -1.220637216299921050E-16, 1.000000000000000000, -0.000000000000000000 ) ) ;
#113 = DIRECTION ( 'NONE',  ( 0.7071067811865486830, 0.7071067811865462405, 8.659560562354947649E-17 ) ) ;
#114 = CLOSED_SHELL ( 'NONE', ( #262, #158, #240, #97 ) ) ;
#115 = CARTESIAN_POINT ( 'NONE',  ( 1.449978133535231054E-18, 0.2099999999999991873, 0.000000000000000000 ) ) ;
#116 = FACE_OUTER_BOUND ( 'NONE', #123, .T. ) ;
#117 =( LENGTH_UNIT ( ) NAMED_UNIT ( * ) SI_UNIT ( $, .METRE. ) );
#118 = DIRECTION ( 'NONE',  ( -6.904657778739221357E-18, -1.000000000000000000, 0.000000000000000000 ) ) ;
#119 = CARTESIAN_POINT ( 'NONE',  ( 1.906971961660162066E-36, 2.761863111495688928E-19, 0.000000000000000000 ) ) ;
#120 = SURFACE_STYLE_FILL_AREA ( #160 ) ;
#121 = ORIENTED_EDGE ( 'NONE', *, *, #139, .T. ) ;
#122 = AXIS2_PLACEMENT_3D ( 'NONE', #72, #217, #68 ) ;
#123 = EDGE_LOOP ( 'NONE', ( #82, #18 ) ) ;
#124 = DIRECTION ( 'NONE',  ( -1.000000000000000000, 6.904657778739221357E-18, 0.000000000000000000 ) ) ;
#125 = MECHANICAL_DESIGN_GEOMETRIC_PRESENTATION_REPRESENTATION (  '', ( #30 ), #34 ) ;
#126 = EDGE_CURVE ( 'NONE', #62, #138, #86, .T. ) ;
#127 = ORIENTED_EDGE ( 'NONE', *, *, #171, .T. ) ;
#128 = DIMENSIONAL_EXPONENTS ( 1.000000000000000000, 0.000000000000000000, 0.000000000000000000, 0.000000000000000000, 0.000000000000000000, 0.000000000000000000, 0.000000000000000000 ) ;
#129 = ORIENTED_EDGE ( 'NONE', *, *, #256, .F. ) ;
#130 = PRESENTATION_LAYER_ASSIGNMENT (  '', '', ( #80 ) ) ;
#131 = ADVANCED_FACE ( 'NONE', ( #116 ), #203, .F. ) ;
#132 = DIMENSIONAL_EXPONENTS ( 1.000000000000000000, 0.000000000000000000, 0.000000000000000000, 0.000000000000000000, 0.000000000000000000, 0.000000000000000000, 0.000000000000000000 ) ;
#133 = AXIS2_PLACEMENT_3D ( 'NONE', #201, #187, #70 ) ;
#134 = PLANE ( 'NONE',  #152 ) ;
#135 = FILL_AREA_STYLE_COLOUR ( '', #304 ) ;
#136 = FACE_OUTER_BOUND ( 'NONE', #143, .T. ) ;
#137 = DIRECTION ( 'NONE',  ( -1.000000000000000000, 0.000000000000000000, 0.000000000000000000 ) ) ;
#138 = VERTEX_POINT ( 'NONE', #247 ) ;
#139 = EDGE_CURVE ( 'NONE', #218, #285, #71, .T. ) ;
#140 = FILL_AREA_STYLE_COLOUR ( '', #21 ) ;
#141 = APPLICATION_CONTEXT ( 'automotive_design' ) ;
#142 = SURFACE_STYLE_FILL_AREA ( #257 ) ;
#143 = EDGE_LOOP ( 'NONE', ( #43, #258 ) ) ;
#144 = DIRECTION ( 'NONE',  ( -6.904657778739222128E-18, -1.000000000000000000, -0.000000000000000000 ) ) ;
#145 = ORIENTED_EDGE ( 'NONE', *, *, #10, .T. ) ;
#146 = SURFACE_SIDE_STYLE ('',( #76 ) ) ;
#147 = CARTESIAN_POINT ( 'NONE',  ( 1.906971961660162066E-36, 2.761863111495688928E-19, 0.000000000000000000 ) ) ;
#148 = AXIS2_PLACEMENT_3D ( 'NONE', #65, #89, #40 ) ;
#149 = PRODUCT_DEFINITION_SHAPE ( 'NONE', 'NONE',  #212 ) ;
#150 = EDGE_LOOP ( 'NONE', ( #96, #145, #2, #66 ) ) ;
#151 =( NAMED_UNIT ( * ) SI_UNIT ( $, .STERADIAN. ) SOLID_ANGLE_UNIT ( ) );
#152 = AXIS2_PLACEMENT_3D ( 'NONE', #11, #118, #224 ) ;
#153 = CIRCLE ( 'NONE', #305, 0.2499999999999996947 ) ;
#154 = EDGE_CURVE ( 'NONE', #285, #218, #220, .T. ) ;
#155 =( CONVERSION_BASED_UNIT ( 'INCH', #85 ) LENGTH_UNIT ( ) NAMED_UNIT ( #132 ) );
#156 = PRESENTATION_LAYER_ASSIGNMENT (  '', '', ( #280 ) ) ;
#157 = FILL_AREA_STYLE ('',( #140 ) ) ;
#158 = ADVANCED_FACE ( 'NONE', ( #291 ), #301, .T. ) ;
#159 = PRESENTATION_STYLE_ASSIGNMENT (( #162 ) ) ;
#160 = FILL_AREA_STYLE ('',( #206 ) ) ;
#161 = CARTESIAN_POINT ( 'NONE',  ( -0.2499999999999999167, 0.2099999999999991873, 0.000000000000000000 ) ) ;
#162 = SURFACE_STYLE_USAGE ( .BOTH. , #268 ) ;
#163 =( LENGTH_UNIT ( ) NAMED_UNIT ( * ) SI_UNIT ( $, .METRE. ) );
#164 = DIRECTION ( 'NONE',  ( -6.904657778739222128E-18, -1.000000000000000000, -0.000000000000000000 ) ) ;
#165 = AXIS2_PLACEMENT_3D ( 'NONE', #176, #81, #189 ) ;
#166 =( GEOMETRIC_REPRESENTATION_CONTEXT ( 3 ) GLOBAL_UNCERTAINTY_ASSIGNED_CONTEXT ( ( #6 ) ) GLOBAL_UNIT_ASSIGNED_CONTEXT ( ( #191, #249, #260 ) ) REPRESENTATION_CONTEXT ( 'NONE', 'WORKASPACE' ) );
#167 =( LENGTH_UNIT ( ) NAMED_UNIT ( * ) SI_UNIT ( $, .METRE. ) );
#168 = SURFACE_SIDE_STYLE ('',( #142 ) ) ;
#169 = PLANE ( 'NONE',  #104 ) ;
#170 = PRESENTATION_STYLE_ASSIGNMENT (( #35 ) ) ;
#171 = EDGE_CURVE ( 'NONE', #62, #172, #263, .T. ) ;
#172 = VERTEX_POINT ( 'NONE', #287 ) ;
#173 = ORIENTED_EDGE ( 'NONE', *, *, #139, .F. ) ;
#174 = COLOUR_RGB ( '',0.7921568627450980005, 0.8196078431372548767, 0.9333333333333333481 ) ;
#175 = PRODUCT ( '59822', '59822', '', ( #78 ) ) ;
#176 = CARTESIAN_POINT ( 'NONE',  ( -6.123233995736772199E-17, 3.000000000000000444, 0.000000000000000000 ) ) ;
#177 = ORIENTED_EDGE ( 'NONE', *, *, #284, .F. ) ;
#178 = CONICAL_SURFACE ( 'NONE', #235, 0.04000000000000000083, 0.7853981633974500554 ) ;
#179 = COLOUR_RGB ( '',0.7921568627450980005, 0.8196078431372548767, 0.9333333333333333481 ) ;
#180 = ADVANCED_FACE ( 'NONE', ( #136 ), #169, .F. ) ;
#181 = SURFACE_SIDE_STYLE ('',( #37 ) ) ;
#182 = DIRECTION ( 'NONE',  ( -1.000000000000000000, 0.000000000000000000, 0.000000000000000000 ) ) ;
#183 = DIRECTION ( 'NONE',  ( -1.000000000000000000, -1.220637216299921050E-16, 0.000000000000000000 ) ) ;
#184 = ADVANCED_FACE ( 'NONE', ( #67 ), #87, .T. ) ;
#185 = DIRECTION ( 'NONE',  ( 6.904657778739221357E-18, 1.000000000000000000, 0.000000000000000000 ) ) ;
#186 = EDGE_LOOP ( 'NONE', ( #173, #293, #194, #5 ) ) ;
#187 = DIRECTION ( 'NONE',  ( -1.220637216299921050E-16, 1.000000000000000000, -0.000000000000000000 ) ) ;
#188 = CARTESIAN_POINT ( 'NONE',  ( 0.2500000000000000000, 3.000000000000000444, 3.061616997868383018E-17 ) ) ;
#189 = DIRECTION ( 'NONE',  ( -1.000000000000000000, 0.000000000000000000, 0.000000000000000000 ) ) ;
#190 = SURFACE_SIDE_STYLE ('',( #102 ) ) ;
#191 =( CONVERSION_BASED_UNIT ( 'INCH', #103 ) LENGTH_UNIT ( ) NAMED_UNIT ( #128 ) );
#192 = APPLICATION_PROTOCOL_DEFINITION ( 'draft international standard', 'automotive_design', 1998, #141 ) ;
#193 = MECHANICAL_DESIGN_GEOMETRIC_PRESENTATION_REPRESENTATION (  '', ( #101 ), #69 ) ;
#194 = ORIENTED_EDGE ( 'NONE', *, *, #256, .T. ) ;
#195 =( CONVERSION_BASED_UNIT ( 'INCH', #32 ) LENGTH_UNIT ( ) NAMED_UNIT ( #107 ) );
#196 = MANIFOLD_SOLID_BREP ( 'Revolve - Tool Body (Tipped Off)', #238 ) ;
#197 = DIMENSIONAL_EXPONENTS ( 1.000000000000000000, 0.000000000000000000, 0.000000000000000000, 0.000000000000000000, 0.000000000000000000, 0.000000000000000000, 0.000000000000000000 ) ;
#198 = FILL_AREA_STYLE ('',( #135 ) ) ;
#199 =( NAMED_UNIT ( * ) SI_UNIT ( $, .STERADIAN. ) SOLID_ANGLE_UNIT ( ) );
#200 = DIRECTION ( 'NONE',  ( -1.220637216299921050E-16, 1.000000000000000000, -0.000000000000000000 ) ) ;
#201 = CARTESIAN_POINT ( 'NONE',  ( 2.793254433903104166E-16, 0.2099999999999991318, 0.000000000000000000 ) ) ;
#202 = ADVANCED_FACE ( 'NONE', ( #283 ), #271, .T. ) ;
#203 = PLANE ( 'NONE',  #51 ) ;
#204 = MANIFOLD_SOLID_BREP ( 'Revolve - Cutting Edge', #114 ) ;
#205 = MECHANICAL_DESIGN_GEOMETRIC_PRESENTATION_REPRESENTATION (  '', ( #80 ), #228 ) ;
#206 = FILL_AREA_STYLE_COLOUR ( '', #179 ) ;
#207 = CARTESIAN_POINT ( 'NONE',  ( 0.2499999999999998057, 3.000000000000000444, 3.061616997868381785E-17 ) ) ;
#208 = ORIENTED_EDGE ( 'NONE', *, *, #126, .F. ) ;
#209 = CARTESIAN_POINT ( 'NONE',  ( -0.2499999999999999167, 3.000000000000000444, 0.000000000000000000 ) ) ;
#210 = PRESENTATION_LAYER_ASSIGNMENT (  '', '', ( #101 ) ) ;
#211 = SURFACE_SIDE_STYLE ('',( #120 ) ) ;
#212 = PRODUCT_DEFINITION ( 'UNKNOWN', '', #61, #292 ) ;
#213 =( NAMED_UNIT ( * ) PLANE_ANGLE_UNIT ( ) SI_UNIT ( $, .RADIAN. ) );
#214 = CARTESIAN_POINT ( 'NONE',  ( -0.04000000000000000083, 5.523726222991377856E-19, 0.000000000000000000 ) ) ;
#215 = MECHANICAL_DESIGN_GEOMETRIC_PRESENTATION_REPRESENTATION (  '', ( #31 ), #64 ) ;
#216 = FILL_AREA_STYLE_COLOUR ( '', #174 ) ;
#217 = DIRECTION ( 'NONE',  ( -6.904657778739222128E-18, -1.000000000000000000, -0.000000000000000000 ) ) ;
#218 = VERTEX_POINT ( 'NONE', #9 ) ;
#219 = CIRCLE ( 'NONE', #36, 0.2500000000000000555 ) ;
#220 = CIRCLE ( 'NONE', #33, 0.04000000000000000083 ) ;
#221 = DIRECTION ( 'NONE',  ( -1.220637216299921050E-16, 1.000000000000000000, -0.000000000000000000 ) ) ;
#222 = COLOUR_RGB ( '',1.000000000000000000, 0.000000000000000000, 0.000000000000000000 ) ;
#223 =( NAMED_UNIT ( * ) PLANE_ANGLE_UNIT ( ) SI_UNIT ( $, .RADIAN. ) );
#224 = DIRECTION ( 'NONE',  ( 1.000000000000000000, -6.904657778739221357E-18, 0.000000000000000000 ) ) ;
#225 = UNCERTAINTY_MEASURE_WITH_UNIT (LENGTH_MEASURE( 1.000000000000000082E-05 ), #279, 'distance_accuracy_value', 'NONE');
#226 = DIRECTION ( 'NONE',  ( 1.000000000000000000, -6.904657778739222128E-18, 0.000000000000000000 ) ) ;
#227 = ORIENTED_EDGE ( 'NONE', *, *, #57, .F. ) ;
#228 =( GEOMETRIC_REPRESENTATION_CONTEXT ( 3 ) GLOBAL_UNCERTAINTY_ASSIGNED_CONTEXT ( ( #307 ) ) GLOBAL_UNIT_ASSIGNED_CONTEXT ( ( #246, #213, #16 ) ) REPRESENTATION_CONTEXT ( 'NONE', 'WORKASPACE' ) );
#229 = CARTESIAN_POINT ( 'NONE',  ( -6.123233995736772199E-17, 3.000000000000000444, 0.000000000000000000 ) ) ;
#230 = EDGE_LOOP ( 'NONE', ( #127, #264, #227, #208 ) ) ;
#231 = DIRECTION ( 'NONE',  ( 1.000000000000000000, 0.000000000000000000, 0.000000000000000000 ) ) ;
#232 = SURFACE_STYLE_USAGE ( .BOTH. , #211 ) ;
#233 = EDGE_CURVE ( 'NONE', #218, #74, #7, .T. ) ;
#234 = CARTESIAN_POINT ( 'NONE',  ( -0.04000000000000000083, 5.523726222991377856E-19, 0.000000000000000000 ) ) ;
#235 = AXIS2_PLACEMENT_3D ( 'NONE', #147, #302, #299 ) ;
#236 = EDGE_LOOP ( 'NONE', ( #54, #109, #296, #295 ) ) ;
#237 = AXIS2_PLACEMENT_3D ( 'NONE', #119, #274, #278 ) ;
#238 = CLOSED_SHELL ( 'NONE', ( #184, #131, #202, #180 ) ) ;
#239 = DIMENSIONAL_EXPONENTS ( 1.000000000000000000, 0.000000000000000000, 0.000000000000000000, 0.000000000000000000, 0.000000000000000000, 0.000000000000000000, 0.000000000000000000 ) ;
#240 = ADVANCED_FACE ( 'NONE', ( #289 ), #83, .T. ) ;
#241 = PRESENTATION_LAYER_ASSIGNMENT (  '', '', ( #31 ) ) ;
#242 = CARTESIAN_POINT ( 'NONE',  ( -0.2499999999999994171, 0.2099999999999991041, 0.000000000000000000 ) ) ;
#243 =( CONVERSION_BASED_UNIT ( 'INCH', #266 ) LENGTH_UNIT ( ) NAMED_UNIT ( #12 ) );
#244 = MECHANICAL_DESIGN_GEOMETRIC_PRESENTATION_REPRESENTATION (  '', ( #84 ), #108 ) ;
#245 = SURFACE_STYLE_USAGE ( .BOTH. , #181 ) ;
#246 =( CONVERSION_BASED_UNIT ( 'INCH', #14 ) LENGTH_UNIT ( ) NAMED_UNIT ( #1 ) );
#247 = CARTESIAN_POINT ( 'NONE',  ( -0.2500000000000001110, 3.000000000000000444, 0.000000000000000000 ) ) ;
#248 =( LENGTH_UNIT ( ) NAMED_UNIT ( * ) SI_UNIT ( $, .METRE. ) );
#249 =( NAMED_UNIT ( * ) PLANE_ANGLE_UNIT ( ) SI_UNIT ( $, .RADIAN. ) );
#250 = VERTEX_POINT ( 'NONE', #188 ) ;
#251 = CARTESIAN_POINT ( 'NONE',  ( -6.123233995736772199E-17, 3.000000000000000444, 0.000000000000000000 ) ) ;
#252 = CARTESIAN_POINT ( 'NONE',  ( 1.449978133535231054E-18, 0.2099999999999991873, 0.000000000000000000 ) ) ;
#253 = DIRECTION ( 'NONE',  ( 1.000000000000000000, 1.220637216299921050E-16, 0.000000000000000000 ) ) ;
#254 = CARTESIAN_POINT ( 'NONE',  ( 0.2500000000000000000, 3.000000000000000444, 0.000000000000000000 ) ) ;
#255 =( NAMED_UNIT ( * ) PLANE_ANGLE_UNIT ( ) SI_UNIT ( $, .RADIAN. ) );
#256 = EDGE_CURVE ( 'NONE', #74, #48, #52, .T. ) ;
#257 = FILL_AREA_STYLE ('',( #25 ) ) ;
#258 = ORIENTED_EDGE ( 'NONE', *, *, #29, .T. ) ;
#259 = SHAPE_DEFINITION_REPRESENTATION ( #149, #27 ) ;
#260 =( NAMED_UNIT ( * ) SI_UNIT ( $, .STERADIAN. ) SOLID_ANGLE_UNIT ( ) );
#261 = DIRECTION ( 'NONE',  ( 0.000000000000000000, 0.000000000000000000, 1.000000000000000000 ) ) ;
#262 = ADVANCED_FACE ( 'NONE', ( #28 ), #178, .T. ) ;
#263 = CIRCLE ( 'NONE', #133, 0.2499999999999996947 ) ;
#264 = ORIENTED_EDGE ( 'NONE', *, *, #3, .T. ) ;
#265 = VECTOR ( 'NONE', #267, 39.37007874015748143 ) ;
#266 = LENGTH_MEASURE_WITH_UNIT ( LENGTH_MEASURE( 0.02539999999999999897 ), #117 );
#267 = DIRECTION ( 'NONE',  ( -1.220637216299921050E-16, 1.000000000000000000, -0.000000000000000000 ) ) ;
#268 = SURFACE_SIDE_STYLE ('',( #90 ) ) ;
#269 = DIRECTION ( 'NONE',  ( -1.000000000000000000, 0.000000000000000000, 0.000000000000000000 ) ) ;
#270 = CARTESIAN_POINT ( 'NONE',  ( 0.04000000000000000083, 0.000000000000000000, 4.898587196589413537E-18 ) ) ;
#271 = CYLINDRICAL_SURFACE ( 'NONE', #165, 0.2499999999999998612 ) ;
#272 = EDGE_LOOP ( 'NONE', ( #177, #129 ) ) ;
#273 = CARTESIAN_POINT ( 'NONE',  ( 0.2499999999999999167, 0.2099999999999991873, 3.061616997868382402E-17 ) ) ;
#274 = DIRECTION ( 'NONE',  ( 6.904657778739222128E-18, 1.000000000000000000, 0.000000000000000000 ) ) ;
#275 = VECTOR ( 'NONE', #100, 39.37007874015748854 ) ;
#276 = FILL_AREA_STYLE ('',( #41 ) ) ;
#277 = LINE ( 'NONE', #214, #275 ) ;
#278 = DIRECTION ( 'NONE',  ( -1.000000000000000000, 6.904657778739222128E-18, 0.000000000000000000 ) ) ;
#279 =( CONVERSION_BASED_UNIT ( 'INCH', #45 ) LENGTH_UNIT ( ) NAMED_UNIT ( #197 ) );
#280 = STYLED_ITEM ( 'NONE', ( #95 ), #262 ) ;
#281 = EDGE_CURVE ( 'NONE', #285, #48, #277, .T. ) ;
#282 = CARTESIAN_POINT ( 'NONE',  ( 0.000000000000000000, 0.000000000000000000, 0.000000000000000000 ) ) ;
#283 = FACE_OUTER_BOUND ( 'NONE', #150, .T. ) ;
#284 = EDGE_CURVE ( 'NONE', #48, #74, #79, .T. ) ;
#285 = VERTEX_POINT ( 'NONE', #234 ) ;
#286 = DIRECTION ( 'NONE',  ( -1.220637216299921050E-16, 1.000000000000000000, -0.000000000000000000 ) ) ;
#287 = CARTESIAN_POINT ( 'NONE',  ( 0.2499999999999999722, 0.2099999999999991596, 3.061616997868383018E-17 ) ) ;
#288 = CARTESIAN_POINT ( 'NONE',  ( 2.793254433903104166E-16, 0.2099999999999991318, 0.000000000000000000 ) ) ;
#289 = FACE_OUTER_BOUND ( 'NONE', #236, .T. ) ;
#290 = PRESENTATION_STYLE_ASSIGNMENT (( #232 ) ) ;
#291 = FACE_OUTER_BOUND ( 'NONE', #272, .T. ) ;
#292 = PRODUCT_DEFINITION_CONTEXT ( 'detailed design', #77, 'design' ) ;
#293 = ORIENTED_EDGE ( 'NONE', *, *, #233, .T. ) ;
#294 = CARTESIAN_POINT ( 'NONE',  ( 2.793254433903104166E-16, 0.2099999999999991873, 0.000000000000000000 ) ) ;
#295 = ORIENTED_EDGE ( 'NONE', *, *, #284, .T. ) ;
#296 = ORIENTED_EDGE ( 'NONE', *, *, #281, .T. ) ;
#297 = UNCERTAINTY_MEASURE_WITH_UNIT (LENGTH_MEASURE( 1.000000000000000082E-05 ), #195, 'distance_accuracy_value', 'NONE');
#298 =( CONVERSION_BASED_UNIT ( 'INCH', #92 ) LENGTH_UNIT ( ) NAMED_UNIT ( #239 ) );
#299 = DIRECTION ( 'NONE',  ( -1.000000000000000000, 6.904657778739222128E-18, 0.000000000000000000 ) ) ;
#300 = PRESENTATION_LAYER_ASSIGNMENT (  '', '', ( #84 ) ) ;
#301 = PLANE ( 'NONE',  #98 ) ;
#302 = DIRECTION ( 'NONE',  ( 6.904657778739222128E-18, 1.000000000000000000, 0.000000000000000000 ) ) ;
#303 = AXIS2_PLACEMENT_3D ( 'NONE', #63, #286, #137 ) ;
#304 = COLOUR_RGB ( '',1.000000000000000000, 0.000000000000000000, 0.000000000000000000 ) ;
#305 = AXIS2_PLACEMENT_3D ( 'NONE', #288, #200, #38 ) ;
#306 =( LENGTH_UNIT ( ) NAMED_UNIT ( * ) SI_UNIT ( $, .METRE. ) );
#307 = UNCERTAINTY_MEASURE_WITH_UNIT (LENGTH_MEASURE( 1.000000000000000082E-05 ), #246, 'distance_accuracy_value', 'NONE');
#308 = AXIS2_PLACEMENT_3D ( 'NONE', #251, #42, #182 ) ;
#309 = DIRECTION ( 'NONE',  ( 1.000000000000000000, 0.000000000000000000, 0.000000000000000000 ) ) ;
ENDSEC;
END-ISO-10303-21;
