ISO-10303-21;
HEADER;
FILE_DESCRIPTION (( 'STEP AP214' ),
    '1' );
FILE_NAME ('59735.STEP',
    '2023-07-24T15:30:55',
    ( '' ),
    ( '' ),
    'SwSTEP 2.0',
    'SolidWorks 2023',
    '' );
FILE_SCHEMA (( 'AUTOMOTIVE_DESIGN' ));
ENDSEC;

DATA;
#1 = EDGE_CURVE ( 'NONE', #148, #87, #120, .T. ) ;
#2 = DIRECTION ( 'NONE',  ( 1.000000000000000000, 0.000000000000000000, 0.000000000000000000 ) ) ;
#3 = UNCERTAINTY_MEASURE_WITH_UNIT (LENGTH_MEASURE( 1.000000000000000082E-05 ), #215, 'distance_accuracy_value', 'NONE');
#4 = AXIS2_PLACEMENT_3D ( 'NONE', #325, #6, #212 ) ;
#5 = AXIS2_PLACEMENT_3D ( 'NONE', #157, #303, #244 ) ;
#6 = DIRECTION ( 'NONE',  ( -5.682149050294907483E-17, 1.000000000000000000, 0.000000000000000000 ) ) ;
#7 = ORIENTED_EDGE ( 'NONE', *, *, #198, .F. ) ;
#8 = FILL_AREA_STYLE ('',( #268 ) ) ;
#9 = SURFACE_SIDE_STYLE ('',( #180 ) ) ;
#10 = DIRECTION ( 'NONE',  ( 0.000000000000000000, 0.000000000000000000, -1.000000000000000000 ) ) ;
#11 = CARTESIAN_POINT ( 'NONE',  ( 4.898587196589412829E-16, 16.00000000000000000, 4.000000000000000000 ) ) ;
#12 = PRESENTATION_LAYER_ASSIGNMENT (  '', '', ( #135 ) ) ;
#13 = DIRECTION ( 'NONE',  ( -0.000000000000000000, -1.000000000000000000, -0.000000000000000000 ) ) ;
#14 = PRODUCT_DEFINITION ( 'UNKNOWN', '', #283, #110 ) ;
#15 = CARTESIAN_POINT ( 'NONE',  ( 4.898587196589412829E-16, 0.5000000000000000000, 4.000000000000000000 ) ) ;
#16 = DIRECTION ( 'NONE',  ( 0.000000000000000000, 1.000000000000000000, 0.000000000000000000 ) ) ;
#17 = AXIS2_PLACEMENT_3D ( 'NONE', #121, #39, #177 ) ;
#18 = AXIS2_PLACEMENT_3D ( 'NONE', #160, #349, #274 ) ;
#19 = DIRECTION ( 'NONE',  ( 0.000000000000000000, 0.000000000000000000, -1.000000000000000000 ) ) ;
#20 =( LENGTH_UNIT ( ) NAMED_UNIT ( * ) SI_UNIT ( .MILLI., .METRE. ) );
#21 = PRESENTATION_STYLE_ASSIGNMENT (( #111 ) ) ;
#22 =( NAMED_UNIT ( * ) SI_UNIT ( $, .STERADIAN. ) SOLID_ANGLE_UNIT ( ) );
#23 =( GEOMETRIC_REPRESENTATION_CONTEXT ( 3 ) GLOBAL_UNCERTAINTY_ASSIGNED_CONTEXT ( ( #98 ) ) GLOBAL_UNIT_ASSIGNED_CONTEXT ( ( #226, #307, #311 ) ) REPRESENTATION_CONTEXT ( 'NONE', 'WORKASPACE' ) );
#24 = SURFACE_STYLE_USAGE ( .BOTH. , #195 ) ;
#25 = ADVANCED_FACE ( 'NONE', ( #214 ), #207, .F. ) ;
#26 = ORIENTED_EDGE ( 'NONE', *, *, #353, .T. ) ;
#27 = SHAPE_DEFINITION_REPRESENTATION ( #78, #238 ) ;
#28 = STYLED_ITEM ( 'NONE', ( #48 ), #144 ) ;
#29 = UNCERTAINTY_MEASURE_WITH_UNIT (LENGTH_MEASURE( 1.000000000000000082E-05 ), #285, 'distance_accuracy_value', 'NONE');
#30 = ORIENTED_EDGE ( 'NONE', *, *, #40, .T. ) ;
#31 =( NAMED_UNIT ( * ) SI_UNIT ( $, .STERADIAN. ) SOLID_ANGLE_UNIT ( ) );
#32 = CARTESIAN_POINT ( 'NONE',  ( 4.898587196589412829E-16, 0.000000000000000000, 4.000000000000000000 ) ) ;
#33 = SURFACE_SIDE_STYLE ('',( #294 ) ) ;
#34 = AXIS2_PLACEMENT_3D ( 'NONE', #149, #65, #2 ) ;
#35 = ORIENTED_EDGE ( 'NONE', *, *, #211, .T. ) ;
#36 =( NAMED_UNIT ( * ) PLANE_ANGLE_UNIT ( ) SI_UNIT ( $, .RADIAN. ) );
#37 = DIRECTION ( 'NONE',  ( 0.000000000000000000, 0.000000000000000000, -1.000000000000000000 ) ) ;
#38 =( NAMED_UNIT ( * ) SI_UNIT ( $, .STERADIAN. ) SOLID_ANGLE_UNIT ( ) );
#39 = DIRECTION ( 'NONE',  ( -5.682149050294907483E-17, 1.000000000000000000, -0.000000000000000000 ) ) ;
#40 = EDGE_CURVE ( 'NONE', #88, #239, #301, .T. ) ;
#41 = DIRECTION ( 'NONE',  ( 0.000000000000000000, 0.000000000000000000, -1.000000000000000000 ) ) ;
#42 = COLOUR_RGB ( '',0.7921568627450980005, 0.8196078431372548767, 0.9333333333333333481 ) ;
#43 = STYLED_ITEM ( 'NONE', ( #167 ), #350 ) ;
#44 =( GEOMETRIC_REPRESENTATION_CONTEXT ( 3 ) GLOBAL_UNCERTAINTY_ASSIGNED_CONTEXT ( ( #3 ) ) GLOBAL_UNIT_ASSIGNED_CONTEXT ( ( #215, #36, #38 ) ) REPRESENTATION_CONTEXT ( 'NONE', 'WORKASPACE' ) );
#45 = SURFACE_STYLE_FILL_AREA ( #8 ) ;
#46 = SURFACE_SIDE_STYLE ('',( #247 ) ) ;
#47 = DIRECTION ( 'NONE',  ( -0.000000000000000000, -1.000000000000000000, -0.000000000000000000 ) ) ;
#48 = PRESENTATION_STYLE_ASSIGNMENT (( #132 ) ) ;
#49 =( GEOMETRIC_REPRESENTATION_CONTEXT ( 3 ) GLOBAL_UNCERTAINTY_ASSIGNED_CONTEXT ( ( #304 ) ) GLOBAL_UNIT_ASSIGNED_CONTEXT ( ( #191, #136, #22 ) ) REPRESENTATION_CONTEXT ( 'NONE', 'WORKASPACE' ) );
#50 = AXIS2_PLACEMENT_3D ( 'NONE', #83, #367, #19 ) ;
#51 = CIRCLE ( 'NONE', #154, 0.5000000000000000000 ) ;
#52 = SURFACE_SIDE_STYLE ('',( #168 ) ) ;
#53 = LINE ( 'NONE', #308, #146 ) ;
#54 = FILL_AREA_STYLE ('',( #164 ) ) ;
#55 = MECHANICAL_DESIGN_GEOMETRIC_PRESENTATION_REPRESENTATION (  '', ( #128 ), #116 ) ;
#56 = CARTESIAN_POINT ( 'NONE',  ( 0.000000000000000000, 0.000000000000000000, 0.000000000000000000 ) ) ;
#57 = CIRCLE ( 'NONE', #170, 3.500000000000000000 ) ;
#58 = ORIENTED_EDGE ( 'NONE', *, *, #190, .T. ) ;
#59 =( NAMED_UNIT ( * ) PLANE_ANGLE_UNIT ( ) SI_UNIT ( $, .RADIAN. ) );
#60 = EDGE_CURVE ( 'NONE', #88, #119, #152, .T. ) ;
#61 = ORIENTED_EDGE ( 'NONE', *, *, #1, .F. ) ;
#62 = CLOSED_SHELL ( 'NONE', ( #217, #25, #232, #74 ) ) ;
#63 = AXIS2_PLACEMENT_3D ( 'NONE', #80, #13, #179 ) ;
#64 = DIRECTION ( 'NONE',  ( 0.000000000000000000, 0.000000000000000000, -1.000000000000000000 ) ) ;
#65 = DIRECTION ( 'NONE',  ( 0.000000000000000000, 0.000000000000000000, 1.000000000000000000 ) ) ;
#66 = FACE_OUTER_BOUND ( 'NONE', #143, .T. ) ;
#67 = ORIENTED_EDGE ( 'NONE', *, *, #117, .F. ) ;
#68 = EDGE_LOOP ( 'NONE', ( #35, #73, #231, #102 ) ) ;
#69 = CARTESIAN_POINT ( 'NONE',  ( 4.592425496802573972E-16, 0.000000000000000000, 3.500000000000000000 ) ) ;
#70 = AXIS2_PLACEMENT_3D ( 'NONE', #293, #153, #263 ) ;
#71 = COLOUR_RGB ( '',1.000000000000000000, 0.000000000000000000, 0.000000000000000000 ) ;
#72 = EDGE_LOOP ( 'NONE', ( #245, #103 ) ) ;
#73 = ORIENTED_EDGE ( 'NONE', *, *, #287, .T. ) ;
#74 = ADVANCED_FACE ( 'NONE', ( #351 ), #156, .F. ) ;
#75 = CARTESIAN_POINT ( 'NONE',  ( 0.000000000000000000, 16.00000000000000000, 0.000000000000000000 ) ) ;
#76 = ORIENTED_EDGE ( 'NONE', *, *, #60, .T. ) ;
#77 = DIRECTION ( 'NONE',  ( 1.000000000000000000, 0.000000000000000000, -1.224646799147353207E-16 ) ) ;
#78 = PRODUCT_DEFINITION_SHAPE ( 'NONE', 'NONE',  #14 ) ;
#79 = VECTOR ( 'NONE', #181, 1000.000000000000000 ) ;
#80 = CARTESIAN_POINT ( 'NONE',  ( 0.000000000000000000, 16.00000000000000000, 0.000000000000000000 ) ) ;
#81 = PRESENTATION_STYLE_ASSIGNMENT (( #126 ) ) ;
#82 = DIRECTION ( 'NONE',  ( -5.682149050294907483E-17, 1.000000000000000000, -0.000000000000000000 ) ) ;
#83 = CARTESIAN_POINT ( 'NONE',  ( 0.000000000000000000, 0.000000000000000000, 0.000000000000000000 ) ) ;
#84 = MECHANICAL_DESIGN_GEOMETRIC_PRESENTATION_REPRESENTATION (  '', ( #28 ), #224 ) ;
#85 = COLOUR_RGB ( '',1.000000000000000000, 0.000000000000000000, 0.000000000000000000 ) ;
#86 = EDGE_CURVE ( 'NONE', #99, #292, #278, .T. ) ;
#87 = VERTEX_POINT ( 'NONE', #264 ) ;
#88 = VERTEX_POINT ( 'NONE', #11 ) ;
#89 = EDGE_LOOP ( 'NONE', ( #328, #76, #340, #67 ) ) ;
#90 = ORIENTED_EDGE ( 'NONE', *, *, #86, .T. ) ;
#91 = AXIS2_PLACEMENT_3D ( 'NONE', #130, #47, #184 ) ;
#92 =( GEOMETRIC_REPRESENTATION_CONTEXT ( 3 ) GLOBAL_UNCERTAINTY_ASSIGNED_CONTEXT ( ( #262 ) ) GLOBAL_UNIT_ASSIGNED_CONTEXT ( ( #344, #261, #31 ) ) REPRESENTATION_CONTEXT ( 'NONE', 'WORKASPACE' ) );
#93 = PRESENTATION_STYLE_ASSIGNMENT (( #343 ) ) ;
#94 = DIRECTION ( 'NONE',  ( -5.682149050294907483E-17, 1.000000000000000000, -0.000000000000000000 ) ) ;
#95 = ADVANCED_FACE ( 'NONE', ( #269 ), #319, .T. ) ;
#96 = ORIENTED_EDGE ( 'NONE', *, *, #117, .T. ) ;
#97 = CARTESIAN_POINT ( 'NONE',  ( 0.000000000000000000, 0.000000000000000000, -3.500000000000000000 ) ) ;
#98 = UNCERTAINTY_MEASURE_WITH_UNIT (LENGTH_MEASURE( 1.000000000000000082E-05 ), #226, 'distance_accuracy_value', 'NONE');
#99 = VERTEX_POINT ( 'NONE', #237 ) ;
#100 = MECHANICAL_DESIGN_GEOMETRIC_PRESENTATION_REPRESENTATION (  '', ( #335 ), #23 ) ;
#101 = STYLED_ITEM ( 'NONE', ( #326 ), #204 ) ;
#102 = ORIENTED_EDGE ( 'NONE', *, *, #353, .F. ) ;
#103 = ORIENTED_EDGE ( 'NONE', *, *, #86, .F. ) ;
#104 = FACE_OUTER_BOUND ( 'NONE', #358, .T. ) ;
#105 = CARTESIAN_POINT ( 'NONE',  ( -3.999999999999991562, 63.00000000000000000, 0.000000000000000000 ) ) ;
#106 = PRODUCT_RELATED_PRODUCT_CATEGORY ( 'part', '', ( #331 ) ) ;
#107 = MANIFOLD_SOLID_BREP ( 'Revolve - Cutting Edge', #134 ) ;
#108 = DIRECTION ( 'NONE',  ( -0.000000000000000000, -1.000000000000000000, -0.000000000000000000 ) ) ;
#109 =( NAMED_UNIT ( * ) PLANE_ANGLE_UNIT ( ) SI_UNIT ( $, .RADIAN. ) );
#110 = PRODUCT_DEFINITION_CONTEXT ( 'detailed design', #256, 'design' ) ;
#111 = SURFACE_STYLE_USAGE ( .BOTH. , #52 ) ;
#112 = DIRECTION ( 'NONE',  ( -5.682149050294907483E-17, 1.000000000000000000, -0.000000000000000000 ) ) ;
#113 = MECHANICAL_DESIGN_GEOMETRIC_PRESENTATION_REPRESENTATION (  '', ( #101 ), #44 ) ;
#114 = DIRECTION ( 'NONE',  ( -1.000000000000000000, 0.000000000000000000, 0.000000000000000000 ) ) ;
#115 = AXIS2_PLACEMENT_3D ( 'NONE', #236, #94, #129 ) ;
#116 =( GEOMETRIC_REPRESENTATION_CONTEXT ( 3 ) GLOBAL_UNCERTAINTY_ASSIGNED_CONTEXT ( ( #370 ) ) GLOBAL_UNIT_ASSIGNED_CONTEXT ( ( #222, #109, #281 ) ) REPRESENTATION_CONTEXT ( 'NONE', 'WORKASPACE' ) );
#117 = EDGE_CURVE ( 'NONE', #239, #323, #53, .T. ) ;
#118 = SURFACE_SIDE_STYLE ('',( #342 ) ) ;
#119 = VERTEX_POINT ( 'NONE', #15 ) ;
#120 = CIRCLE ( 'NONE', #17, 3.999999999999996447 ) ;
#121 = CARTESIAN_POINT ( 'NONE',  ( 3.184081677783117402E-15, 63.00000000000000000, 0.000000000000000000 ) ) ;
#122 = CARTESIAN_POINT ( 'NONE',  ( 0.000000000000000000, 0.5000000000000000000, 0.000000000000000000 ) ) ;
#123 = ORIENTED_EDGE ( 'NONE', *, *, #165, .T. ) ;
#124 = EDGE_CURVE ( 'NONE', #292, #99, #365, .T. ) ;
#125 = CARTESIAN_POINT ( 'NONE',  ( -3.999999999999988010, 16.00000000000000000, 0.000000000000000000 ) ) ;
#126 = SURFACE_STYLE_USAGE ( .BOTH. , #9 ) ;
#127 = CYLINDRICAL_SURFACE ( 'NONE', #18, 3.999999999999994671 ) ;
#128 = STYLED_ITEM ( 'NONE', ( #21 ), #316 ) ;
#129 = DIRECTION ( 'NONE',  ( -1.000000000000000000, 0.000000000000000000, 0.000000000000000000 ) ) ;
#130 = CARTESIAN_POINT ( 'NONE',  ( 0.000000000000000000, 0.5000000000000000000, 0.000000000000000000 ) ) ;
#131 = DIRECTION ( 'NONE',  ( -5.682149050294907483E-17, 1.000000000000000000, -0.000000000000000000 ) ) ;
#132 = SURFACE_STYLE_USAGE ( .BOTH. , #276 ) ;
#133 = CARTESIAN_POINT ( 'NONE',  ( 4.286263797015736595E-16, 0.5000000000000000000, 3.500000000000000000 ) ) ;
#134 = CLOSED_SHELL ( 'NONE', ( #151, #144, #176, #95, #316, #204 ) ) ;
#135 = STYLED_ITEM ( 'NONE', ( #173 ), #176 ) ;
#136 =( NAMED_UNIT ( * ) PLANE_ANGLE_UNIT ( ) SI_UNIT ( $, .RADIAN. ) );
#137 = APPLICATION_PROTOCOL_DEFINITION ( 'draft international standard', 'automotive_design', 1998, #196 ) ;
#138 = FACE_OUTER_BOUND ( 'NONE', #68, .T. ) ;
#139 = EDGE_CURVE ( 'NONE', #292, #87, #188, .T. ) ;
#140 = CARTESIAN_POINT ( 'NONE',  ( 0.000000000000000000, 0.5000000000000000000, -3.500000000000000000 ) ) ;
#141 = ORIENTED_EDGE ( 'NONE', *, *, #198, .T. ) ;
#142 = CARTESIAN_POINT ( 'NONE',  ( 0.000000000000000000, 0.5000000000000000000, -4.000000000000000000 ) ) ;
#143 = EDGE_LOOP ( 'NONE', ( #314, #123 ) ) ;
#144 = ADVANCED_FACE ( 'NONE', ( #138 ), #260, .T. ) ;
#145 = UNCERTAINTY_MEASURE_WITH_UNIT (LENGTH_MEASURE( 1.000000000000000082E-05 ), #197, 'distance_accuracy_value', 'NONE');
#146 = VECTOR ( 'NONE', #108, 1000.000000000000000 ) ;
#147 = COLOUR_RGB ( '',0.7921568627450980005, 0.8196078431372548767, 0.9333333333333333481 ) ;
#148 = VERTEX_POINT ( 'NONE', #330 ) ;
#149 = CARTESIAN_POINT ( 'NONE',  ( 0.000000000000000000, 0.000000000000000000, 0.000000000000000000 ) ) ;
#150 = FILL_AREA_STYLE_COLOUR ( '', #366 ) ;
#151 = ADVANCED_FACE ( 'NONE', ( #208 ), #288, .T. ) ;
#152 = LINE ( 'NONE', #32, #199 ) ;
#153 = DIRECTION ( 'NONE',  ( 5.682149050294907483E-17, -1.000000000000000000, 0.000000000000000000 ) ) ;
#154 = AXIS2_PLACEMENT_3D ( 'NONE', #140, #114, #257 ) ;
#155 = EDGE_LOOP ( 'NONE', ( #355, #141, #26, #178 ) ) ;
#156 = PLANE ( 'NONE',  #70 ) ;
#157 = CARTESIAN_POINT ( 'NONE',  ( 0.000000000000000000, 0.000000000000000000, 0.000000000000000000 ) ) ;
#158 = DIRECTION ( 'NONE',  ( -0.000000000000000000, -1.000000000000000000, -0.000000000000000000 ) ) ;
#159 = STYLED_ITEM ( 'NONE', ( #81 ), #95 ) ;
#160 = CARTESIAN_POINT ( 'NONE',  ( 3.184081677783117402E-15, 63.00000000000000000, 0.000000000000000000 ) ) ;
#161 = DIRECTION ( 'NONE',  ( -1.000000000000000000, 0.000000000000000000, 0.000000000000000000 ) ) ;
#162 = SURFACE_STYLE_FILL_AREA ( #166 ) ;
#163 = CARTESIAN_POINT ( 'NONE',  ( 0.000000000000000000, 0.5000000000000000000, 0.000000000000000000 ) ) ;
#164 = FILL_AREA_STYLE_COLOUR ( '', #71 ) ;
#165 = EDGE_CURVE ( 'NONE', #216, #201, #309, .T. ) ;
#166 = FILL_AREA_STYLE ('',( #363 ) ) ;
#167 = PRESENTATION_STYLE_ASSIGNMENT (( #24 ) ) ;
#168 = SURFACE_STYLE_FILL_AREA ( #54 ) ;
#169 = PRESENTATION_LAYER_ASSIGNMENT (  '', '', ( #320 ) ) ;
#170 = AXIS2_PLACEMENT_3D ( 'NONE', #56, #284, #192 ) ;
#171 = DIRECTION ( 'NONE',  ( 0.000000000000000000, 0.000000000000000000, -1.000000000000000000 ) ) ;
#172 = ORIENTED_EDGE ( 'NONE', *, *, #139, .F. ) ;
#173 = PRESENTATION_STYLE_ASSIGNMENT (( #234 ) ) ;
#174 = UNCERTAINTY_MEASURE_WITH_UNIT (LENGTH_MEASURE( 1.000000000000000082E-05 ), #20, 'distance_accuracy_value', 'NONE');
#175 = AXIS2_PLACEMENT_3D ( 'NONE', #233, #318, #64 ) ;
#176 = ADVANCED_FACE ( 'NONE', ( #66 ), #317, .T. ) ;
#177 = DIRECTION ( 'NONE',  ( -1.000000000000000000, 0.000000000000000000, 0.000000000000000000 ) ) ;
#178 = ORIENTED_EDGE ( 'NONE', *, *, #165, .F. ) ;
#179 = DIRECTION ( 'NONE',  ( 0.000000000000000000, 0.000000000000000000, -1.000000000000000000 ) ) ;
#180 = SURFACE_STYLE_FILL_AREA ( #300 ) ;
#181 = DIRECTION ( 'NONE',  ( -5.682149050294907483E-17, 1.000000000000000000, -0.000000000000000000 ) ) ;
#182 = EDGE_LOOP ( 'NONE', ( #347, #271 ) ) ;
#183 = CARTESIAN_POINT ( 'NONE',  ( 0.000000000000000000, 0.5000000000000000000, 0.000000000000000000 ) ) ;
#184 = DIRECTION ( 'NONE',  ( 0.000000000000000000, 0.000000000000000000, -1.000000000000000000 ) ) ;
#185 = PLANE ( 'NONE',  #337 ) ;
#186 = CIRCLE ( 'NONE', #296, 4.000000000000000000 ) ;
#187 =( GEOMETRIC_REPRESENTATION_CONTEXT ( 3 ) GLOBAL_UNCERTAINTY_ASSIGNED_CONTEXT ( ( #145 ) ) GLOBAL_UNIT_ASSIGNED_CONTEXT ( ( #197, #280, #364 ) ) REPRESENTATION_CONTEXT ( 'NONE', 'WORKASPACE' ) );
#188 = LINE ( 'NONE', #105, #354 ) ;
#189 = SURFACE_STYLE_USAGE ( .BOTH. , #270 ) ;
#190 = EDGE_CURVE ( 'NONE', #99, #148, #306, .T. ) ;
#191 =( LENGTH_UNIT ( ) NAMED_UNIT ( * ) SI_UNIT ( .MILLI., .METRE. ) );
#192 = DIRECTION ( 'NONE',  ( 0.000000000000000000, 0.000000000000000000, -1.000000000000000000 ) ) ;
#193 = COLOUR_RGB ( '',1.000000000000000000, 0.000000000000000000, 0.000000000000000000 ) ;
#194 = PRESENTATION_STYLE_ASSIGNMENT (( #219 ) ) ;
#195 = SURFACE_SIDE_STYLE ('',( #338 ) ) ;
#196 = APPLICATION_CONTEXT ( 'automotive_design' ) ;
#197 =( LENGTH_UNIT ( ) NAMED_UNIT ( * ) SI_UNIT ( .MILLI., .METRE. ) );
#198 = EDGE_CURVE ( 'NONE', #119, #323, #282, .T. ) ;
#199 = VECTOR ( 'NONE', #327, 1000.000000000000000 ) ;
#200 = AXIS2_PLACEMENT_3D ( 'NONE', #218, #131, #329 ) ;
#201 = VERTEX_POINT ( 'NONE', #97 ) ;
#202 = DIRECTION ( 'NONE',  ( -0.000000000000000000, -1.000000000000000000, -0.000000000000000000 ) ) ;
#203 = ORIENTED_EDGE ( 'NONE', *, *, #60, .F. ) ;
#204 = ADVANCED_FACE ( 'NONE', ( #357 ), #185, .T. ) ;
#205 = APPLICATION_PROTOCOL_DEFINITION ( 'draft international standard', 'automotive_design', 1998, #256 ) ;
#206 = FILL_AREA_STYLE_COLOUR ( '', #356 ) ;
#207 = PLANE ( 'NONE',  #4 ) ;
#208 = FACE_OUTER_BOUND ( 'NONE', #89, .T. ) ;
#209 = ORIENTED_EDGE ( 'NONE', *, *, #298, .F. ) ;
#210 = DIRECTION ( 'NONE',  ( -1.224646799147353454E-16, 0.000000000000000000, -1.000000000000000000 ) ) ;
#211 = EDGE_CURVE ( 'NONE', #323, #119, #186, .T. ) ;
#212 = DIRECTION ( 'NONE',  ( -1.000000000000000000, -5.682149050294907483E-17, 0.000000000000000000 ) ) ;
#213 = CIRCLE ( 'NONE', #313, 0.5000000000000000000 ) ;
#214 = FACE_OUTER_BOUND ( 'NONE', #72, .T. ) ;
#215 =( LENGTH_UNIT ( ) NAMED_UNIT ( * ) SI_UNIT ( .MILLI., .METRE. ) );
#216 = VERTEX_POINT ( 'NONE', #69 ) ;
#217 = ADVANCED_FACE ( 'NONE', ( #104 ), #127, .T. ) ;
#218 = CARTESIAN_POINT ( 'NONE',  ( 3.184081677783117402E-15, 63.00000000000000000, 0.000000000000000000 ) ) ;
#219 = SURFACE_STYLE_USAGE ( .BOTH. , #46 ) ;
#220 = CYLINDRICAL_SURFACE ( 'NONE', #200, 3.999999999999994671 ) ;
#221 = CIRCLE ( 'NONE', #289, 3.999999999999996447 ) ;
#222 =( LENGTH_UNIT ( ) NAMED_UNIT ( * ) SI_UNIT ( .MILLI., .METRE. ) );
#223 = FILL_AREA_STYLE_COLOUR ( '', #147 ) ;
#224 =( GEOMETRIC_REPRESENTATION_CONTEXT ( 3 ) GLOBAL_UNCERTAINTY_ASSIGNED_CONTEXT ( ( #174 ) ) GLOBAL_UNIT_ASSIGNED_CONTEXT ( ( #20, #252, #334 ) ) REPRESENTATION_CONTEXT ( 'NONE', 'WORKASPACE' ) );
#225 = AXIS2_PLACEMENT_3D ( 'NONE', #315, #258, #291 ) ;
#226 =( LENGTH_UNIT ( ) NAMED_UNIT ( * ) SI_UNIT ( .MILLI., .METRE. ) );
#227 =( NAMED_UNIT ( * ) PLANE_ANGLE_UNIT ( ) SI_UNIT ( $, .RADIAN. ) );
#228 = ORIENTED_EDGE ( 'NONE', *, *, #139, .T. ) ;
#229 = PRODUCT_CONTEXT ( 'NONE', #196, 'mechanical' ) ;
#230 = CIRCLE ( 'NONE', #63, 4.000000000000000000 ) ;
#231 = ORIENTED_EDGE ( 'NONE', *, *, #362, .F. ) ;
#232 = ADVANCED_FACE ( 'NONE', ( #359 ), #220, .T. ) ;
#233 = CARTESIAN_POINT ( 'NONE',  ( 0.000000000000000000, 0.000000000000000000, 0.000000000000000000 ) ) ;
#234 = SURFACE_STYLE_USAGE ( .BOTH. , #118 ) ;
#235 = AXIS2_PLACEMENT_3D ( 'NONE', #360, #82, #161 ) ;
#236 = CARTESIAN_POINT ( 'NONE',  ( 5.854691731421723944E-15, 16.00000000000000000, 0.000000000000000000 ) ) ;
#237 = CARTESIAN_POINT ( 'NONE',  ( 4.000000000000000000, 16.00000000000000000, 4.898587196589407898E-16 ) ) ;
#238 = ADVANCED_BREP_SHAPE_REPRESENTATION ( '59735', ( #107, #350, #34 ), #310 ) ;
#239 = VERTEX_POINT ( 'NONE', #332 ) ;
#240 = CARTESIAN_POINT ( 'NONE',  ( 3.184081677783117402E-15, 63.00000000000000000, 0.000000000000000000 ) ) ;
#241 = EDGE_LOOP ( 'NONE', ( #203, #30, #96, #7 ) ) ;
#242 = PRESENTATION_LAYER_ASSIGNMENT (  '', '', ( #28 ) ) ;
#243 = AXIS2_PLACEMENT_3D ( 'NONE', #163, #248, #41 ) ;
#244 = DIRECTION ( 'NONE',  ( 0.000000000000000000, 0.000000000000000000, -1.000000000000000000 ) ) ;
#245 = ORIENTED_EDGE ( 'NONE', *, *, #124, .F. ) ;
#246 = DIRECTION ( 'NONE',  ( -0.000000000000000000, -1.000000000000000000, -0.000000000000000000 ) ) ;
#247 = SURFACE_STYLE_FILL_AREA ( #305 ) ;
#248 = DIRECTION ( 'NONE',  ( -0.000000000000000000, -1.000000000000000000, -0.000000000000000000 ) ) ;
#249 = FILL_AREA_STYLE_COLOUR ( '', #42 ) ;
#250 =( GEOMETRIC_REPRESENTATION_CONTEXT ( 3 ) GLOBAL_UNCERTAINTY_ASSIGNED_CONTEXT ( ( #29 ) ) GLOBAL_UNIT_ASSIGNED_CONTEXT ( ( #285, #59, #321 ) ) REPRESENTATION_CONTEXT ( 'NONE', 'WORKASPACE' ) );
#251 = EDGE_CURVE ( 'NONE', #239, #88, #230, .T. ) ;
#252 =( NAMED_UNIT ( * ) PLANE_ANGLE_UNIT ( ) SI_UNIT ( $, .RADIAN. ) );
#253 = FACE_OUTER_BOUND ( 'NONE', #241, .T. ) ;
#254 = DIRECTION ( 'NONE',  ( -1.000000000000000000, 0.000000000000000000, 0.000000000000000000 ) ) ;
#255 = PRESENTATION_LAYER_ASSIGNMENT (  '', '', ( #43 ) ) ;
#256 = APPLICATION_CONTEXT ( 'automotive_design' ) ;
#257 = DIRECTION ( 'NONE',  ( 0.000000000000000000, 0.000000000000000000, 1.000000000000000000 ) ) ;
#258 = DIRECTION ( 'NONE',  ( -0.000000000000000000, -1.000000000000000000, -0.000000000000000000 ) ) ;
#259 = PRESENTATION_LAYER_ASSIGNMENT (  '', '', ( #335 ) ) ;
#260 = TOROIDAL_SURFACE ( 'NONE', #273, 3.500000000000000000, 0.5000000000000000000 ) ;
#261 =( NAMED_UNIT ( * ) PLANE_ANGLE_UNIT ( ) SI_UNIT ( $, .RADIAN. ) );
#262 = UNCERTAINTY_MEASURE_WITH_UNIT (LENGTH_MEASURE( 1.000000000000000082E-05 ), #344, 'distance_accuracy_value', 'NONE');
#263 = DIRECTION ( 'NONE',  ( 1.000000000000000000, 5.682149050294907483E-17, 0.000000000000000000 ) ) ;
#264 = CARTESIAN_POINT ( 'NONE',  ( -3.999999999999993339, 63.00000000000000000, 0.000000000000000000 ) ) ;
#265 = MECHANICAL_DESIGN_GEOMETRIC_PRESENTATION_REPRESENTATION (  '', ( #135 ), #92 ) ;
#266 = FILL_AREA_STYLE ('',( #206 ) ) ;
#267 = ORIENTED_EDGE ( 'NONE', *, *, #124, .T. ) ;
#268 = FILL_AREA_STYLE_COLOUR ( '', #85 ) ;
#269 = FACE_OUTER_BOUND ( 'NONE', #155, .T. ) ;
#270 = SURFACE_SIDE_STYLE ('',( #45 ) ) ;
#271 = ORIENTED_EDGE ( 'NONE', *, *, #1, .T. ) ;
#272 = COLOUR_RGB ( '',1.000000000000000000, 0.000000000000000000, 0.000000000000000000 ) ;
#273 = AXIS2_PLACEMENT_3D ( 'NONE', #122, #202, #171 ) ;
#274 = DIRECTION ( 'NONE',  ( -1.000000000000000000, 0.000000000000000000, 0.000000000000000000 ) ) ;
#275 = DIRECTION ( 'NONE',  ( 0.000000000000000000, -0.000000000000000000, 1.000000000000000000 ) ) ;
#276 = SURFACE_SIDE_STYLE ('',( #162 ) ) ;
#277 = UNCERTAINTY_MEASURE_WITH_UNIT (LENGTH_MEASURE( 1.000000000000000082E-05 ), #361, 'distance_accuracy_value', 'NONE');
#278 = CIRCLE ( 'NONE', #115, 3.999999999999994227 ) ;
#279 = PRESENTATION_LAYER_ASSIGNMENT (  '', '', ( #128 ) ) ;
#280 =( NAMED_UNIT ( * ) PLANE_ANGLE_UNIT ( ) SI_UNIT ( $, .RADIAN. ) );
#281 =( NAMED_UNIT ( * ) SI_UNIT ( $, .STERADIAN. ) SOLID_ANGLE_UNIT ( ) );
#282 = CIRCLE ( 'NONE', #243, 4.000000000000000000 ) ;
#283 = PRODUCT_DEFINITION_FORMATION_WITH_SPECIFIED_SOURCE ( 'ANY', '', #331, .NOT_KNOWN. ) ;
#284 = DIRECTION ( 'NONE',  ( -0.000000000000000000, -1.000000000000000000, -0.000000000000000000 ) ) ;
#285 =( LENGTH_UNIT ( ) NAMED_UNIT ( * ) SI_UNIT ( .MILLI., .METRE. ) );
#286 = EDGE_LOOP ( 'NONE', ( #297, #368 ) ) ;
#287 = EDGE_CURVE ( 'NONE', #119, #216, #213, .T. ) ;
#288 = CYLINDRICAL_SURFACE ( 'NONE', #175, 4.000000000000000000 ) ;
#289 = AXIS2_PLACEMENT_3D ( 'NONE', #240, #352, #254 ) ;
#290 = ORIENTED_EDGE ( 'NONE', *, *, #190, .F. ) ;
#291 = DIRECTION ( 'NONE',  ( 0.000000000000000000, 0.000000000000000000, -1.000000000000000000 ) ) ;
#292 = VERTEX_POINT ( 'NONE', #125 ) ;
#293 = CARTESIAN_POINT ( 'NONE',  ( 4.000000000000000000, 63.00000000000000000, 0.000000000000000000 ) ) ;
#294 = SURFACE_STYLE_FILL_AREA ( #266 ) ;
#295 = EDGE_LOOP ( 'NONE', ( #290, #90, #228, #61 ) ) ;
#296 = AXIS2_PLACEMENT_3D ( 'NONE', #183, #246, #10 ) ;
#297 = ORIENTED_EDGE ( 'NONE', *, *, #251, .F. ) ;
#298 = EDGE_CURVE ( 'NONE', #87, #148, #221, .T. ) ;
#299 = CARTESIAN_POINT ( 'NONE',  ( 3.999999999999998224, 63.00000000000000000, 4.898587196589406912E-16 ) ) ;
#300 = FILL_AREA_STYLE ('',( #348 ) ) ;
#301 = CIRCLE ( 'NONE', #312, 4.000000000000000000 ) ;
#302 = MECHANICAL_DESIGN_GEOMETRIC_PRESENTATION_REPRESENTATION (  '', ( #43 ), #187 ) ;
#303 = DIRECTION ( 'NONE',  ( 0.000000000000000000, -1.000000000000000000, -0.000000000000000000 ) ) ;
#304 = UNCERTAINTY_MEASURE_WITH_UNIT (LENGTH_MEASURE( 1.000000000000000082E-05 ), #191, 'distance_accuracy_value', 'NONE');
#305 = FILL_AREA_STYLE ('',( #249 ) ) ;
#306 = LINE ( 'NONE', #299, #79 ) ;
#307 =( NAMED_UNIT ( * ) PLANE_ANGLE_UNIT ( ) SI_UNIT ( $, .RADIAN. ) );
#308 = CARTESIAN_POINT ( 'NONE',  ( 0.000000000000000000, 0.000000000000000000, -4.000000000000000000 ) ) ;
#309 = CIRCLE ( 'NONE', #225, 3.500000000000000000 ) ;
#310 =( GEOMETRIC_REPRESENTATION_CONTEXT ( 3 ) GLOBAL_UNCERTAINTY_ASSIGNED_CONTEXT ( ( #277 ) ) GLOBAL_UNIT_ASSIGNED_CONTEXT ( ( #361, #227, #339 ) ) REPRESENTATION_CONTEXT ( 'NONE', 'WORKASPACE' ) );
#311 =( NAMED_UNIT ( * ) SI_UNIT ( $, .STERADIAN. ) SOLID_ANGLE_UNIT ( ) );
#312 = AXIS2_PLACEMENT_3D ( 'NONE', #322, #158, #37 ) ;
#313 = AXIS2_PLACEMENT_3D ( 'NONE', #133, #77, #210 ) ;
#314 = ORIENTED_EDGE ( 'NONE', *, *, #362, .T. ) ;
#315 = CARTESIAN_POINT ( 'NONE',  ( 0.000000000000000000, 0.000000000000000000, 0.000000000000000000 ) ) ;
#316 = ADVANCED_FACE ( 'NONE', ( #253 ), #333, .T. ) ;
#317 = PLANE ( 'NONE',  #5 ) ;
#318 = DIRECTION ( 'NONE',  ( -0.000000000000000000, -1.000000000000000000, -0.000000000000000000 ) ) ;
#319 = TOROIDAL_SURFACE ( 'NONE', #91, 3.500000000000000000, 0.5000000000000000000 ) ;
#320 = STYLED_ITEM ( 'NONE', ( #93 ), #151 ) ;
#321 =( NAMED_UNIT ( * ) SI_UNIT ( $, .STERADIAN. ) SOLID_ANGLE_UNIT ( ) );
#322 = CARTESIAN_POINT ( 'NONE',  ( 0.000000000000000000, 16.00000000000000000, 0.000000000000000000 ) ) ;
#323 = VERTEX_POINT ( 'NONE', #142 ) ;
#324 = MECHANICAL_DESIGN_GEOMETRIC_PRESENTATION_REPRESENTATION (  '', ( #159 ), #49 ) ;
#325 = CARTESIAN_POINT ( 'NONE',  ( 5.854691731421723944E-15, 16.00000000000000000, 0.000000000000000000 ) ) ;
#326 = PRESENTATION_STYLE_ASSIGNMENT (( #189 ) ) ;
#327 = DIRECTION ( 'NONE',  ( -0.000000000000000000, -1.000000000000000000, -0.000000000000000000 ) ) ;
#328 = ORIENTED_EDGE ( 'NONE', *, *, #251, .T. ) ;
#329 = DIRECTION ( 'NONE',  ( -1.000000000000000000, 0.000000000000000000, 0.000000000000000000 ) ) ;
#330 = CARTESIAN_POINT ( 'NONE',  ( 4.000000000000000000, 63.00000000000000000, 4.898587196589407898E-16 ) ) ;
#331 = PRODUCT ( '59735', '59735', '', ( #229 ) ) ;
#332 = CARTESIAN_POINT ( 'NONE',  ( 0.000000000000000000, 16.00000000000000000, -4.000000000000000000 ) ) ;
#333 = CYLINDRICAL_SURFACE ( 'NONE', #50, 4.000000000000000000 ) ;
#334 =( NAMED_UNIT ( * ) SI_UNIT ( $, .STERADIAN. ) SOLID_ANGLE_UNIT ( ) );
#335 = STYLED_ITEM ( 'NONE', ( #194 ), #107 ) ;
#336 = FILL_AREA_STYLE ('',( #223 ) ) ;
#337 = AXIS2_PLACEMENT_3D ( 'NONE', #75, #16, #275 ) ;
#338 = SURFACE_STYLE_FILL_AREA ( #336 ) ;
#339 =( NAMED_UNIT ( * ) SI_UNIT ( $, .STERADIAN. ) SOLID_ANGLE_UNIT ( ) );
#340 = ORIENTED_EDGE ( 'NONE', *, *, #211, .F. ) ;
#341 = MECHANICAL_DESIGN_GEOMETRIC_PRESENTATION_REPRESENTATION (  '', ( #320 ), #250 ) ;
#342 = SURFACE_STYLE_FILL_AREA ( #369 ) ;
#343 = SURFACE_STYLE_USAGE ( .BOTH. , #33 ) ;
#344 =( LENGTH_UNIT ( ) NAMED_UNIT ( * ) SI_UNIT ( .MILLI., .METRE. ) );
#345 = PRESENTATION_LAYER_ASSIGNMENT (  '', '', ( #159 ) ) ;
#346 = PRESENTATION_LAYER_ASSIGNMENT (  '', '', ( #101 ) ) ;
#347 = ORIENTED_EDGE ( 'NONE', *, *, #298, .T. ) ;
#348 = FILL_AREA_STYLE_COLOUR ( '', #272 ) ;
#349 = DIRECTION ( 'NONE',  ( -5.682149050294907483E-17, 1.000000000000000000, -0.000000000000000000 ) ) ;
#350 = MANIFOLD_SOLID_BREP ( 'Revolve - Tool Body (Straight Shanked)', #62 ) ;
#351 = FACE_OUTER_BOUND ( 'NONE', #182, .T. ) ;
#352 = DIRECTION ( 'NONE',  ( -5.682149050294907483E-17, 1.000000000000000000, -0.000000000000000000 ) ) ;
#353 = EDGE_CURVE ( 'NONE', #323, #201, #51, .T. ) ;
#354 = VECTOR ( 'NONE', #112, 1000.000000000000000 ) ;
#355 = ORIENTED_EDGE ( 'NONE', *, *, #287, .F. ) ;
#356 = COLOUR_RGB ( '',1.000000000000000000, 0.000000000000000000, 0.000000000000000000 ) ;
#357 = FACE_OUTER_BOUND ( 'NONE', #286, .T. ) ;
#358 = EDGE_LOOP ( 'NONE', ( #267, #58, #209, #172 ) ) ;
#359 = FACE_OUTER_BOUND ( 'NONE', #295, .T. ) ;
#360 = CARTESIAN_POINT ( 'NONE',  ( 5.854691731421723944E-15, 16.00000000000000000, 0.000000000000000000 ) ) ;
#361 =( LENGTH_UNIT ( ) NAMED_UNIT ( * ) SI_UNIT ( .MILLI., .METRE. ) );
#362 = EDGE_CURVE ( 'NONE', #201, #216, #57, .T. ) ;
#363 = FILL_AREA_STYLE_COLOUR ( '', #193 ) ;
#364 =( NAMED_UNIT ( * ) SI_UNIT ( $, .STERADIAN. ) SOLID_ANGLE_UNIT ( ) );
#365 = CIRCLE ( 'NONE', #235, 3.999999999999994227 ) ;
#366 = COLOUR_RGB ( '',1.000000000000000000, 0.000000000000000000, 0.000000000000000000 ) ;
#367 = DIRECTION ( 'NONE',  ( -0.000000000000000000, -1.000000000000000000, -0.000000000000000000 ) ) ;
#368 = ORIENTED_EDGE ( 'NONE', *, *, #40, .F. ) ;
#369 = FILL_AREA_STYLE ('',( #150 ) ) ;
#370 = UNCERTAINTY_MEASURE_WITH_UNIT (LENGTH_MEASURE( 1.000000000000000082E-05 ), #222, 'distance_accuracy_value', 'NONE');
ENDSEC;
END-ISO-10303-21;
