ISO-10303-21;
HEADER;
FILE_DESCRIPTION (( 'STEP AP214' ),
    '1' );
FILE_NAME ('83790.STEP',
    '2023-07-05T16:06:16',
    ( '' ),
    ( '' ),
    'SwSTEP 2.0',
    'SolidWorks 2023',
    '' );
FILE_SCHEMA (( 'AUTOMOTIVE_DESIGN' ));
ENDSEC;

DATA;
#1 = FACE_OUTER_BOUND ( 'NONE', #205, .T. ) ;
#2 = DIRECTION ( 'NONE',  ( 0.000000000000000000, -0.000000000000000000, 1.000000000000000000 ) ) ;
#3 = CYLINDRICAL_SURFACE ( 'NONE', #103, 0.1874999999999998890 ) ;
#4 = CIRCLE ( 'NONE', #87, 0.1875000000000000555 ) ;
#5 = STYLED_ITEM ( 'NONE', ( #257 ), #199 ) ;
#6 = EDGE_CURVE ( 'NONE', #74, #95, #135, .T. ) ;
#7 = PRESENTATION_LAYER_ASSIGNMENT (  '', '', ( #234 ) ) ;
#8 = APPLICATION_CONTEXT ( 'automotive_design' ) ;
#9 = ORIENTED_EDGE ( 'NONE', *, *, #201, .T. ) ;
#10 = PRODUCT_DEFINITION_CONTEXT ( 'detailed design', #8, 'design' ) ;
#11 = EDGE_CURVE ( 'NONE', #193, #95, #248, .T. ) ;
#12 = EDGE_LOOP ( 'NONE', ( #52, #131, #35, #171 ) ) ;
#13 = VERTEX_POINT ( 'NONE', #191 ) ;
#14 = ORIENTED_EDGE ( 'NONE', *, *, #187, .T. ) ;
#15 =( NAMED_UNIT ( * ) SI_UNIT ( $, .STERADIAN. ) SOLID_ANGLE_UNIT ( ) );
#16 = CIRCLE ( 'NONE', #250, 0.1874999999999999722 ) ;
#17 = ORIENTED_EDGE ( 'NONE', *, *, #164, .T. ) ;
#18 = FILL_AREA_STYLE ('',( #40 ) ) ;
#19 =( LENGTH_UNIT ( ) NAMED_UNIT ( * ) SI_UNIT ( $, .METRE. ) );
#20 = DIRECTION ( 'NONE',  ( -1.000000000000000000, 0.000000000000000000, 0.000000000000000000 ) ) ;
#21 = PRESENTATION_STYLE_ASSIGNMENT (( #183 ) ) ;
#22 = CARTESIAN_POINT ( 'NONE',  ( 0.000000000000000000, 0.000000000000000000, 0.000000000000000000 ) ) ;
#23 = EDGE_CURVE ( 'NONE', #95, #193, #4, .T. ) ;
#24 =( CONVERSION_BASED_UNIT ( 'INCH', #78 ) LENGTH_UNIT ( ) NAMED_UNIT ( #217 ) );
#25 = PRODUCT ( '83790', '83790', '', ( #179 ) ) ;
#26 =( CONVERSION_BASED_UNIT ( 'INCH', #144 ) LENGTH_UNIT ( ) NAMED_UNIT ( #44 ) );
#27 = STYLED_ITEM ( 'NONE', ( #99 ), #212 ) ;
#28 = EDGE_CURVE ( 'NONE', #116, #13, #16, .T. ) ;
#29 = MANIFOLD_SOLID_BREP ( 'Revolve - Cutting Edge', #225 ) ;
#30 =( GEOMETRIC_REPRESENTATION_CONTEXT ( 3 ) GLOBAL_UNCERTAINTY_ASSIGNED_CONTEXT ( ( #252 ) ) GLOBAL_UNIT_ASSIGNED_CONTEXT ( ( #157, #84, #107 ) ) REPRESENTATION_CONTEXT ( 'NONE', 'WORKASPACE' ) );
#31 = PRESENTATION_LAYER_ASSIGNMENT (  '', '', ( #5 ) ) ;
#32 = DIRECTION ( 'NONE',  ( -1.478510563588688038E-16, 1.000000000000000000, -0.000000000000000000 ) ) ;
#33 = AXIS2_PLACEMENT_3D ( 'NONE', #65, #64, #2 ) ;
#34 = LENGTH_MEASURE_WITH_UNIT ( LENGTH_MEASURE( 0.02539999999999999897 ), #167 );
#35 = ORIENTED_EDGE ( 'NONE', *, *, #11, .F. ) ;
#36 = DIRECTION ( 'NONE',  ( -0.000000000000000000, -1.000000000000000000, -0.000000000000000000 ) ) ;
#37 = CARTESIAN_POINT ( 'NONE',  ( -6.123233995736764803E-17, 2.500000000000000000, 0.000000000000000000 ) ) ;
#38 = CARTESIAN_POINT ( 'NONE',  ( -0.1875000000000001110, 2.500000000000000000, 0.000000000000000000 ) ) ;
#39 = ORIENTED_EDGE ( 'NONE', *, *, #94, .F. ) ;
#40 = FILL_AREA_STYLE_COLOUR ( '', #97 ) ;
#41 = MECHANICAL_DESIGN_GEOMETRIC_PRESENTATION_REPRESENTATION (  '', ( #27 ), #185 ) ;
#42 = CARTESIAN_POINT ( 'NONE',  ( 0.1874999999999999722, 2.500000000000000000, 0.000000000000000000 ) ) ;
#43 = LINE ( 'NONE', #119, #128 ) ;
#44 = DIMENSIONAL_EXPONENTS ( 1.000000000000000000, 0.000000000000000000, 0.000000000000000000, 0.000000000000000000, 0.000000000000000000, 0.000000000000000000, 0.000000000000000000 ) ;
#45 = SURFACE_SIDE_STYLE ('',( #197 ) ) ;
#46 = DIRECTION ( 'NONE',  ( 1.478510563588688038E-16, -1.000000000000000000, 0.000000000000000000 ) ) ;
#47 = FACE_OUTER_BOUND ( 'NONE', #254, .T. ) ;
#48 = CARTESIAN_POINT ( 'NONE',  ( 0.000000000000000000, 39.37007874015748143, 0.000000000000000000 ) ) ;
#49 = SURFACE_STYLE_FILL_AREA ( #143 ) ;
#50 = STYLED_ITEM ( 'NONE', ( #230 ), #29 ) ;
#51 = PRODUCT_DEFINITION_FORMATION_WITH_SPECIFIED_SOURCE ( 'ANY', '', #25, .NOT_KNOWN. ) ;
#52 = ORIENTED_EDGE ( 'NONE', *, *, #125, .T. ) ;
#53 = DIRECTION ( 'NONE',  ( -1.478510563588688038E-16, 1.000000000000000000, -0.000000000000000000 ) ) ;
#54 = FACE_OUTER_BOUND ( 'NONE', #12, .T. ) ;
#55 = VECTOR ( 'NONE', #109, 39.37007874015748143 ) ;
#56 =( NAMED_UNIT ( * ) SI_UNIT ( $, .STERADIAN. ) SOLID_ANGLE_UNIT ( ) );
#57 = SURFACE_STYLE_USAGE ( .BOTH. , #235 ) ;
#58 = DIRECTION ( 'NONE',  ( -1.478510563588688038E-16, 1.000000000000000000, -0.000000000000000000 ) ) ;
#59 = ORIENTED_EDGE ( 'NONE', *, *, #23, .F. ) ;
#60 = LENGTH_MEASURE_WITH_UNIT ( LENGTH_MEASURE( 0.02539999999999999897 ), #200 );
#61 = LENGTH_MEASURE_WITH_UNIT ( LENGTH_MEASURE( 0.02539999999999999897 ), #156 );
#62 = PRESENTATION_LAYER_ASSIGNMENT (  '', '', ( #258 ) ) ;
#63 = AXIS2_PLACEMENT_3D ( 'NONE', #48, #188, #190 ) ;
#64 = DIRECTION ( 'NONE',  ( 0.000000000000000000, 1.000000000000000000, 0.000000000000000000 ) ) ;
#65 = CARTESIAN_POINT ( 'NONE',  ( 0.000000000000000000, 0.3247595264191635578, 0.000000000000000000 ) ) ;
#66 = DIMENSIONAL_EXPONENTS ( 1.000000000000000000, 0.000000000000000000, 0.000000000000000000, 0.000000000000000000, 0.000000000000000000, 0.000000000000000000, 0.000000000000000000 ) ;
#67 = CARTESIAN_POINT ( 'NONE',  ( 0.000000000000000000, 0.3247595264191635578, 0.1874999999999999722 ) ) ;
#68 = AXIS2_PLACEMENT_3D ( 'NONE', #140, #223, #226 ) ;
#69 = ADVANCED_FACE ( 'NONE', ( #54 ), #3, .T. ) ;
#70 = AXIS2_PLACEMENT_3D ( 'NONE', #221, #265, #120 ) ;
#71 = COLOUR_RGB ( '',0.7921568627450980005, 0.8196078431372548767, 0.9333333333333333481 ) ;
#72 = AXIS2_PLACEMENT_3D ( 'NONE', #122, #80, #20 ) ;
#73 = SURFACE_STYLE_FILL_AREA ( #208 ) ;
#74 = VERTEX_POINT ( 'NONE', #139 ) ;
#75 = CARTESIAN_POINT ( 'NONE',  ( -0.1874999999999999445, 2.500000000000000000, 0.000000000000000000 ) ) ;
#76 = SURFACE_STYLE_FILL_AREA ( #133 ) ;
#77 =( CONVERSION_BASED_UNIT ( 'INCH', #34 ) LENGTH_UNIT ( ) NAMED_UNIT ( #66 ) );
#78 = LENGTH_MEASURE_WITH_UNIT ( LENGTH_MEASURE( 0.02539999999999999897 ), #123 );
#79 = DIRECTION ( 'NONE',  ( 0.000000000000000000, 0.000000000000000000, -1.000000000000000000 ) ) ;
#80 = DIRECTION ( 'NONE',  ( -1.478510563588688038E-16, 1.000000000000000000, -0.000000000000000000 ) ) ;
#81 = DIMENSIONAL_EXPONENTS ( 1.000000000000000000, 0.000000000000000000, 0.000000000000000000, 0.000000000000000000, 0.000000000000000000, 0.000000000000000000, 0.000000000000000000 ) ;
#82 = SHAPE_DEFINITION_REPRESENTATION ( #166, #112 ) ;
#83 = AXIS2_PLACEMENT_3D ( 'NONE', #93, #36, #237 ) ;
#84 =( NAMED_UNIT ( * ) PLANE_ANGLE_UNIT ( ) SI_UNIT ( $, .RADIAN. ) );
#85 = DIRECTION ( 'NONE',  ( 0.000000000000000000, 0.000000000000000000, 1.000000000000000000 ) ) ;
#86 = CARTESIAN_POINT ( 'NONE',  ( -6.123233995736766036E-17, 2.500000000000000000, 0.000000000000000000 ) ) ;
#87 = AXIS2_PLACEMENT_3D ( 'NONE', #37, #176, #256 ) ;
#88 = SURFACE_STYLE_USAGE ( .BOTH. , #249 ) ;
#89 = COLOUR_RGB ( '',1.000000000000000000, 0.000000000000000000, 0.000000000000000000 ) ;
#90 = LINE ( 'NONE', #75, #236 ) ;
#91 = ORIENTED_EDGE ( 'NONE', *, *, #164, .F. ) ;
#92 = EDGE_LOOP ( 'NONE', ( #111, #117 ) ) ;
#93 = CARTESIAN_POINT ( 'NONE',  ( 0.000000000000000000, 0.3247595264191635578, 0.000000000000000000 ) ) ;
#94 = EDGE_CURVE ( 'NONE', #259, #116, #43, .T. ) ;
#95 = VERTEX_POINT ( 'NONE', #155 ) ;
#96 = ORIENTED_EDGE ( 'NONE', *, *, #6, .F. ) ;
#97 = COLOUR_RGB ( '',1.000000000000000000, 0.000000000000000000, 0.000000000000000000 ) ;
#98 = EDGE_LOOP ( 'NONE', ( #96, #210, #14, #59 ) ) ;
#99 = PRESENTATION_STYLE_ASSIGNMENT (( #246 ) ) ;
#100 =( NAMED_UNIT ( * ) PLANE_ANGLE_UNIT ( ) SI_UNIT ( $, .RADIAN. ) );
#101 = APPLICATION_PROTOCOL_DEFINITION ( 'draft international standard', 'automotive_design', 1998, #147 ) ;
#102 = DIRECTION ( 'NONE',  ( -1.000000000000000000, 0.000000000000000000, 0.000000000000000000 ) ) ;
#103 = AXIS2_PLACEMENT_3D ( 'NONE', #86, #105, #161 ) ;
#104 = AXIS2_PLACEMENT_3D ( 'NONE', #263, #238, #85 ) ;
#105 = DIRECTION ( 'NONE',  ( -1.478510563588688038E-16, 1.000000000000000000, -0.000000000000000000 ) ) ;
#106 = CARTESIAN_POINT ( 'NONE',  ( 0.000000000000000000, 0.000000000000000000, 0.000000000000000000 ) ) ;
#107 =( NAMED_UNIT ( * ) SI_UNIT ( $, .STERADIAN. ) SOLID_ANGLE_UNIT ( ) );
#108 = MECHANICAL_DESIGN_GEOMETRIC_PRESENTATION_REPRESENTATION (  '', ( #50 ), #124 ) ;
#109 = DIRECTION ( 'NONE',  ( 6.123233995736778362E-17, 0.8660254037844380415, -0.5000000000000009992 ) ) ;
#110 = ADVANCED_FACE ( 'NONE', ( #239 ), #222, .T. ) ;
#111 = ORIENTED_EDGE ( 'NONE', *, *, #28, .F. ) ;
#112 = ADVANCED_BREP_SHAPE_REPRESENTATION ( '83790', ( #29, #199, #216 ), #229 ) ;
#113 = UNCERTAINTY_MEASURE_WITH_UNIT (LENGTH_MEASURE( 1.000000000000000082E-05 ), #26, 'distance_accuracy_value', 'NONE');
#114 = FILL_AREA_STYLE_COLOUR ( '', #71 ) ;
#115 = ADVANCED_FACE ( 'NONE', ( #219 ), #244, .F. ) ;
#116 = VERTEX_POINT ( 'NONE', #67 ) ;
#117 = ORIENTED_EDGE ( 'NONE', *, *, #201, .F. ) ;
#118 = COLOUR_RGB ( '',0.7921568627450980005, 0.8196078431372548767, 0.9333333333333333481 ) ;
#119 = CARTESIAN_POINT ( 'NONE',  ( 0.000000000000000000, 0.000000000000000000, 0.000000000000000000 ) ) ;
#120 = DIRECTION ( 'NONE',  ( -1.000000000000000000, 0.000000000000000000, 0.000000000000000000 ) ) ;
#121 = CARTESIAN_POINT ( 'NONE',  ( 2.603792618961250911E-16, 0.3247595264191634468, 0.000000000000000000 ) ) ;
#122 = CARTESIAN_POINT ( 'NONE',  ( 2.603792618961250911E-16, 0.3247595264191634468, 0.000000000000000000 ) ) ;
#123 =( LENGTH_UNIT ( ) NAMED_UNIT ( * ) SI_UNIT ( $, .METRE. ) );
#124 =( GEOMETRIC_REPRESENTATION_CONTEXT ( 3 ) GLOBAL_UNCERTAINTY_ASSIGNED_CONTEXT ( ( #206 ) ) GLOBAL_UNIT_ASSIGNED_CONTEXT ( ( #198, #100, #138 ) ) REPRESENTATION_CONTEXT ( 'NONE', 'WORKASPACE' ) );
#125 = EDGE_CURVE ( 'NONE', #231, #74, #195, .T. ) ;
#126 = FILL_AREA_STYLE_COLOUR ( '', #168 ) ;
#127 = FILL_AREA_STYLE_COLOUR ( '', #89 ) ;
#128 = VECTOR ( 'NONE', #178, 39.37007874015748143 ) ;
#129 =( NAMED_UNIT ( * ) SI_UNIT ( $, .STERADIAN. ) SOLID_ANGLE_UNIT ( ) );
#130 = AXIS2_PLACEMENT_3D ( 'NONE', #132, #32, #214 ) ;
#131 = ORIENTED_EDGE ( 'NONE', *, *, #6, .T. ) ;
#132 = CARTESIAN_POINT ( 'NONE',  ( -6.123233995736764803E-17, 2.500000000000000000, 0.000000000000000000 ) ) ;
#133 = FILL_AREA_STYLE ('',( #114 ) ) ;
#134 = UNCERTAINTY_MEASURE_WITH_UNIT (LENGTH_MEASURE( 1.000000000000000082E-05 ), #194, 'distance_accuracy_value', 'NONE');
#135 = LINE ( 'NONE', #255, #209 ) ;
#136 = CYLINDRICAL_SURFACE ( 'NONE', #70, 0.1874999999999998890 ) ;
#137 = DIRECTION ( 'NONE',  ( 1.000000000000000000, 1.478510563588688038E-16, 0.000000000000000000 ) ) ;
#138 =( NAMED_UNIT ( * ) SI_UNIT ( $, .STERADIAN. ) SOLID_ANGLE_UNIT ( ) );
#139 = CARTESIAN_POINT ( 'NONE',  ( 0.1874999999999999722, 0.3247595264191634468, 2.296212748401286801E-17 ) ) ;
#140 = CARTESIAN_POINT ( 'NONE',  ( 2.603792618961250911E-16, 0.3247595264191635578, 0.000000000000000000 ) ) ;
#141 =( NAMED_UNIT ( * ) PLANE_ANGLE_UNIT ( ) SI_UNIT ( $, .RADIAN. ) );
#142 = AXIS2_PLACEMENT_3D ( 'NONE', #121, #215, #102 ) ;
#143 = FILL_AREA_STYLE ('',( #127 ) ) ;
#144 = LENGTH_MEASURE_WITH_UNIT ( LENGTH_MEASURE( 0.02539999999999999897 ), #186 );
#145 =( GEOMETRIC_REPRESENTATION_CONTEXT ( 3 ) GLOBAL_UNCERTAINTY_ASSIGNED_CONTEXT ( ( #232 ) ) GLOBAL_UNIT_ASSIGNED_CONTEXT ( ( #77, #170, #56 ) ) REPRESENTATION_CONTEXT ( 'NONE', 'WORKASPACE' ) );
#146 = CARTESIAN_POINT ( 'NONE',  ( 0.000000000000000000, 0.000000000000000000, 0.000000000000000000 ) ) ;
#147 = APPLICATION_CONTEXT ( 'automotive_design' ) ;
#148 =( NAMED_UNIT ( * ) PLANE_ANGLE_UNIT ( ) SI_UNIT ( $, .RADIAN. ) );
#149 = CONICAL_SURFACE ( 'NONE', #63, 22.73032555864674364, 0.5235987755983000369 ) ;
#150 = ORIENTED_EDGE ( 'NONE', *, *, #23, .T. ) ;
#151 = DIRECTION ( 'NONE',  ( -0.000000000000000000, -1.000000000000000000, -0.000000000000000000 ) ) ;
#152 = EDGE_LOOP ( 'NONE', ( #173, #150 ) ) ;
#153 = MECHANICAL_DESIGN_GEOMETRIC_PRESENTATION_REPRESENTATION (  '', ( #234 ), #260 ) ;
#154 = ORIENTED_EDGE ( 'NONE', *, *, #28, .T. ) ;
#155 = CARTESIAN_POINT ( 'NONE',  ( 0.1874999999999999722, 2.500000000000000000, 2.296212748401286801E-17 ) ) ;
#156 =( LENGTH_UNIT ( ) NAMED_UNIT ( * ) SI_UNIT ( $, .METRE. ) );
#157 =( CONVERSION_BASED_UNIT ( 'INCH', #60 ) LENGTH_UNIT ( ) NAMED_UNIT ( #177 ) );
#158 = FACE_OUTER_BOUND ( 'NONE', #189, .T. ) ;
#159 = ADVANCED_FACE ( 'NONE', ( #158 ), #242, .F. ) ;
#160 = DIRECTION ( 'NONE',  ( 0.000000000000000000, 0.000000000000000000, 1.000000000000000000 ) ) ;
#161 = DIRECTION ( 'NONE',  ( -1.000000000000000000, 0.000000000000000000, 0.000000000000000000 ) ) ;
#162 = PRESENTATION_LAYER_ASSIGNMENT (  '', '', ( #50 ) ) ;
#163 = LINE ( 'NONE', #146, #55 ) ;
#164 = EDGE_CURVE ( 'NONE', #259, #13, #163, .T. ) ;
#165 = PRESENTATION_STYLE_ASSIGNMENT (( #88 ) ) ;
#166 = PRODUCT_DEFINITION_SHAPE ( 'NONE', 'NONE',  #245 ) ;
#167 =( LENGTH_UNIT ( ) NAMED_UNIT ( * ) SI_UNIT ( $, .METRE. ) );
#168 = COLOUR_RGB ( '',1.000000000000000000, 0.000000000000000000, 0.000000000000000000 ) ;
#169 = ORIENTED_EDGE ( 'NONE', *, *, #224, .F. ) ;
#170 =( NAMED_UNIT ( * ) PLANE_ANGLE_UNIT ( ) SI_UNIT ( $, .RADIAN. ) );
#171 = ORIENTED_EDGE ( 'NONE', *, *, #187, .F. ) ;
#172 = SURFACE_STYLE_USAGE ( .BOTH. , #213 ) ;
#173 = ORIENTED_EDGE ( 'NONE', *, *, #11, .T. ) ;
#174 = DIMENSIONAL_EXPONENTS ( 1.000000000000000000, 0.000000000000000000, 0.000000000000000000, 0.000000000000000000, 0.000000000000000000, 0.000000000000000000, 0.000000000000000000 ) ;
#175 =( NAMED_UNIT ( * ) SI_UNIT ( $, .STERADIAN. ) SOLID_ANGLE_UNIT ( ) );
#176 = DIRECTION ( 'NONE',  ( -1.478510563588688038E-16, 1.000000000000000000, -0.000000000000000000 ) ) ;
#177 = DIMENSIONAL_EXPONENTS ( 1.000000000000000000, 0.000000000000000000, 0.000000000000000000, 0.000000000000000000, 0.000000000000000000, 0.000000000000000000, 0.000000000000000000 ) ;
#178 = DIRECTION ( 'NONE',  ( 0.000000000000000000, 0.8660254037844380415, 0.5000000000000009992 ) ) ;
#179 = PRODUCT_CONTEXT ( 'NONE', #147, 'mechanical' ) ;
#180 = AXIS2_PLACEMENT_3D ( 'NONE', #42, #46, #137 ) ;
#181 =( NAMED_UNIT ( * ) PLANE_ANGLE_UNIT ( ) SI_UNIT ( $, .RADIAN. ) );
#182 = SURFACE_STYLE_FILL_AREA ( #218 ) ;
#183 = SURFACE_STYLE_USAGE ( .BOTH. , #247 ) ;
#184 = ADVANCED_FACE ( 'NONE', ( #47 ), #149, .T. ) ;
#185 =( GEOMETRIC_REPRESENTATION_CONTEXT ( 3 ) GLOBAL_UNCERTAINTY_ASSIGNED_CONTEXT ( ( #211 ) ) GLOBAL_UNIT_ASSIGNED_CONTEXT ( ( #24, #141, #15 ) ) REPRESENTATION_CONTEXT ( 'NONE', 'WORKASPACE' ) );
#186 =( LENGTH_UNIT ( ) NAMED_UNIT ( * ) SI_UNIT ( $, .METRE. ) );
#187 = EDGE_CURVE ( 'NONE', #231, #193, #90, .T. ) ;
#188 = DIRECTION ( 'NONE',  ( 0.000000000000000000, 1.000000000000000000, 0.000000000000000000 ) ) ;
#189 = EDGE_LOOP ( 'NONE', ( #207, #169 ) ) ;
#190 = DIRECTION ( 'NONE',  ( 0.000000000000000000, 0.000000000000000000, 1.000000000000000000 ) ) ;
#191 = CARTESIAN_POINT ( 'NONE',  ( 2.296212748401286801E-17, 0.3247595264191635578, -0.1874999999999999722 ) ) ;
#192 = ORIENTED_EDGE ( 'NONE', *, *, #94, .T. ) ;
#193 = VERTEX_POINT ( 'NONE', #38 ) ;
#194 =( CONVERSION_BASED_UNIT ( 'INCH', #61 ) LENGTH_UNIT ( ) NAMED_UNIT ( #81 ) );
#195 = CIRCLE ( 'NONE', #142, 0.1874999999999997502 ) ;
#196 = PRESENTATION_LAYER_ASSIGNMENT (  '', '', ( #27 ) ) ;
#197 = SURFACE_STYLE_FILL_AREA ( #18 ) ;
#198 =( CONVERSION_BASED_UNIT ( 'INCH', #264 ) LENGTH_UNIT ( ) NAMED_UNIT ( #174 ) );
#199 = MANIFOLD_SOLID_BREP ( 'Revolve - Tool Body (Pointed)', #227 ) ;
#200 =( LENGTH_UNIT ( ) NAMED_UNIT ( * ) SI_UNIT ( $, .METRE. ) );
#201 = EDGE_CURVE ( 'NONE', #13, #116, #204, .T. ) ;
#202 = MECHANICAL_DESIGN_GEOMETRIC_PRESENTATION_REPRESENTATION (  '', ( #258 ), #30 ) ;
#203 = MECHANICAL_DESIGN_GEOMETRIC_PRESENTATION_REPRESENTATION (  '', ( #5 ), #145 ) ;
#204 = CIRCLE ( 'NONE', #83, 0.1874999999999999722 ) ;
#205 = EDGE_LOOP ( 'NONE', ( #39, #17, #9 ) ) ;
#206 = UNCERTAINTY_MEASURE_WITH_UNIT (LENGTH_MEASURE( 1.000000000000000082E-05 ), #198, 'distance_accuracy_value', 'NONE');
#207 = ORIENTED_EDGE ( 'NONE', *, *, #125, .F. ) ;
#208 = FILL_AREA_STYLE ('',( #253 ) ) ;
#209 = VECTOR ( 'NONE', #53, 39.37007874015748143 ) ;
#210 = ORIENTED_EDGE ( 'NONE', *, *, #224, .T. ) ;
#211 = UNCERTAINTY_MEASURE_WITH_UNIT (LENGTH_MEASURE( 1.000000000000000082E-05 ), #24, 'distance_accuracy_value', 'NONE');
#212 = ADVANCED_FACE ( 'NONE', ( #1 ), #240, .T. ) ;
#213 = SURFACE_SIDE_STYLE ('',( #73 ) ) ;
#214 = DIRECTION ( 'NONE',  ( -1.000000000000000000, 0.000000000000000000, 0.000000000000000000 ) ) ;
#215 = DIRECTION ( 'NONE',  ( -1.478510563588688038E-16, 1.000000000000000000, -0.000000000000000000 ) ) ;
#216 = AXIS2_PLACEMENT_3D ( 'NONE', #22, #160, #243 ) ;
#217 = DIMENSIONAL_EXPONENTS ( 1.000000000000000000, 0.000000000000000000, 0.000000000000000000, 0.000000000000000000, 0.000000000000000000, 0.000000000000000000, 0.000000000000000000 ) ;
#218 = FILL_AREA_STYLE ('',( #126 ) ) ;
#219 = FACE_OUTER_BOUND ( 'NONE', #152, .T. ) ;
#220 = APPLICATION_PROTOCOL_DEFINITION ( 'draft international standard', 'automotive_design', 1998, #8 ) ;
#221 = CARTESIAN_POINT ( 'NONE',  ( -6.123233995736766036E-17, 2.500000000000000000, 0.000000000000000000 ) ) ;
#222 = PLANE ( 'NONE',  #33 ) ;
#223 = DIRECTION ( 'NONE',  ( -1.478510563588688038E-16, 1.000000000000000000, 0.000000000000000000 ) ) ;
#224 = EDGE_CURVE ( 'NONE', #74, #231, #251, .T. ) ;
#225 = CLOSED_SHELL ( 'NONE', ( #212, #110, #184 ) ) ;
#226 = DIRECTION ( 'NONE',  ( -1.000000000000000000, -1.478510563588688038E-16, 0.000000000000000000 ) ) ;
#227 = CLOSED_SHELL ( 'NONE', ( #69, #159, #228, #115 ) ) ;
#228 = ADVANCED_FACE ( 'NONE', ( #261 ), #136, .T. ) ;
#229 =( GEOMETRIC_REPRESENTATION_CONTEXT ( 3 ) GLOBAL_UNCERTAINTY_ASSIGNED_CONTEXT ( ( #134 ) ) GLOBAL_UNIT_ASSIGNED_CONTEXT ( ( #194, #181, #175 ) ) REPRESENTATION_CONTEXT ( 'NONE', 'WORKASPACE' ) );
#230 = PRESENTATION_STYLE_ASSIGNMENT (( #57 ) ) ;
#231 = VERTEX_POINT ( 'NONE', #241 ) ;
#232 = UNCERTAINTY_MEASURE_WITH_UNIT (LENGTH_MEASURE( 1.000000000000000082E-05 ), #77, 'distance_accuracy_value', 'NONE');
#233 = PRODUCT_RELATED_PRODUCT_CATEGORY ( 'part', '', ( #25 ) ) ;
#234 = STYLED_ITEM ( 'NONE', ( #165 ), #184 ) ;
#235 = SURFACE_SIDE_STYLE ('',( #76 ) ) ;
#236 = VECTOR ( 'NONE', #58, 39.37007874015748143 ) ;
#237 = DIRECTION ( 'NONE',  ( 0.000000000000000000, 0.000000000000000000, -1.000000000000000000 ) ) ;
#238 = DIRECTION ( 'NONE',  ( 0.000000000000000000, 1.000000000000000000, 0.000000000000000000 ) ) ;
#239 = FACE_OUTER_BOUND ( 'NONE', #92, .T. ) ;
#240 = CONICAL_SURFACE ( 'NONE', #104, 22.73032555864674364, 0.5235987755983000369 ) ;
#241 = CARTESIAN_POINT ( 'NONE',  ( -0.1874999999999994726, 0.3247595264191634468, 0.000000000000000000 ) ) ;
#242 = PLANE ( 'NONE',  #68 ) ;
#243 = DIRECTION ( 'NONE',  ( 1.000000000000000000, 0.000000000000000000, 0.000000000000000000 ) ) ;
#244 = PLANE ( 'NONE',  #180 ) ;
#245 = PRODUCT_DEFINITION ( 'UNKNOWN', '', #51, #10 ) ;
#246 = SURFACE_STYLE_USAGE ( .BOTH. , #45 ) ;
#247 = SURFACE_SIDE_STYLE ('',( #182 ) ) ;
#248 = CIRCLE ( 'NONE', #130, 0.1875000000000000555 ) ;
#249 = SURFACE_SIDE_STYLE ('',( #49 ) ) ;
#250 = AXIS2_PLACEMENT_3D ( 'NONE', #262, #151, #79 ) ;
#251 = CIRCLE ( 'NONE', #72, 0.1874999999999997502 ) ;
#252 = UNCERTAINTY_MEASURE_WITH_UNIT (LENGTH_MEASURE( 1.000000000000000082E-05 ), #157, 'distance_accuracy_value', 'NONE');
#253 = FILL_AREA_STYLE_COLOUR ( '', #118 ) ;
#254 = EDGE_LOOP ( 'NONE', ( #91, #192, #154 ) ) ;
#255 = CARTESIAN_POINT ( 'NONE',  ( 0.1874999999999998057, 2.500000000000000000, 2.296212748401285877E-17 ) ) ;
#256 = DIRECTION ( 'NONE',  ( -1.000000000000000000, 0.000000000000000000, 0.000000000000000000 ) ) ;
#257 = PRESENTATION_STYLE_ASSIGNMENT (( #172 ) ) ;
#258 = STYLED_ITEM ( 'NONE', ( #21 ), #110 ) ;
#259 = VERTEX_POINT ( 'NONE', #106 ) ;
#260 =( GEOMETRIC_REPRESENTATION_CONTEXT ( 3 ) GLOBAL_UNCERTAINTY_ASSIGNED_CONTEXT ( ( #113 ) ) GLOBAL_UNIT_ASSIGNED_CONTEXT ( ( #26, #148, #129 ) ) REPRESENTATION_CONTEXT ( 'NONE', 'WORKASPACE' ) );
#261 = FACE_OUTER_BOUND ( 'NONE', #98, .T. ) ;
#262 = CARTESIAN_POINT ( 'NONE',  ( 0.000000000000000000, 0.3247595264191635578, 0.000000000000000000 ) ) ;
#263 = CARTESIAN_POINT ( 'NONE',  ( 0.000000000000000000, 39.37007874015748143, 0.000000000000000000 ) ) ;
#264 = LENGTH_MEASURE_WITH_UNIT ( LENGTH_MEASURE( 0.02539999999999999897 ), #19 );
#265 = DIRECTION ( 'NONE',  ( -1.478510563588688038E-16, 1.000000000000000000, -0.000000000000000000 ) ) ;
ENDSEC;
END-ISO-10303-21;
