ISO-10303-21;
HEADER;
FILE_DESCRIPTION (( 'STEP AP214' ),
    '1' );
FILE_NAME ('Micro_SHR-750-4X.STEP',
    '2021-09-02T09:02:56',
    ( '' ),
    ( '' ),
    'SwSTEP 2.0',
    'SolidWorks 2020',
    '' );
FILE_SCHEMA (( 'AUTOMOTIVE_DESIGN' ));
ENDSEC;

DATA;
#1 = CARTESIAN_POINT ( 'NONE',  ( 0.0000000000000000000, 0.0000000000000000000, 4.000000000000000000 ) ) ;
#2 = DIRECTION ( 'NONE',  ( -1.000000000000000000, 0.0000000000000000000, 0.0000000000000000000 ) ) ;
#3 = ORIENTED_EDGE ( 'NONE', *, *, #224, .F. ) ;
#4 = CONICAL_SURFACE ( 'NONE', #105, 0.3599999999999994316, 0.7853981633974415066 ) ;
#5 = PRODUCT_DEFINITION ( 'UNKNOWN', '', #149, #11 ) ;
#6 = CIRCLE ( 'NONE', #291, 0.3750000000000000555 ) ;
#7 = DIRECTION ( 'NONE',  ( 1.000000000000000000, 0.0000000000000000000, 0.0000000000000000000 ) ) ;
#8 = VERTEX_POINT ( 'NONE', #163 ) ;
#9 = DIRECTION ( 'NONE',  ( 1.000000000000000000, 0.0000000000000000000, 0.0000000000000000000 ) ) ;
#10 = FILL_AREA_STYLE ('',( #85 ) ) ;
#11 = PRODUCT_DEFINITION_CONTEXT ( 'detailed design', #63, 'design' ) ;
#12 = VECTOR ( 'NONE', #145, 39.37007874015748143 ) ;
#13 = LINE ( 'NONE', #62, #12 ) ;
#14 = CIRCLE ( 'NONE', #166, 0.3750000000000000555 ) ;
#15 = EDGE_CURVE ( 'NONE', #140, #8, #70, .T. ) ;
#16 = DIRECTION ( 'NONE',  ( -0.0000000000000000000, -0.0000000000000000000, -1.000000000000000000 ) ) ;
#17 = APPLICATION_CONTEXT ( 'automotive_design' ) ;
#18 =( LENGTH_UNIT ( ) NAMED_UNIT ( * ) SI_UNIT ( $, .METRE. ) );
#19 = ADVANCED_FACE ( 'NONE', ( #231 ), #106, .T. ) ;
#20 = LENGTH_MEASURE_WITH_UNIT ( LENGTH_MEASURE( 0.02539999999999999897 ), #240 );
#21 = DIMENSIONAL_EXPONENTS ( 1.000000000000000000, 0.0000000000000000000, 0.0000000000000000000, 0.0000000000000000000, 0.0000000000000000000, 0.0000000000000000000, 0.0000000000000000000 ) ;
#22 = DIRECTION ( 'NONE',  ( 1.000000000000000000, 0.0000000000000000000, 0.0000000000000000000 ) ) ;
#23 = DIRECTION ( 'NONE',  ( -0.0000000000000000000, -0.0000000000000000000, -1.000000000000000000 ) ) ;
#24 = VECTOR ( 'NONE', #124, 39.37007874015748143 ) ;
#25 = EDGE_CURVE ( 'NONE', #156, #277, #152, .T. ) ;
#26 = CARTESIAN_POINT ( 'NONE',  ( -0.3599999999999994316, 0.0000000000000000000, 4.000000000000000000 ) ) ;
#27 = ORIENTED_EDGE ( 'NONE', *, *, #36, .T. ) ;
#28 = DIRECTION ( 'NONE',  ( 0.0000000000000000000, 0.0000000000000000000, -1.000000000000000000 ) ) ;
#29 = DIRECTION ( 'NONE',  ( -1.000000000000000000, 0.0000000000000000000, 0.0000000000000000000 ) ) ;
#30 = CONICAL_SURFACE ( 'NONE', #69, 0.3599999999999994316, 0.7853981633974415066 ) ;
#31 = CARTESIAN_POINT ( 'NONE',  ( 0.0000000000000000000, 0.0000000000000000000, 4.000000000000000000 ) ) ;
#32 = CARTESIAN_POINT ( 'NONE',  ( 1.836970198721030181E-16, 0.0000000000000000000, 1.500000000000000222 ) ) ;
#33 = UNCERTAINTY_MEASURE_WITH_UNIT (LENGTH_MEASURE( 1.000000000000000082E-05 ), #90, 'distance_accuracy_value', 'NONE');
#34 = ORIENTED_EDGE ( 'NONE', *, *, #25, .T. ) ;
#35 = VECTOR ( 'NONE', #251, 39.37007874015748143 ) ;
#36 = EDGE_CURVE ( 'NONE', #288, #298, #45, .T. ) ;
#37 = ORIENTED_EDGE ( 'NONE', *, *, #108, .F. ) ;
#38 = LINE ( 'NONE', #147, #56 ) ;
#39 =( GEOMETRIC_REPRESENTATION_CONTEXT ( 3 ) GLOBAL_UNCERTAINTY_ASSIGNED_CONTEXT ( ( #100 ) ) GLOBAL_UNIT_ASSIGNED_CONTEXT ( ( #112, #171, #210 ) ) REPRESENTATION_CONTEXT ( 'NONE', 'WORKASPACE' ) );
#40 = DIRECTION ( 'NONE',  ( 0.0000000000000000000, 0.0000000000000000000, -1.000000000000000000 ) ) ;
#41 = AXIS2_PLACEMENT_3D ( 'NONE', #97, #54, #7 ) ;
#42 = CARTESIAN_POINT ( 'NONE',  ( 0.0000000000000000000, 0.0000000000000000000, 0.0000000000000000000 ) ) ;
#43 = DIRECTION ( 'NONE',  ( -1.000000000000000000, 0.0000000000000000000, 0.0000000000000000000 ) ) ;
#44 = DIRECTION ( 'NONE',  ( 1.000000000000000000, 0.0000000000000000000, 0.0000000000000000000 ) ) ;
#45 = CIRCLE ( 'NONE', #67, 0.3746249999999998748 ) ;
#46 = CLOSED_SHELL ( 'NONE', ( #264, #19, #130, #136, #207, #190, #52, #195, #278, #123 ) ) ;
#47 =( NAMED_UNIT ( * ) PLANE_ANGLE_UNIT ( ) SI_UNIT ( $, .RADIAN. ) );
#48 = DIRECTION ( 'NONE',  ( -1.000000000000000000, 0.0000000000000000000, 1.224646799147352961E-16 ) ) ;
#49 = ORIENTED_EDGE ( 'NONE', *, *, #36, .F. ) ;
#50 = CARTESIAN_POINT ( 'NONE',  ( -0.3750000000000000555, 0.0000000000000000000, 4.000000000000000000 ) ) ;
#51 = ORIENTED_EDGE ( 'NONE', *, *, #76, .T. ) ;
#52 = ADVANCED_FACE ( 'NONE', ( #122 ), #30, .T. ) ;
#53 = CYLINDRICAL_SURFACE ( 'NONE', #293, 0.3750000000000000555 ) ;
#54 = DIRECTION ( 'NONE',  ( -1.224646799147353207E-16, -0.0000000000000000000, -1.000000000000000000 ) ) ;
#55 = ORIENTED_EDGE ( 'NONE', *, *, #292, .T. ) ;
#56 = VECTOR ( 'NONE', #88, 39.37007874015748143 ) ;
#57 = PRODUCT_DEFINITION_SHAPE ( 'NONE', 'NONE',  #5 ) ;
#58 = ORIENTED_EDGE ( 'NONE', *, *, #142, .F. ) ;
#59 = ORIENTED_EDGE ( 'NONE', *, *, #259, .T. ) ;
#60 = EDGE_CURVE ( 'NONE', #208, #157, #185, .T. ) ;
#61 = ORIENTED_EDGE ( 'NONE', *, *, #15, .T. ) ;
#62 = CARTESIAN_POINT ( 'NONE',  ( -0.3746249999999997082, 4.587833071305770576E-17, 1.500000000000000222 ) ) ;
#63 = APPLICATION_CONTEXT ( 'automotive_design' ) ;
#64 = PLANE ( 'NONE',  #78 ) ;
#65 = SURFACE_STYLE_USAGE ( .BOTH. , #184 ) ;
#66 = CARTESIAN_POINT ( 'NONE',  ( 0.3746250000000000968, 0.0000000000000000000, 1.500000000000000222 ) ) ;
#67 = AXIS2_PLACEMENT_3D ( 'NONE', #258, #204, #29 ) ;
#68 = DIRECTION ( 'NONE',  ( -1.224646799147353207E-16, -0.0000000000000000000, -1.000000000000000000 ) ) ;
#69 = AXIS2_PLACEMENT_3D ( 'NONE', #1, #276, #2 ) ;
#70 = CIRCLE ( 'NONE', #179, 0.3746249999999999858 ) ;
#71 = CYLINDRICAL_SURFACE ( 'NONE', #299, 0.3746249999999999858 ) ;
#72 = CARTESIAN_POINT ( 'NONE',  ( 0.0000000000000000000, 0.0000000000000000000, 3.984999999999998987 ) ) ;
#73 = ORIENTED_EDGE ( 'NONE', *, *, #286, .F. ) ;
#74 = LINE ( 'NONE', #50, #35 ) ;
#75 = COLOUR_RGB ( '',0.7921568627450980005, 0.8196078431372548767, 0.9333333333333333481 ) ;
#76 = EDGE_CURVE ( 'NONE', #8, #140, #148, .T. ) ;
#77 = ORIENTED_EDGE ( 'NONE', *, *, #259, .F. ) ;
#78 = AXIS2_PLACEMENT_3D ( 'NONE', #42, #211, #169 ) ;
#79 = CIRCLE ( 'NONE', #239, 0.3599999999999994316 ) ;
#80 = EDGE_CURVE ( 'NONE', #156, #225, #38, .T. ) ;
#81 = ORIENTED_EDGE ( 'NONE', *, *, #286, .T. ) ;
#82 = EDGE_LOOP ( 'NONE', ( #81, #55, #37, #77 ) ) ;
#83 = EDGE_CURVE ( 'NONE', #277, #156, #79, .T. ) ;
#84 = CARTESIAN_POINT ( 'NONE',  ( 0.3599999999999994316, 4.500576986866520466E-17, 4.000000000000000000 ) ) ;
#85 = FILL_AREA_STYLE_COLOUR ( '', #101 ) ;
#86 = FACE_OUTER_BOUND ( 'NONE', #116, .T. ) ;
#87 = CARTESIAN_POINT ( 'NONE',  ( 0.3746249999999999858, 4.587833071305771192E-17, -4.587833071305771192E-17 ) ) ;
#88 = DIRECTION ( 'NONE',  ( 0.7071067811865426878, 8.659560562354873694E-17, -0.7071067811865523467 ) ) ;
#89 = FACE_OUTER_BOUND ( 'NONE', #249, .T. ) ;
#90 =( CONVERSION_BASED_UNIT ( 'INCH', #221 ) LENGTH_UNIT ( ) NAMED_UNIT ( #21 ) );
#91 = CARTESIAN_POINT ( 'NONE',  ( 0.0000000000000000000, 0.0000000000000000000, 0.0000000000000000000 ) ) ;
#92 = CARTESIAN_POINT ( 'NONE',  ( 0.0000000000000000000, 0.0000000000000000000, 4.000000000000000000 ) ) ;
#93 = CARTESIAN_POINT ( 'NONE',  ( 0.0000000000000000000, 0.0000000000000000000, 3.984999999999998987 ) ) ;
#94 = EDGE_LOOP ( 'NONE', ( #205, #201, #154, #134 ) ) ;
#95 = AXIS2_PLACEMENT_3D ( 'NONE', #91, #216, #176 ) ;
#96 = DIMENSIONAL_EXPONENTS ( 1.000000000000000000, 0.0000000000000000000, 0.0000000000000000000, 0.0000000000000000000, 0.0000000000000000000, 0.0000000000000000000, 0.0000000000000000000 ) ;
#97 = CARTESIAN_POINT ( 'NONE',  ( 1.839574692643827660E-16, 0.0000000000000000000, 1.502126730682357358 ) ) ;
#98 = ORIENTED_EDGE ( 'NONE', *, *, #129, .F. ) ;
#99 = DIRECTION ( 'NONE',  ( -1.000000000000000000, 0.0000000000000000000, 1.224646799147352961E-16 ) ) ;
#100 = UNCERTAINTY_MEASURE_WITH_UNIT (LENGTH_MEASURE( 1.000000000000000082E-05 ), #112, 'distance_accuracy_value', 'NONE');
#101 = COLOUR_RGB ( '',0.7921568627450980005, 0.8196078431372548767, 0.9333333333333333481 ) ;
#102 = EDGE_CURVE ( 'NONE', #288, #140, #284, .T. ) ;
#103 = ORIENTED_EDGE ( 'NONE', *, *, #292, .F. ) ;
#104 = EDGE_LOOP ( 'NONE', ( #103, #144, #59, #230 ) ) ;
#105 = AXIS2_PLACEMENT_3D ( 'NONE', #241, #40, #267 ) ;
#106 = CONICAL_SURFACE ( 'NONE', #245, 0.3746249999999998748, 0.1745329251994339470 ) ;
#107 = LINE ( 'NONE', #87, #119 ) ;
#108 = EDGE_CURVE ( 'NONE', #157, #208, #271, .T. ) ;
#109 = DIRECTION ( 'NONE',  ( 1.224646799147353207E-16, 0.0000000000000000000, 1.000000000000000000 ) ) ;
#110 = FACE_OUTER_BOUND ( 'NONE', #104, .T. ) ;
#111 = DIMENSIONAL_EXPONENTS ( 1.000000000000000000, 0.0000000000000000000, 0.0000000000000000000, 0.0000000000000000000, 0.0000000000000000000, 0.0000000000000000000, 0.0000000000000000000 ) ;
#112 =( CONVERSION_BASED_UNIT ( 'INCH', #20 ) LENGTH_UNIT ( ) NAMED_UNIT ( #96 ) );
#113 = PRESENTATION_LAYER_ASSIGNMENT (  '', '', ( #220 ) ) ;
#114 = PRESENTATION_LAYER_ASSIGNMENT (  '', '', ( #200 ) ) ;
#115 = DIRECTION ( 'NONE',  ( 0.0000000000000000000, 0.0000000000000000000, 1.000000000000000000 ) ) ;
#116 = EDGE_LOOP ( 'NONE', ( #181, #138, #73, #3 ) ) ;
#117 = ORIENTED_EDGE ( 'NONE', *, *, #296, .F. ) ;
#118 = SURFACE_STYLE_USAGE ( .BOTH. , #197 ) ;
#119 = VECTOR ( 'NONE', #212, 39.37007874015748143 ) ;
#120 = EDGE_LOOP ( 'NONE', ( #49, #270, #246, #117 ) ) ;
#121 = DIRECTION ( 'NONE',  ( 1.000000000000000000, 0.0000000000000000000, 0.0000000000000000000 ) ) ;
#122 = FACE_OUTER_BOUND ( 'NONE', #94, .T. ) ;
#123 = ADVANCED_FACE ( 'NONE', ( #265 ), #64, .F. ) ;
#124 = DIRECTION ( 'NONE',  ( -1.224646799147353207E-16, -0.0000000000000000000, -1.000000000000000000 ) ) ;
#125 = MANIFOLD_SOLID_BREP ( 'Cut-Revolve1', #46 ) ;
#126 =( NAMED_UNIT ( * ) SI_UNIT ( $, .STERADIAN. ) SOLID_ANGLE_UNIT ( ) );
#127 = PRODUCT_RELATED_PRODUCT_CATEGORY ( 'part', '', ( #196 ) ) ;
#128 = CIRCLE ( 'NONE', #153, 0.3746249999999998748 ) ;
#129 = EDGE_CURVE ( 'NONE', #298, #8, #107, .T. ) ;
#130 = ADVANCED_FACE ( 'NONE', ( #86 ), #4, .T. ) ;
#131 = CARTESIAN_POINT ( 'NONE',  ( -0.3746249999999999858, 0.0000000000000000000, 9.175666142611542384E-17 ) ) ;
#132 = SURFACE_STYLE_FILL_AREA ( #236 ) ;
#133 = CARTESIAN_POINT ( 'NONE',  ( 0.0000000000000000000, 0.0000000000000000000, 4.000000000000000000 ) ) ;
#134 = ORIENTED_EDGE ( 'NONE', *, *, #202, .F. ) ;
#135 = ORIENTED_EDGE ( 'NONE', *, *, #129, .T. ) ;
#136 = ADVANCED_FACE ( 'NONE', ( #188 ), #215, .T. ) ;
#137 = PLANE ( 'NONE',  #290 ) ;
#138 = ORIENTED_EDGE ( 'NONE', *, *, #80, .T. ) ;
#139 =( NAMED_UNIT ( * ) SI_UNIT ( $, .STERADIAN. ) SOLID_ANGLE_UNIT ( ) );
#140 = VERTEX_POINT ( 'NONE', #131 ) ;
#141 = AXIS2_PLACEMENT_3D ( 'NONE', #187, #266, #238 ) ;
#142 = EDGE_CURVE ( 'NONE', #288, #157, #13, .T. ) ;
#143 = VERTEX_POINT ( 'NONE', #193 ) ;
#144 = ORIENTED_EDGE ( 'NONE', *, *, #202, .T. ) ;
#145 = DIRECTION ( 'NONE',  ( -0.1736481776669312194, 2.126576849575783625E-17, 0.9848077530122077983 ) ) ;
#146 = PRESENTATION_STYLE_ASSIGNMENT (( #65 ) ) ;
#147 = CARTESIAN_POINT ( 'NONE',  ( 0.3599999999999994316, 4.408728476930464865E-17, 4.000000000000000000 ) ) ;
#148 = CIRCLE ( 'NONE', #219, 0.3746249999999999858 ) ;
#149 = PRODUCT_DEFINITION_FORMATION_WITH_SPECIFIED_SOURCE ( 'ANY', '', #196, .NOT_KNOWN. ) ;
#150 = CARTESIAN_POINT ( 'NONE',  ( 0.0000000000000000000, 0.0000000000000000000, 4.000000000000000000 ) ) ;
#151 = DIRECTION ( 'NONE',  ( 0.1736481776669314414, 0.0000000000000000000, 0.9848077530122077983 ) ) ;
#152 = CIRCLE ( 'NONE', #175, 0.3599999999999994316 ) ;
#153 = AXIS2_PLACEMENT_3D ( 'NONE', #262, #234, #155 ) ;
#154 = ORIENTED_EDGE ( 'NONE', *, *, #224, .T. ) ;
#155 = DIRECTION ( 'NONE',  ( -1.000000000000000000, 0.0000000000000000000, 0.0000000000000000000 ) ) ;
#156 = VERTEX_POINT ( 'NONE', #84 ) ;
#157 = VERTEX_POINT ( 'NONE', #165 ) ;
#158 = CARTESIAN_POINT ( 'NONE',  ( 1.836970198721030181E-16, 0.0000000000000000000, 1.500000000000000222 ) ) ;
#159 = DIRECTION ( 'NONE',  ( 1.224646799147353207E-16, 0.0000000000000000000, 1.000000000000000000 ) ) ;
#160 = ORIENTED_EDGE ( 'NONE', *, *, #102, .T. ) ;
#161 = FILL_AREA_STYLE_COLOUR ( '', #75 ) ;
#162 = EDGE_LOOP ( 'NONE', ( #61, #51 ) ) ;
#163 = CARTESIAN_POINT ( 'NONE',  ( 0.3746249999999999858, 4.587833071305771192E-17, 0.0000000000000000000 ) ) ;
#164 = DIRECTION ( 'NONE',  ( 0.0000000000000000000, 0.0000000000000000000, 1.000000000000000000 ) ) ;
#165 = CARTESIAN_POINT ( 'NONE',  ( -0.3749999999999998335, 0.0000000000000000000, 1.502126730682357358 ) ) ;
#166 = AXIS2_PLACEMENT_3D ( 'NONE', #93, #297, #198 ) ;
#167 = DIRECTION ( 'NONE',  ( 0.0000000000000000000, 0.0000000000000000000, 1.000000000000000000 ) ) ;
#168 = DIRECTION ( 'NONE',  ( 1.000000000000000000, 0.0000000000000000000, 0.0000000000000000000 ) ) ;
#169 = DIRECTION ( 'NONE',  ( 1.000000000000000000, 0.0000000000000000000, -0.0000000000000000000 ) ) ;
#170 = LENGTH_MEASURE_WITH_UNIT ( LENGTH_MEASURE( 0.02539999999999999897 ), #18 );
#171 =( NAMED_UNIT ( * ) PLANE_ANGLE_UNIT ( ) SI_UNIT ( $, .RADIAN. ) );
#172 = CARTESIAN_POINT ( 'NONE',  ( 0.3750000000000000555, 4.592425496802575451E-17, 3.984999999999998987 ) ) ;
#173 = EDGE_CURVE ( 'NONE', #298, #288, #128, .T. ) ;
#174 = CARTESIAN_POINT ( 'NONE',  ( 0.3746250000000000968, 0.0000000000000000000, 1.500000000000000222 ) ) ;
#175 = AXIS2_PLACEMENT_3D ( 'NONE', #31, #164, #252 ) ;
#176 = DIRECTION ( 'NONE',  ( -1.000000000000000000, 0.0000000000000000000, 1.224646799147352961E-16 ) ) ;
#177 =( LENGTH_UNIT ( ) NAMED_UNIT ( * ) SI_UNIT ( $, .METRE. ) );
#178 = DIRECTION ( 'NONE',  ( 1.000000000000000000, 0.0000000000000000000, -0.0000000000000000000 ) ) ;
#179 = AXIS2_PLACEMENT_3D ( 'NONE', #183, #282, #99 ) ;
#180 = DIRECTION ( 'NONE',  ( -1.000000000000000000, 0.0000000000000000000, 1.224646799147352961E-16 ) ) ;
#181 = ORIENTED_EDGE ( 'NONE', *, *, #25, .F. ) ;
#182 = DIRECTION ( 'NONE',  ( -1.224646799147353207E-16, -0.0000000000000000000, -1.000000000000000000 ) ) ;
#183 = CARTESIAN_POINT ( 'NONE',  ( 5.618475085796983064E-33, 0.0000000000000000000, 4.587833071305771192E-17 ) ) ;
#184 = SURFACE_SIDE_STYLE ('',( #243 ) ) ;
#185 = CIRCLE ( 'NONE', #41, 0.3750000000000000555 ) ;
#186 = CONICAL_SURFACE ( 'NONE', #228, 0.3746249999999998748, 0.1745329251994339470 ) ;
#187 = CARTESIAN_POINT ( 'NONE',  ( 1.839574692643827660E-16, 0.0000000000000000000, 1.502126730682357358 ) ) ;
#188 = FACE_OUTER_BOUND ( 'NONE', #82, .T. ) ;
#189 = PRODUCT_CONTEXT ( 'NONE', #17, 'mechanical' ) ;
#190 = ADVANCED_FACE ( 'NONE', ( #269 ), #137, .T. ) ;
#191 = CARTESIAN_POINT ( 'NONE',  ( 0.0000000000000000000, 0.0000000000000000000, 4.000000000000000000 ) ) ;
#192 = VECTOR ( 'NONE', #23, 39.37007874015748143 ) ;
#193 = CARTESIAN_POINT ( 'NONE',  ( -0.3750000000000000555, 0.0000000000000000000, 3.984999999999998987 ) ) ;
#194 = FACE_OUTER_BOUND ( 'NONE', #218, .T. ) ;
#195 = ADVANCED_FACE ( 'NONE', ( #89 ), #186, .T. ) ;
#196 = PRODUCT ( 'Micro_SHR-750-4X', 'Micro_SHR-750-4X', '', ( #189 ) ) ;
#197 = SURFACE_SIDE_STYLE ('',( #132 ) ) ;
#198 = DIRECTION ( 'NONE',  ( 1.000000000000000000, 0.0000000000000000000, 0.0000000000000000000 ) ) ;
#199 = LINE ( 'NONE', #66, #275 ) ;
#200 = STYLED_ITEM ( 'NONE', ( #146 ), #125 ) ;
#201 = ORIENTED_EDGE ( 'NONE', *, *, #83, .F. ) ;
#202 = EDGE_CURVE ( 'NONE', #225, #143, #14, .T. ) ;
#203 = CARTESIAN_POINT ( 'NONE',  ( 0.3750000000000001665, 4.592425496802577300E-17, 1.502126730682357358 ) ) ;
#204 = DIRECTION ( 'NONE',  ( -1.224646799147353207E-16, -0.0000000000000000000, -1.000000000000000000 ) ) ;
#205 = ORIENTED_EDGE ( 'NONE', *, *, #80, .F. ) ;
#206 = CARTESIAN_POINT ( 'NONE',  ( 5.618475085796983064E-33, 0.0000000000000000000, 4.587833071305771192E-17 ) ) ;
#207 = ADVANCED_FACE ( 'NONE', ( #110 ), #53, .T. ) ;
#208 = VERTEX_POINT ( 'NONE', #203 ) ;
#209 = ORIENTED_EDGE ( 'NONE', *, *, #83, .T. ) ;
#210 =( NAMED_UNIT ( * ) SI_UNIT ( $, .STERADIAN. ) SOLID_ANGLE_UNIT ( ) );
#211 = DIRECTION ( 'NONE',  ( 0.0000000000000000000, 0.0000000000000000000, 1.000000000000000000 ) ) ;
#212 = DIRECTION ( 'NONE',  ( -1.224646799147353207E-16, -0.0000000000000000000, -1.000000000000000000 ) ) ;
#213 =( GEOMETRIC_REPRESENTATION_CONTEXT ( 3 ) GLOBAL_UNCERTAINTY_ASSIGNED_CONTEXT ( ( #33 ) ) GLOBAL_UNIT_ASSIGNED_CONTEXT ( ( #90, #47, #139 ) ) REPRESENTATION_CONTEXT ( 'NONE', 'WORKASPACE' ) );
#214 =( NAMED_UNIT ( * ) PLANE_ANGLE_UNIT ( ) SI_UNIT ( $, .RADIAN. ) );
#215 = CYLINDRICAL_SURFACE ( 'NONE', #254, 0.3750000000000000555 ) ;
#216 = DIRECTION ( 'NONE',  ( -1.224646799147353207E-16, -0.0000000000000000000, -1.000000000000000000 ) ) ;
#217 = CARTESIAN_POINT ( 'NONE',  ( 0.3750000000000000555, 4.592425496802575451E-17, 4.000000000000000000 ) ) ;
#218 = EDGE_LOOP ( 'NONE', ( #27, #135, #253, #256 ) ) ;
#219 = AXIS2_PLACEMENT_3D ( 'NONE', #206, #182, #180 ) ;
#220 = STYLED_ITEM ( 'NONE', ( #235 ), #247 ) ;
#221 = LENGTH_MEASURE_WITH_UNIT ( LENGTH_MEASURE( 0.02539999999999999897 ), #177 );
#222 = ORIENTED_EDGE ( 'NONE', *, *, #173, .F. ) ;
#223 = CARTESIAN_POINT ( 'NONE',  ( -0.3599999999999994316, 0.0000000000000000000, 4.000000000000000000 ) ) ;
#224 = EDGE_CURVE ( 'NONE', #277, #143, #250, .T. ) ;
#225 = VERTEX_POINT ( 'NONE', #172 ) ;
#226 =( GEOMETRIC_REPRESENTATION_CONTEXT ( 3 ) GLOBAL_UNCERTAINTY_ASSIGNED_CONTEXT ( ( #257 ) ) GLOBAL_UNIT_ASSIGNED_CONTEXT ( ( #237, #214, #126 ) ) REPRESENTATION_CONTEXT ( 'NONE', 'WORKASPACE' ) );
#227 = AXIS2_PLACEMENT_3D ( 'NONE', #283, #263, #9 ) ;
#228 = AXIS2_PLACEMENT_3D ( 'NONE', #158, #109, #44 ) ;
#229 = ORIENTED_EDGE ( 'NONE', *, *, #76, .F. ) ;
#230 = ORIENTED_EDGE ( 'NONE', *, *, #60, .F. ) ;
#231 = FACE_OUTER_BOUND ( 'NONE', #120, .T. ) ;
#232 = MECHANICAL_DESIGN_GEOMETRIC_PRESENTATION_REPRESENTATION (  '', ( #220 ), #39 ) ;
#233 = ORIENTED_EDGE ( 'NONE', *, *, #60, .T. ) ;
#234 = DIRECTION ( 'NONE',  ( -1.224646799147353207E-16, -0.0000000000000000000, -1.000000000000000000 ) ) ;
#235 = PRESENTATION_STYLE_ASSIGNMENT (( #118 ) ) ;
#236 = FILL_AREA_STYLE ('',( #161 ) ) ;
#237 =( CONVERSION_BASED_UNIT ( 'INCH', #170 ) LENGTH_UNIT ( ) NAMED_UNIT ( #111 ) );
#238 = DIRECTION ( 'NONE',  ( 1.000000000000000000, 0.0000000000000000000, 0.0000000000000000000 ) ) ;
#239 = AXIS2_PLACEMENT_3D ( 'NONE', #191, #167, #168 ) ;
#240 =( LENGTH_UNIT ( ) NAMED_UNIT ( * ) SI_UNIT ( $, .METRE. ) );
#241 = CARTESIAN_POINT ( 'NONE',  ( 0.0000000000000000000, 0.0000000000000000000, 4.000000000000000000 ) ) ;
#242 = APPLICATION_PROTOCOL_DEFINITION ( 'draft international standard', 'automotive_design', 1998, #17 ) ;
#243 = SURFACE_STYLE_FILL_AREA ( #10 ) ;
#244 = CYLINDRICAL_SURFACE ( 'NONE', #95, 0.3746249999999999858 ) ;
#245 = AXIS2_PLACEMENT_3D ( 'NONE', #32, #159, #121 ) ;
#246 = ORIENTED_EDGE ( 'NONE', *, *, #108, .T. ) ;
#247 = ADVANCED_BREP_SHAPE_REPRESENTATION ( 'Micro_SHR-750-4X', ( #125, #227 ), #213 ) ;
#248 = CARTESIAN_POINT ( 'NONE',  ( 0.0000000000000000000, 0.0000000000000000000, 0.0000000000000000000 ) ) ;
#249 = EDGE_LOOP ( 'NONE', ( #58, #222, #280, #233 ) ) ;
#250 = LINE ( 'NONE', #26, #255 ) ;
#251 = DIRECTION ( 'NONE',  ( -0.0000000000000000000, -0.0000000000000000000, -1.000000000000000000 ) ) ;
#252 = DIRECTION ( 'NONE',  ( 1.000000000000000000, 0.0000000000000000000, 0.0000000000000000000 ) ) ;
#253 = ORIENTED_EDGE ( 'NONE', *, *, #15, .F. ) ;
#254 = AXIS2_PLACEMENT_3D ( 'NONE', #150, #16, #43 ) ;
#255 = VECTOR ( 'NONE', #294, 39.37007874015748143 ) ;
#256 = ORIENTED_EDGE ( 'NONE', *, *, #102, .F. ) ;
#257 = UNCERTAINTY_MEASURE_WITH_UNIT (LENGTH_MEASURE( 1.000000000000000082E-05 ), #237, 'distance_accuracy_value', 'NONE');
#258 = CARTESIAN_POINT ( 'NONE',  ( 1.836970198721030181E-16, 0.0000000000000000000, 1.500000000000000222 ) ) ;
#259 = EDGE_CURVE ( 'NONE', #143, #157, #74, .T. ) ;
#260 = EDGE_LOOP ( 'NONE', ( #209, #34 ) ) ;
#261 = APPLICATION_PROTOCOL_DEFINITION ( 'draft international standard', 'automotive_design', 1998, #63 ) ;
#262 = CARTESIAN_POINT ( 'NONE',  ( 1.836970198721030181E-16, 0.0000000000000000000, 1.500000000000000222 ) ) ;
#263 = DIRECTION ( 'NONE',  ( 0.0000000000000000000, 0.0000000000000000000, 1.000000000000000000 ) ) ;
#264 = ADVANCED_FACE ( 'NONE', ( #194 ), #244, .T. ) ;
#265 = FACE_OUTER_BOUND ( 'NONE', #162, .T. ) ;
#266 = DIRECTION ( 'NONE',  ( -1.224646799147353207E-16, -0.0000000000000000000, -1.000000000000000000 ) ) ;
#267 = DIRECTION ( 'NONE',  ( -1.000000000000000000, 0.0000000000000000000, 0.0000000000000000000 ) ) ;
#268 = CARTESIAN_POINT ( 'NONE',  ( -0.3746249999999997082, 4.590129284054172397E-17, 1.500000000000000222 ) ) ;
#269 = FACE_OUTER_BOUND ( 'NONE', #260, .T. ) ;
#270 = ORIENTED_EDGE ( 'NONE', *, *, #142, .T. ) ;
#271 = CIRCLE ( 'NONE', #141, 0.3750000000000000555 ) ;
#272 = FACE_OUTER_BOUND ( 'NONE', #281, .T. ) ;
#273 = LINE ( 'NONE', #217, #192 ) ;
#274 = DIRECTION ( 'NONE',  ( -1.000000000000000000, 0.0000000000000000000, 0.0000000000000000000 ) ) ;
#275 = VECTOR ( 'NONE', #151, 39.37007874015748143 ) ;
#276 = DIRECTION ( 'NONE',  ( 0.0000000000000000000, 0.0000000000000000000, -1.000000000000000000 ) ) ;
#277 = VERTEX_POINT ( 'NONE', #223 ) ;
#278 = ADVANCED_FACE ( 'NONE', ( #272 ), #71, .T. ) ;
#279 = MECHANICAL_DESIGN_GEOMETRIC_PRESENTATION_REPRESENTATION (  '', ( #200 ), #226 ) ;
#280 = ORIENTED_EDGE ( 'NONE', *, *, #296, .T. ) ;
#281 = EDGE_LOOP ( 'NONE', ( #98, #295, #160, #229 ) ) ;
#282 = DIRECTION ( 'NONE',  ( -1.224646799147353207E-16, -0.0000000000000000000, -1.000000000000000000 ) ) ;
#283 = CARTESIAN_POINT ( 'NONE',  ( 0.0000000000000000000, 0.0000000000000000000, 0.0000000000000000000 ) ) ;
#284 = LINE ( 'NONE', #287, #24 ) ;
#285 = SHAPE_DEFINITION_REPRESENTATION ( #57, #247 ) ;
#286 = EDGE_CURVE ( 'NONE', #143, #225, #6, .T. ) ;
#287 = CARTESIAN_POINT ( 'NONE',  ( -0.3746249999999999858, 0.0000000000000000000, 4.587833071305771192E-17 ) ) ;
#288 = VERTEX_POINT ( 'NONE', #268 ) ;
#289 = DIRECTION ( 'NONE',  ( -0.0000000000000000000, -0.0000000000000000000, -1.000000000000000000 ) ) ;
#290 = AXIS2_PLACEMENT_3D ( 'NONE', #133, #115, #178 ) ;
#291 = AXIS2_PLACEMENT_3D ( 'NONE', #72, #28, #22 ) ;
#292 = EDGE_CURVE ( 'NONE', #225, #208, #273, .T. ) ;
#293 = AXIS2_PLACEMENT_3D ( 'NONE', #92, #289, #274 ) ;
#294 = DIRECTION ( 'NONE',  ( -0.7071067811865426878, 0.0000000000000000000, -0.7071067811865523467 ) ) ;
#295 = ORIENTED_EDGE ( 'NONE', *, *, #173, .T. ) ;
#296 = EDGE_CURVE ( 'NONE', #298, #208, #199, .T. ) ;
#297 = DIRECTION ( 'NONE',  ( 0.0000000000000000000, 0.0000000000000000000, -1.000000000000000000 ) ) ;
#298 = VERTEX_POINT ( 'NONE', #174 ) ;
#299 = AXIS2_PLACEMENT_3D ( 'NONE', #248, #68, #48 ) ;
ENDSEC;
END-ISO-10303-21;
