ISO-10303-21;
HEADER;
FILE_DESCRIPTION (( 'STEP AP214' ),
    '1' );
FILE_NAME ('Micro_BMRM-035-2X.STEP',
    '2021-09-03T14:41:00',
    ( '' ),
    ( '' ),
    'SwSTEP 2.0',
    'SolidWorks 2020',
    '' );
FILE_SCHEMA (( 'AUTOMOTIVE_DESIGN' ));
ENDSEC;

DATA;
#1 = UNCERTAINTY_MEASURE_WITH_UNIT (LENGTH_MEASURE( 1.000000000000000082E-05 ), #162, 'distance_accuracy_value', 'NONE');
#2 = SHAPE_DEFINITION_REPRESENTATION ( #175, #27 ) ;
#3 = AXIS2_PLACEMENT_3D ( 'NONE', #94, #101, #189 ) ;
#4 = ORIENTED_EDGE ( 'NONE', *, *, #89, .F. ) ;
#5 = ORIENTED_EDGE ( 'NONE', *, *, #78, .F. ) ;
#6 = ORIENTED_EDGE ( 'NONE', *, *, #89, .T. ) ;
#7 = FILL_AREA_STYLE_COLOUR ( '', #53 ) ;
#8 = DIRECTION ( 'NONE',  ( 1.000000000000000000, 0.0000000000000000000, 0.0000000000000000000 ) ) ;
#9 = AXIS2_PLACEMENT_3D ( 'NONE', #242, #167, #39 ) ;
#10 = ORIENTED_EDGE ( 'NONE', *, *, #24, .T. ) ;
#11 = FACE_OUTER_BOUND ( 'NONE', #115, .T. ) ;
#12 = CARTESIAN_POINT ( 'NONE',  ( 8.429072774141052587E-18, 0.0000000000000000000, 0.06882860250000000235 ) ) ;
#13 = FACE_OUTER_BOUND ( 'NONE', #174, .T. ) ;
#14 = EDGE_CURVE ( 'NONE', #157, #136, #256, .T. ) ;
#15 = EDGE_LOOP ( 'NONE', ( #104, #205, #227 ) ) ;
#16 = CARTESIAN_POINT ( 'NONE',  ( 0.07874000000000000443, 9.642868896486258509E-18, 1.953504000000000129 ) ) ;
#17 = CONICAL_SURFACE ( 'NONE', #35, 0.06882860250000000235, 0.1745329251994338637 ) ;
#18 =( NAMED_UNIT ( * ) SI_UNIT ( $, .STERADIAN. ) SOLID_ANGLE_UNIT ( ) );
#19 = DIRECTION ( 'NONE',  ( 1.000000000000000000, 0.0000000000000000000, 0.0000000000000000000 ) ) ;
#20 = DIMENSIONAL_EXPONENTS ( 1.000000000000000000, 0.0000000000000000000, 0.0000000000000000000, 0.0000000000000000000, 0.0000000000000000000, 0.0000000000000000000, 0.0000000000000000000 ) ;
#21 = CARTESIAN_POINT ( 'NONE',  ( 5.062518417123276675E-17, 0.0000000000000000000, 0.4133859999999999757 ) ) ;
#22 = DIRECTION ( 'NONE',  ( -1.224646799147353207E-16, -0.0000000000000000000, -1.000000000000000000 ) ) ;
#23 = EDGE_CURVE ( 'NONE', #179, #136, #143, .T. ) ;
#24 = EDGE_CURVE ( 'NONE', #281, #30, #200, .T. ) ;
#25 = SURFACE_SIDE_STYLE ('',( #252 ) ) ;
#26 = CIRCLE ( 'NONE', #265, 0.06882860250000000235 ) ;
#27 = ADVANCED_BREP_SHAPE_REPRESENTATION ( 'Micro_BMRM-035-2X', ( #73, #286 ), #243 ) ;
#28 = CARTESIAN_POINT ( 'NONE',  ( -0.06374000000000018540, 0.0000000000000000000, 1.968503999999999809 ) ) ;
#29 = COLOUR_RGB ( '',0.7921568627450980005, 0.8196078431372548767, 0.9333333333333333481 ) ;
#30 = VERTEX_POINT ( 'NONE', #180 ) ;
#31 = ORIENTED_EDGE ( 'NONE', *, *, #166, .T. ) ;
#32 = DIRECTION ( 'NONE',  ( -0.0000000000000000000, -0.0000000000000000000, -1.000000000000000000 ) ) ;
#33 = VERTEX_POINT ( 'NONE', #285 ) ;
#34 = DIRECTION ( 'NONE',  ( 1.000000000000000000, 0.0000000000000000000, 0.0000000000000000000 ) ) ;
#35 = AXIS2_PLACEMENT_3D ( 'NONE', #147, #325, #19 ) ;
#36 = DIRECTION ( 'NONE',  ( -1.224646799147353207E-16, -0.0000000000000000000, -1.000000000000000000 ) ) ;
#37 = ORIENTED_EDGE ( 'NONE', *, *, #273, .T. ) ;
#38 = CARTESIAN_POINT ( 'NONE',  ( 0.0000000000000000000, 0.0000000000000000000, 0.0000000000000000000 ) ) ;
#39 = DIRECTION ( 'NONE',  ( -1.000000000000000000, 0.0000000000000000000, 0.0000000000000000000 ) ) ;
#40 = ORIENTED_EDGE ( 'NONE', *, *, #142, .F. ) ;
#41 = LENGTH_MEASURE_WITH_UNIT ( LENGTH_MEASURE( 0.02539999999999999897 ), #68 );
#42 = CARTESIAN_POINT ( 'NONE',  ( 5.750896405261157761E-17, 0.0000000000000000000, 0.4695963284487540967 ) ) ;
#43 = CARTESIAN_POINT ( 'NONE',  ( 0.0000000000000000000, 0.0000000000000000000, 0.0000000000000000000 ) ) ;
#44 = LINE ( 'NONE', #149, #103 ) ;
#45 = PRODUCT_DEFINITION_FORMATION_WITH_SPECIFIED_SOURCE ( 'ANY', '', #194, .NOT_KNOWN. ) ;
#46 = EDGE_CURVE ( 'NONE', #232, #179, #111, .T. ) ;
#47 = PRESENTATION_STYLE_ASSIGNMENT (( #282 ) ) ;
#48 = CARTESIAN_POINT ( 'NONE',  ( 0.0000000000000000000, 0.0000000000000000000, 1.953504000000000129 ) ) ;
#49 = VERTEX_POINT ( 'NONE', #109 ) ;
#50 =( CONVERSION_BASED_UNIT ( 'INCH', #129 ) LENGTH_UNIT ( ) NAMED_UNIT ( #102 ) );
#51 = ORIENTED_EDGE ( 'NONE', *, *, #190, .F. ) ;
#52 = EDGE_LOOP ( 'NONE', ( #290, #156, #71, #154 ) ) ;
#53 = COLOUR_RGB ( '',0.7921568627450980005, 0.8196078431372548767, 0.9333333333333333481 ) ;
#54 = FACE_OUTER_BOUND ( 'NONE', #64, .T. ) ;
#55 = CARTESIAN_POINT ( 'NONE',  ( 0.0000000000000000000, 0.0000000000000000000, 1.968503999999999809 ) ) ;
#56 = CYLINDRICAL_SURFACE ( 'NONE', #191, 0.07874000000000000443 ) ;
#57 = VECTOR ( 'NONE', #22, 39.37007874015748143 ) ;
#58 = CARTESIAN_POINT ( 'NONE',  ( 5.062518417123276675E-17, 0.0000000000000000000, 0.4133859999999999757 ) ) ;
#59 = FACE_OUTER_BOUND ( 'NONE', #202, .T. ) ;
#60 = AXIS2_PLACEMENT_3D ( 'NONE', #48, #91, #315 ) ;
#61 = ADVANCED_FACE ( 'NONE', ( #11 ), #118, .T. ) ;
#62 = DIRECTION ( 'NONE',  ( -1.224646799147353207E-16, -0.0000000000000000000, -1.000000000000000000 ) ) ;
#63 = SPHERICAL_SURFACE ( 'NONE', #148, 0.06882860250000000235 ) ;
#64 = EDGE_LOOP ( 'NONE', ( #203, #261, #230, #304 ) ) ;
#65 = DIRECTION ( 'NONE',  ( -0.0000000000000000000, -0.0000000000000000000, -1.000000000000000000 ) ) ;
#66 = STYLED_ITEM ( 'NONE', ( #226 ), #73 ) ;
#67 = AXIS2_PLACEMENT_3D ( 'NONE', #88, #165, #34 ) ;
#68 =( LENGTH_UNIT ( ) NAMED_UNIT ( * ) SI_UNIT ( $, .METRE. ) );
#69 = AXIS2_PLACEMENT_3D ( 'NONE', #43, #249, #321 ) ;
#70 = DIRECTION ( 'NONE',  ( -1.000000000000000000, 0.0000000000000000000, 0.0000000000000000000 ) ) ;
#71 = ORIENTED_EDGE ( 'NONE', *, *, #302, .T. ) ;
#72 = ORIENTED_EDGE ( 'NONE', *, *, #14, .T. ) ;
#73 = MANIFOLD_SOLID_BREP ( 'Fillet1', #241 ) ;
#74 =( NAMED_UNIT ( * ) PLANE_ANGLE_UNIT ( ) SI_UNIT ( $, .RADIAN. ) );
#75 = LENGTH_MEASURE_WITH_UNIT ( LENGTH_MEASURE( 0.02539999999999999897 ), #177 );
#76 = DIRECTION ( 'NONE',  ( 0.0000000000000000000, 0.0000000000000000000, 1.000000000000000000 ) ) ;
#77 = ORIENTED_EDGE ( 'NONE', *, *, #124, .F. ) ;
#78 = EDGE_CURVE ( 'NONE', #136, #179, #214, .T. ) ;
#79 = ORIENTED_EDGE ( 'NONE', *, *, #142, .T. ) ;
#80 = EDGE_LOOP ( 'NONE', ( #107, #4, #79, #10 ) ) ;
#81 =( NAMED_UNIT ( * ) SI_UNIT ( $, .STERADIAN. ) SOLID_ANGLE_UNIT ( ) );
#82 = ADVANCED_FACE ( 'NONE', ( #289 ), #287, .T. ) ;
#83 = VECTOR ( 'NONE', #65, 39.37007874015748143 ) ;
#84 = CYLINDRICAL_SURFACE ( 'NONE', #172, 0.07874000000000000443 ) ;
#85 = PRODUCT_RELATED_PRODUCT_CATEGORY ( 'part', '', ( #194 ) ) ;
#86 =( NAMED_UNIT ( * ) SI_UNIT ( $, .STERADIAN. ) SOLID_ANGLE_UNIT ( ) );
#87 = APPLICATION_CONTEXT ( 'automotive_design' ) ;
#88 = CARTESIAN_POINT ( 'NONE',  ( 5.062518417123276675E-17, 0.0000000000000000000, 0.4133859999999999757 ) ) ;
#89 = EDGE_CURVE ( 'NONE', #182, #49, #295, .T. ) ;
#90 = AXIS2_PLACEMENT_3D ( 'NONE', #58, #36, #141 ) ;
#91 = DIRECTION ( 'NONE',  ( 0.0000000000000000000, 0.0000000000000000000, -1.000000000000000000 ) ) ;
#92 = ADVANCED_FACE ( 'NONE', ( #54 ), #56, .T. ) ;
#93 = CARTESIAN_POINT ( 'NONE',  ( 8.429072774141052587E-18, 0.0000000000000000000, 0.06882860250000000235 ) ) ;
#94 = CARTESIAN_POINT ( 'NONE',  ( 0.0000000000000000000, 0.0000000000000000000, 1.968503999999999809 ) ) ;
#95 = AXIS2_PLACEMENT_3D ( 'NONE', #138, #311, #119 ) ;
#96 = DIRECTION ( 'NONE',  ( 0.0000000000000000000, 0.0000000000000000000, 1.000000000000000000 ) ) ;
#97 = STYLED_ITEM ( 'NONE', ( #47 ), #27 ) ;
#98 = CARTESIAN_POINT ( 'NONE',  ( 8.429072774141052587E-18, 0.0000000000000000000, 0.06882860250000000235 ) ) ;
#99 = ORIENTED_EDGE ( 'NONE', *, *, #250, .F. ) ;
#100 = LINE ( 'NONE', #196, #83 ) ;
#101 = DIRECTION ( 'NONE',  ( 0.0000000000000000000, 0.0000000000000000000, 1.000000000000000000 ) ) ;
#102 = DIMENSIONAL_EXPONENTS ( 1.000000000000000000, 0.0000000000000000000, 0.0000000000000000000, 0.0000000000000000000, 0.0000000000000000000, 0.0000000000000000000, 0.0000000000000000000 ) ;
#103 = VECTOR ( 'NONE', #62, 39.37007874015748143 ) ;
#104 = ORIENTED_EDGE ( 'NONE', *, *, #139, .F. ) ;
#105 = PRODUCT_CONTEXT ( 'NONE', #87, 'mechanical' ) ;
#106 = DIRECTION ( 'NONE',  ( 0.7071067811865502373, 8.659560562354966138E-17, -0.7071067811865446862 ) ) ;
#107 = ORIENTED_EDGE ( 'NONE', *, *, #166, .F. ) ;
#108 = SURFACE_STYLE_FILL_AREA ( #132 ) ;
#109 = CARTESIAN_POINT ( 'NONE',  ( -0.06882860249999994684, 9.035970835313654007E-18, 0.4133859999999999757 ) ) ;
#110 = ORIENTED_EDGE ( 'NONE', *, *, #273, .F. ) ;
#111 = LINE ( 'NONE', #260, #314 ) ;
#112 = AXIS2_PLACEMENT_3D ( 'NONE', #277, #160, #8 ) ;
#113 = DIRECTION ( 'NONE',  ( 1.224646799147353207E-16, 0.0000000000000000000, 1.000000000000000000 ) ) ;
#114 = VECTOR ( 'NONE', #298, 39.37007874015748143 ) ;
#115 = EDGE_LOOP ( 'NONE', ( #187, #110, #72, #293 ) ) ;
#116 = DIRECTION ( 'NONE',  ( 1.000000000000000000, 0.0000000000000000000, 0.0000000000000000000 ) ) ;
#117 = FACE_OUTER_BOUND ( 'NONE', #318, .T. ) ;
#118 = CONICAL_SURFACE ( 'NONE', #222, 0.06374000000000018540, 0.7853981633974522758 ) ;
#119 = DIRECTION ( 'NONE',  ( 1.000000000000000000, 0.0000000000000000000, 0.0000000000000000000 ) ) ;
#120 = CARTESIAN_POINT ( 'NONE',  ( 0.06882860250000004398, 0.0000000000000000000, 0.4133859999999999757 ) ) ;
#121 = LINE ( 'NONE', #195, #114 ) ;
#122 = DIRECTION ( 'NONE',  ( -1.224646799147353207E-16, -0.0000000000000000000, -1.000000000000000000 ) ) ;
#123 = ADVANCED_FACE ( 'NONE', ( #117 ), #235, .T. ) ;
#124 = EDGE_CURVE ( 'NONE', #232, #157, #240, .T. ) ;
#125 = FACE_OUTER_BOUND ( 'NONE', #244, .T. ) ;
#126 = ADVANCED_FACE ( 'NONE', ( #234 ), #84, .T. ) ;
#127 = VECTOR ( 'NONE', #229, 39.37007874015748854 ) ;
#128 = PRODUCT_DEFINITION_CONTEXT ( 'detailed design', #255, 'design' ) ;
#129 = LENGTH_MEASURE_WITH_UNIT ( LENGTH_MEASURE( 0.02539999999999999897 ), #209 );
#130 = SURFACE_STYLE_USAGE ( .BOTH. , #25 ) ;
#131 = ORIENTED_EDGE ( 'NONE', *, *, #14, .F. ) ;
#132 = FILL_AREA_STYLE ('',( #7 ) ) ;
#133 = DIRECTION ( 'NONE',  ( 0.0000000000000000000, 0.0000000000000000000, -1.000000000000000000 ) ) ;
#134 = AXIS2_PLACEMENT_3D ( 'NONE', #279, #133, #181 ) ;
#135 = ORIENTED_EDGE ( 'NONE', *, *, #239, .F. ) ;
#136 = VERTEX_POINT ( 'NONE', #266 ) ;
#137 = CARTESIAN_POINT ( 'NONE',  ( 8.429072774141052587E-18, 0.0000000000000000000, 0.06882860250000000235 ) ) ;
#138 = CARTESIAN_POINT ( 'NONE',  ( 0.0000000000000000000, 0.0000000000000000000, 1.968503999999999809 ) ) ;
#139 = EDGE_CURVE ( 'NONE', #33, #307, #258, .T. ) ;
#140 = DIRECTION ( 'NONE',  ( -1.000000000000000000, 0.0000000000000000000, 0.0000000000000000000 ) ) ;
#141 = DIRECTION ( 'NONE',  ( -1.000000000000000000, 0.0000000000000000000, 0.0000000000000000000 ) ) ;
#142 = EDGE_CURVE ( 'NONE', #182, #281, #183, .T. ) ;
#143 = CIRCLE ( 'NONE', #134, 0.07874000000000000443 ) ;
#144 = ORIENTED_EDGE ( 'NONE', *, *, #124, .T. ) ;
#145 = CIRCLE ( 'NONE', #178, 0.06374000000000018540 ) ;
#146 = EDGE_CURVE ( 'NONE', #307, #253, #219, .T. ) ;
#147 = CARTESIAN_POINT ( 'NONE',  ( 5.062518417123276675E-17, 0.0000000000000000000, 0.4133859999999999757 ) ) ;
#148 = AXIS2_PLACEMENT_3D ( 'NONE', #192, #217, #271 ) ;
#149 = CARTESIAN_POINT ( 'NONE',  ( -0.06882860250000000235, 0.0000000000000000000, 8.429072774141052587E-18 ) ) ;
#150 =( CONVERSION_BASED_UNIT ( 'INCH', #41 ) LENGTH_UNIT ( ) NAMED_UNIT ( #20 ) );
#151 = APPLICATION_PROTOCOL_DEFINITION ( 'draft international standard', 'automotive_design', 1998, #87 ) ;
#152 = FILL_AREA_STYLE ('',( #303 ) ) ;
#153 = UNCERTAINTY_MEASURE_WITH_UNIT (LENGTH_MEASURE( 1.000000000000000082E-05 ), #50, 'distance_accuracy_value', 'NONE');
#154 = ORIENTED_EDGE ( 'NONE', *, *, #24, .F. ) ;
#155 = CIRCLE ( 'NONE', #193, 0.07874000000000000443 ) ;
#156 = ORIENTED_EDGE ( 'NONE', *, *, #23, .T. ) ;
#157 = VERTEX_POINT ( 'NONE', #238 ) ;
#158 = EDGE_LOOP ( 'NONE', ( #135, #204, #51 ) ) ;
#159 = MECHANICAL_DESIGN_GEOMETRIC_PRESENTATION_REPRESENTATION (  '', ( #66 ), #207 ) ;
#160 = DIRECTION ( 'NONE',  ( -1.224646799147353207E-16, -0.0000000000000000000, -1.000000000000000000 ) ) ;
#161 = CIRCLE ( 'NONE', #297, 0.06882860250000000235 ) ;
#162 =( CONVERSION_BASED_UNIT ( 'INCH', #75 ) LENGTH_UNIT ( ) NAMED_UNIT ( #276 ) );
#163 = DIRECTION ( 'NONE',  ( 0.0000000000000000000, 1.000000000000000000, 0.0000000000000000000 ) ) ;
#164 = ADVANCED_FACE ( 'NONE', ( #13 ), #291, .T. ) ;
#165 = DIRECTION ( 'NONE',  ( 1.224646799147353207E-16, 0.0000000000000000000, 1.000000000000000000 ) ) ;
#166 = EDGE_CURVE ( 'NONE', #49, #30, #188, .T. ) ;
#167 = DIRECTION ( 'NONE',  ( 0.0000000000000000000, 0.0000000000000000000, -1.000000000000000000 ) ) ;
#168 = LINE ( 'NONE', #324, #57 ) ;
#169 = FACE_OUTER_BOUND ( 'NONE', #15, .T. ) ;
#170 = CARTESIAN_POINT ( 'NONE',  ( 0.0000000000000000000, 0.0000000000000000000, 1.968503999999999809 ) ) ;
#171 = DIRECTION ( 'NONE',  ( 0.0000000000000000000, -1.000000000000000000, 0.0000000000000000000 ) ) ;
#172 = AXIS2_PLACEMENT_3D ( 'NONE', #55, #264, #237 ) ;
#173 = ORIENTED_EDGE ( 'NONE', *, *, #250, .T. ) ;
#174 = EDGE_LOOP ( 'NONE', ( #309, #173, #284, #306 ) ) ;
#175 = PRODUCT_DEFINITION_SHAPE ( 'NONE', 'NONE',  #322 ) ;
#176 = ADVANCED_FACE ( 'NONE', ( #59 ), #224, .T. ) ;
#177 =( LENGTH_UNIT ( ) NAMED_UNIT ( * ) SI_UNIT ( $, .METRE. ) );
#178 = AXIS2_PLACEMENT_3D ( 'NONE', #170, #96, #272 ) ;
#179 = VERTEX_POINT ( 'NONE', #16 ) ;
#180 = CARTESIAN_POINT ( 'NONE',  ( -0.07873999999999994892, 0.0000000000000000000, 0.4695963284487540967 ) ) ;
#181 = DIRECTION ( 'NONE',  ( 1.000000000000000000, 0.0000000000000000000, 0.0000000000000000000 ) ) ;
#182 = VERTEX_POINT ( 'NONE', #120 ) ;
#183 = LINE ( 'NONE', #185, #268 ) ;
#184 = ORIENTED_EDGE ( 'NONE', *, *, #283, .F. ) ;
#185 = CARTESIAN_POINT ( 'NONE',  ( 0.06882860250000004398, 0.0000000000000000000, 0.4133859999999999757 ) ) ;
#186 = CIRCLE ( 'NONE', #199, 0.06882860250000000235 ) ;
#187 = ORIENTED_EDGE ( 'NONE', *, *, #46, .F. ) ;
#188 = LINE ( 'NONE', #292, #233 ) ;
#189 = DIRECTION ( 'NONE',  ( 1.000000000000000000, 0.0000000000000000000, -0.0000000000000000000 ) ) ;
#190 = EDGE_CURVE ( 'NONE', #253, #307, #186, .T. ) ;
#191 = AXIS2_PLACEMENT_3D ( 'NONE', #313, #32, #140 ) ;
#192 = CARTESIAN_POINT ( 'NONE',  ( 8.429072774141052587E-18, 0.0000000000000000000, 0.06882860250000000235 ) ) ;
#193 = AXIS2_PLACEMENT_3D ( 'NONE', #42, #246, #218 ) ;
#194 = PRODUCT ( 'Micro_BMRM-035-2X', 'Micro_BMRM-035-2X', '', ( #105 ) ) ;
#195 = CARTESIAN_POINT ( 'NONE',  ( 0.07874000000000000443, 9.642868896486258509E-18, 1.968503999999999809 ) ) ;
#196 = CARTESIAN_POINT ( 'NONE',  ( -0.07874000000000000443, 0.0000000000000000000, 1.968503999999999809 ) ) ;
#197 = PRESENTATION_LAYER_ASSIGNMENT (  '', '', ( #66 ) ) ;
#198 = EDGE_CURVE ( 'NONE', #49, #307, #44, .T. ) ;
#199 = AXIS2_PLACEMENT_3D ( 'NONE', #310, #294, #296 ) ;
#200 = CIRCLE ( 'NONE', #112, 0.07874000000000000443 ) ;
#201 = DIRECTION ( 'NONE',  ( 0.0000000000000000000, 0.0000000000000000000, -1.000000000000000000 ) ) ;
#202 = EDGE_LOOP ( 'NONE', ( #77, #213, #5, #131 ) ) ;
#203 = ORIENTED_EDGE ( 'NONE', *, *, #78, .T. ) ;
#204 = ORIENTED_EDGE ( 'NONE', *, *, #139, .T. ) ;
#205 = ORIENTED_EDGE ( 'NONE', *, *, #239, .T. ) ;
#206 = CARTESIAN_POINT ( 'NONE',  ( 0.0000000000000000000, 0.0000000000000000000, 1.968503999999999809 ) ) ;
#207 =( GEOMETRIC_REPRESENTATION_CONTEXT ( 3 ) GLOBAL_UNCERTAINTY_ASSIGNED_CONTEXT ( ( #1 ) ) GLOBAL_UNIT_ASSIGNED_CONTEXT ( ( #162, #262, #81 ) ) REPRESENTATION_CONTEXT ( 'NONE', 'WORKASPACE' ) );
#208 = DIRECTION ( 'NONE',  ( -1.000000000000000000, 0.0000000000000000000, 1.240331006313955416E-16 ) ) ;
#209 =( LENGTH_UNIT ( ) NAMED_UNIT ( * ) SI_UNIT ( $, .METRE. ) );
#210 = DIRECTION ( 'NONE',  ( -1.000000000000000000, 1.224646799147353454E-16, 0.0000000000000000000 ) ) ;
#211 = ORIENTED_EDGE ( 'NONE', *, *, #231, .T. ) ;
#212 = DIRECTION ( 'NONE',  ( 0.1736481776669313581, 0.0000000000000000000, 0.9848077530122077983 ) ) ;
#213 = ORIENTED_EDGE ( 'NONE', *, *, #46, .T. ) ;
#214 = CIRCLE ( 'NONE', #60, 0.07874000000000000443 ) ;
#215 = DIRECTION ( 'NONE',  ( -1.000000000000000000, 0.0000000000000000000, 1.224646799147353454E-16 ) ) ;
#216 =( NAMED_UNIT ( * ) PLANE_ANGLE_UNIT ( ) SI_UNIT ( $, .RADIAN. ) );
#217 = DIRECTION ( 'NONE',  ( 0.0000000000000000000, 1.000000000000000000, 0.0000000000000000000 ) ) ;
#218 = DIRECTION ( 'NONE',  ( 1.000000000000000000, 0.0000000000000000000, 0.0000000000000000000 ) ) ;
#219 = CIRCLE ( 'NONE', #259, 0.06882860250000000235 ) ;
#220 = FACE_OUTER_BOUND ( 'NONE', #80, .T. ) ;
#221 = FACE_OUTER_BOUND ( 'NONE', #257, .T. ) ;
#222 = AXIS2_PLACEMENT_3D ( 'NONE', #206, #201, #70 ) ;
#223 = ADVANCED_FACE ( 'NONE', ( #169 ), #63, .T. ) ;
#224 = CONICAL_SURFACE ( 'NONE', #9, 0.06374000000000018540, 0.7853981633974522758 ) ;
#225 = DIRECTION ( 'NONE',  ( 1.000000000000000000, 0.0000000000000000000, 0.0000000000000000000 ) ) ;
#226 = PRESENTATION_STYLE_ASSIGNMENT (( #130 ) ) ;
#227 = ORIENTED_EDGE ( 'NONE', *, *, #146, .F. ) ;
#228 = APPLICATION_PROTOCOL_DEFINITION ( 'draft international standard', 'automotive_design', 1998, #255 ) ;
#229 = DIRECTION ( 'NONE',  ( -0.7071067811865502373, 0.0000000000000000000, -0.7071067811865446862 ) ) ;
#230 = ORIENTED_EDGE ( 'NONE', *, *, #231, .F. ) ;
#231 = EDGE_CURVE ( 'NONE', #30, #281, #155, .T. ) ;
#232 = VERTEX_POINT ( 'NONE', #320 ) ;
#233 = VECTOR ( 'NONE', #267, 39.37007874015747433 ) ;
#234 = FACE_OUTER_BOUND ( 'NONE', #52, .T. ) ;
#235 = CONICAL_SURFACE ( 'NONE', #67, 0.06882860250000000235, 0.1745329251994338637 ) ;
#236 = ADVANCED_FACE ( 'NONE', ( #221 ), #301, .T. ) ;
#237 = DIRECTION ( 'NONE',  ( -1.000000000000000000, 0.0000000000000000000, 0.0000000000000000000 ) ) ;
#238 = CARTESIAN_POINT ( 'NONE',  ( -0.06374000000000018540, 0.0000000000000000000, 1.968503999999999809 ) ) ;
#239 = EDGE_CURVE ( 'NONE', #33, #253, #26, .T. ) ;
#240 = CIRCLE ( 'NONE', #95, 0.06374000000000018540 ) ;
#241 = CLOSED_SHELL ( 'NONE', ( #82, #164, #123, #176, #92, #126, #308, #61, #254, #236, #223 ) ) ;
#242 = CARTESIAN_POINT ( 'NONE',  ( 0.0000000000000000000, 0.0000000000000000000, 1.968503999999999809 ) ) ;
#243 =( GEOMETRIC_REPRESENTATION_CONTEXT ( 3 ) GLOBAL_UNCERTAINTY_ASSIGNED_CONTEXT ( ( #323 ) ) GLOBAL_UNIT_ASSIGNED_CONTEXT ( ( #150, #216, #18 ) ) REPRESENTATION_CONTEXT ( 'NONE', 'WORKASPACE' ) );
#244 = EDGE_LOOP ( 'NONE', ( #37, #144 ) ) ;
#245 = DIRECTION ( 'NONE',  ( -1.000000000000000000, 0.0000000000000000000, 0.0000000000000000000 ) ) ;
#246 = DIRECTION ( 'NONE',  ( -1.224646799147353207E-16, -0.0000000000000000000, -1.000000000000000000 ) ) ;
#247 = CARTESIAN_POINT ( 'NONE',  ( 0.07874000000000004607, 9.642868896486264672E-18, 0.4695963284487540967 ) ) ;
#248 = MECHANICAL_DESIGN_GEOMETRIC_PRESENTATION_REPRESENTATION (  '', ( #97 ), #270 ) ;
#249 = DIRECTION ( 'NONE',  ( -1.224646799147353207E-16, -0.0000000000000000000, -1.000000000000000000 ) ) ;
#250 = EDGE_CURVE ( 'NONE', #182, #253, #168, .T. ) ;
#251 = AXIS2_PLACEMENT_3D ( 'NONE', #38, #288, #215 ) ;
#252 = SURFACE_STYLE_FILL_AREA ( #152 ) ;
#253 = VERTEX_POINT ( 'NONE', #299 ) ;
#254 = ADVANCED_FACE ( 'NONE', ( #220 ), #17, .T. ) ;
#255 = APPLICATION_CONTEXT ( 'automotive_design' ) ;
#256 = LINE ( 'NONE', #28, #127 ) ;
#257 = EDGE_LOOP ( 'NONE', ( #99, #6, #312, #317 ) ) ;
#258 = CIRCLE ( 'NONE', #316, 0.06882860250000000235 ) ;
#259 = AXIS2_PLACEMENT_3D ( 'NONE', #12, #113, #208 ) ;
#260 = CARTESIAN_POINT ( 'NONE',  ( 0.06374000000000018540, 7.805898697765251255E-18, 1.968503999999999809 ) ) ;
#261 = ORIENTED_EDGE ( 'NONE', *, *, #263, .T. ) ;
#262 =( NAMED_UNIT ( * ) PLANE_ANGLE_UNIT ( ) SI_UNIT ( $, .RADIAN. ) );
#263 = EDGE_CURVE ( 'NONE', #179, #281, #121, .T. ) ;
#264 = DIRECTION ( 'NONE',  ( -0.0000000000000000000, -0.0000000000000000000, -1.000000000000000000 ) ) ;
#265 = AXIS2_PLACEMENT_3D ( 'NONE', #98, #171, #274 ) ;
#266 = CARTESIAN_POINT ( 'NONE',  ( -0.07874000000000000443, 0.0000000000000000000, 1.953504000000000129 ) ) ;
#267 = DIRECTION ( 'NONE',  ( -0.1736481776669311639, 2.126576849575783008E-17, 0.9848077530122080203 ) ) ;
#268 = VECTOR ( 'NONE', #212, 39.37007874015748143 ) ;
#269 = CARTESIAN_POINT ( 'NONE',  ( -0.06882860250000000235, 0.0000000000000000000, 0.06882860250000001623 ) ) ;
#270 =( GEOMETRIC_REPRESENTATION_CONTEXT ( 3 ) GLOBAL_UNCERTAINTY_ASSIGNED_CONTEXT ( ( #153 ) ) GLOBAL_UNIT_ASSIGNED_CONTEXT ( ( #50, #74, #86 ) ) REPRESENTATION_CONTEXT ( 'NONE', 'WORKASPACE' ) );
#271 = DIRECTION ( 'NONE',  ( 1.000000000000000000, 0.0000000000000000000, 0.0000000000000000000 ) ) ;
#272 = DIRECTION ( 'NONE',  ( 1.000000000000000000, 0.0000000000000000000, 0.0000000000000000000 ) ) ;
#273 = EDGE_CURVE ( 'NONE', #157, #232, #145, .T. ) ;
#274 = DIRECTION ( 'NONE',  ( 0.0000000000000000000, 0.0000000000000000000, -1.000000000000000000 ) ) ;
#275 = PLANE ( 'NONE',  #3 ) ;
#276 = DIMENSIONAL_EXPONENTS ( 1.000000000000000000, 0.0000000000000000000, 0.0000000000000000000, 0.0000000000000000000, 0.0000000000000000000, 0.0000000000000000000, 0.0000000000000000000 ) ;
#277 = CARTESIAN_POINT ( 'NONE',  ( 5.750896405261157761E-17, 0.0000000000000000000, 0.4695963284487540967 ) ) ;
#278 = SURFACE_SIDE_STYLE ('',( #108 ) ) ;
#279 = CARTESIAN_POINT ( 'NONE',  ( 0.0000000000000000000, 0.0000000000000000000, 1.953504000000000129 ) ) ;
#280 = PRESENTATION_LAYER_ASSIGNMENT (  '', '', ( #97 ) ) ;
#281 = VERTEX_POINT ( 'NONE', #247 ) ;
#282 = SURFACE_STYLE_USAGE ( .BOTH. , #278 ) ;
#283 = EDGE_CURVE ( 'NONE', #49, #182, #161, .T. ) ;
#284 = ORIENTED_EDGE ( 'NONE', *, *, #190, .T. ) ;
#285 = CARTESIAN_POINT ( 'NONE',  ( 1.264360916121157888E-17, 0.0000000000000000000, 0.0000000000000000000 ) ) ;
#286 = AXIS2_PLACEMENT_3D ( 'NONE', #305, #76, #225 ) ;
#287 = SPHERICAL_SURFACE ( 'NONE', #300, 0.06882860250000000235 ) ;
#288 = DIRECTION ( 'NONE',  ( -1.224646799147353207E-16, -0.0000000000000000000, -1.000000000000000000 ) ) ;
#289 = FACE_OUTER_BOUND ( 'NONE', #158, .T. ) ;
#290 = ORIENTED_EDGE ( 'NONE', *, *, #263, .F. ) ;
#291 = CYLINDRICAL_SURFACE ( 'NONE', #251, 0.06882860250000000235 ) ;
#292 = CARTESIAN_POINT ( 'NONE',  ( -0.06882860249999994684, 8.429072774141051046E-18, 0.4133859999999999757 ) ) ;
#293 = ORIENTED_EDGE ( 'NONE', *, *, #23, .F. ) ;
#294 = DIRECTION ( 'NONE',  ( 1.224646799147353207E-16, 0.0000000000000000000, 1.000000000000000000 ) ) ;
#295 = CIRCLE ( 'NONE', #90, 0.06882860250000000235 ) ;
#296 = DIRECTION ( 'NONE',  ( -1.000000000000000000, 0.0000000000000000000, 1.240331006313955416E-16 ) ) ;
#297 = AXIS2_PLACEMENT_3D ( 'NONE', #21, #122, #245 ) ;
#298 = DIRECTION ( 'NONE',  ( -0.0000000000000000000, -0.0000000000000000000, -1.000000000000000000 ) ) ;
#299 = CARTESIAN_POINT ( 'NONE',  ( 0.06882860250000001623, 8.429072774141052587E-18, 0.06882860250000000235 ) ) ;
#300 = AXIS2_PLACEMENT_3D ( 'NONE', #137, #163, #116 ) ;
#301 = CYLINDRICAL_SURFACE ( 'NONE', #69, 0.06882860250000000235 ) ;
#302 = EDGE_CURVE ( 'NONE', #136, #30, #100, .T. ) ;
#303 = FILL_AREA_STYLE_COLOUR ( '', #29 ) ;
#304 = ORIENTED_EDGE ( 'NONE', *, *, #302, .F. ) ;
#305 = CARTESIAN_POINT ( 'NONE',  ( 0.0000000000000000000, 0.0000000000000000000, 0.0000000000000000000 ) ) ;
#306 = ORIENTED_EDGE ( 'NONE', *, *, #198, .F. ) ;
#307 = VERTEX_POINT ( 'NONE', #269 ) ;
#308 = ADVANCED_FACE ( 'NONE', ( #125 ), #275, .T. ) ;
#309 = ORIENTED_EDGE ( 'NONE', *, *, #283, .T. ) ;
#310 = CARTESIAN_POINT ( 'NONE',  ( 8.429072774141052587E-18, 0.0000000000000000000, 0.06882860250000000235 ) ) ;
#311 = DIRECTION ( 'NONE',  ( 0.0000000000000000000, 0.0000000000000000000, 1.000000000000000000 ) ) ;
#312 = ORIENTED_EDGE ( 'NONE', *, *, #198, .T. ) ;
#313 = CARTESIAN_POINT ( 'NONE',  ( 0.0000000000000000000, 0.0000000000000000000, 1.968503999999999809 ) ) ;
#314 = VECTOR ( 'NONE', #106, 39.37007874015748854 ) ;
#315 = DIRECTION ( 'NONE',  ( 1.000000000000000000, 0.0000000000000000000, 0.0000000000000000000 ) ) ;
#316 = AXIS2_PLACEMENT_3D ( 'NONE', #93, #319, #210 ) ;
#317 = ORIENTED_EDGE ( 'NONE', *, *, #146, .T. ) ;
#318 = EDGE_LOOP ( 'NONE', ( #184, #31, #211, #40 ) ) ;
#319 = DIRECTION ( 'NONE',  ( 1.224646799147353207E-16, 1.000000000000000000, -0.0000000000000000000 ) ) ;
#320 = CARTESIAN_POINT ( 'NONE',  ( 0.06374000000000018540, 8.724383797125754882E-18, 1.968503999999999809 ) ) ;
#321 = DIRECTION ( 'NONE',  ( -1.000000000000000000, 0.0000000000000000000, 1.224646799147353454E-16 ) ) ;
#322 = PRODUCT_DEFINITION ( 'UNKNOWN', '', #45, #128 ) ;
#323 = UNCERTAINTY_MEASURE_WITH_UNIT (LENGTH_MEASURE( 1.000000000000000082E-05 ), #150, 'distance_accuracy_value', 'NONE');
#324 = CARTESIAN_POINT ( 'NONE',  ( 0.06882860250000000235, 8.429072774141052587E-18, -8.429072774141052587E-18 ) ) ;
#325 = DIRECTION ( 'NONE',  ( 1.224646799147353207E-16, 0.0000000000000000000, 1.000000000000000000 ) ) ;
ENDSEC;
END-ISO-10303-21;
