ISO-10303-21;
HEADER;
FILE_DESCRIPTION (( 'STEP AP214' ),
    '1' );
FILE_NAME ('Micro_BEM-125-03X.STEP',
    '2021-09-03T13:02:09',
    ( '' ),
    ( '' ),
    'SwSTEP 2.0',
    'SolidWorks 2020',
    '' );
FILE_SCHEMA (( 'AUTOMOTIVE_DESIGN' ));
ENDSEC;

DATA;
#1 = DIRECTION ( 'NONE',  ( 0.0000000000000000000, 0.0000000000000000000, -1.000000000000000000 ) ) ;
#2 = DIRECTION ( 'NONE',  ( 1.224646799147353700E-16, 0.0000000000000000000, 1.000000000000000000 ) ) ;
#3 = DIRECTION ( 'NONE',  ( -0.0000000000000000000, -0.0000000000000000000, -1.000000000000000000 ) ) ;
#4 = UNCERTAINTY_MEASURE_WITH_UNIT (LENGTH_MEASURE( 1.000000000000000082E-05 ), #186, 'distance_accuracy_value', 'NONE');
#5 = EDGE_CURVE ( 'NONE', #200, #143, #181, .T. ) ;
#6 = CARTESIAN_POINT ( 'NONE',  ( 0.04750000000000064587, 5.817072295950006528E-18, 1.500000000000000222 ) ) ;
#7 = LINE ( 'NONE', #239, #260 ) ;
#8 = AXIS2_PLACEMENT_3D ( 'NONE', #140, #1, #241 ) ;
#9 = PRODUCT_DEFINITION_FORMATION_WITH_SPECIFIED_SOURCE ( 'ANY', '', #194, .NOT_KNOWN. ) ;
#10 = DIRECTION ( 'NONE',  ( 1.000000000000000000, 0.0000000000000000000, 0.0000000000000000000 ) ) ;
#11 = DIRECTION ( 'NONE',  ( -1.000000000000000000, 0.0000000000000000000, 0.0000000000000000000 ) ) ;
#12 = DIRECTION ( 'NONE',  ( 1.224646799147353700E-16, 0.0000000000000000000, 1.000000000000000000 ) ) ;
#13 = ADVANCED_FACE ( 'NONE', ( #114 ), #314, .T. ) ;
#14 = VECTOR ( 'NONE', #118, 39.37007874015748143 ) ;
#15 =( GEOMETRIC_REPRESENTATION_CONTEXT ( 3 ) GLOBAL_UNCERTAINTY_ASSIGNED_CONTEXT ( ( #208 ) ) GLOBAL_UNIT_ASSIGNED_CONTEXT ( ( #261, #36, #81 ) ) REPRESENTATION_CONTEXT ( 'NONE', 'WORKASPACE' ) );
#16 = EDGE_CURVE ( 'NONE', #71, #20, #190, .T. ) ;
#17 = LINE ( 'NONE', #142, #14 ) ;
#18 = CIRCLE ( 'NONE', #216, 0.06243749999999999994 ) ;
#19 = ORIENTED_EDGE ( 'NONE', *, *, #120, .F. ) ;
#20 = VERTEX_POINT ( 'NONE', #167 ) ;
#21 = EDGE_CURVE ( 'NONE', #225, #226, #17, .T. ) ;
#22 = DIRECTION ( 'NONE',  ( 0.0000000000000000000, 0.0000000000000000000, 1.000000000000000000 ) ) ;
#23 = ORIENTED_EDGE ( 'NONE', *, *, #74, .F. ) ;
#24 = DIRECTION ( 'NONE',  ( 0.0000000000000000000, 0.0000000000000000000, -1.000000000000000000 ) ) ;
#25 = ORIENTED_EDGE ( 'NONE', *, *, #251, .F. ) ;
#26 = DIMENSIONAL_EXPONENTS ( 1.000000000000000000, 0.0000000000000000000, 0.0000000000000000000, 0.0000000000000000000, 0.0000000000000000000, 0.0000000000000000000, 0.0000000000000000000 ) ;
#27 = FACE_OUTER_BOUND ( 'NONE', #231, .T. ) ;
#28 = DIRECTION ( 'NONE',  ( 1.000000000000000000, 0.0000000000000000000, 0.0000000000000000000 ) ) ;
#29 =( LENGTH_UNIT ( ) NAMED_UNIT ( * ) SI_UNIT ( $, .METRE. ) );
#30 = CARTESIAN_POINT ( 'NONE',  ( 0.06250000000000002776, 7.654042494670959086E-18, 1.500000000000000222 ) ) ;
#31 = CIRCLE ( 'NONE', #8, 0.06250000000000002776 ) ;
#32 = FACE_OUTER_BOUND ( 'NONE', #148, .T. ) ;
#33 = DIRECTION ( 'NONE',  ( -0.1736481776669310251, 2.126576849575781468E-17, 0.9848077530122080203 ) ) ;
#34 = LENGTH_MEASURE_WITH_UNIT ( LENGTH_MEASURE( 0.02539999999999999897 ), #29 );
#35 = LINE ( 'NONE', #61, #131 ) ;
#36 =( NAMED_UNIT ( * ) PLANE_ANGLE_UNIT ( ) SI_UNIT ( $, .RADIAN. ) );
#37 = DIRECTION ( 'NONE',  ( -0.0000000000000000000, -0.0000000000000000000, -1.000000000000000000 ) ) ;
#38 = CARTESIAN_POINT ( 'NONE',  ( 0.0000000000000000000, 0.0000000000000000000, 1.500000000000000222 ) ) ;
#39 = CARTESIAN_POINT ( 'NONE',  ( 1.146958267826443414E-17, 0.0000000000000000000, 0.0000000000000000000 ) ) ;
#40 = EDGE_CURVE ( 'NONE', #64, #143, #217, .T. ) ;
#41 = ORIENTED_EDGE ( 'NONE', *, *, #192, .T. ) ;
#42 = ORIENTED_EDGE ( 'NONE', *, *, #206, .F. ) ;
#43 = CARTESIAN_POINT ( 'NONE',  ( 7.646388452176290456E-18, 0.0000000000000000000, 0.06243749999999999994 ) ) ;
#44 = EDGE_LOOP ( 'NONE', ( #203, #273, #169, #274 ) ) ;
#45 = PRODUCT_DEFINITION ( 'UNKNOWN', '', #9, #158 ) ;
#46 = ORIENTED_EDGE ( 'NONE', *, *, #95, .T. ) ;
#47 = ORIENTED_EDGE ( 'NONE', *, *, #275, .T. ) ;
#48 = AXIS2_PLACEMENT_3D ( 'NONE', #156, #162, #136 ) ;
#49 = AXIS2_PLACEMENT_3D ( 'NONE', #160, #207, #135 ) ;
#50 = ADVANCED_FACE ( 'NONE', ( #91 ), #198, .T. ) ;
#51 = DIRECTION ( 'NONE',  ( -1.000000000000000000, 0.0000000000000000000, 1.224646799147353947E-16 ) ) ;
#52 = CARTESIAN_POINT ( 'NONE',  ( -0.06250000000000002776, 0.0000000000000000000, 1.485000000000000764 ) ) ;
#53 = SURFACE_SIDE_STYLE ('',( #57 ) ) ;
#54 = CARTESIAN_POINT ( 'NONE',  ( 0.06250000000000002776, 7.654042494670959086E-18, 1.485000000000000764 ) ) ;
#55 = CIRCLE ( 'NONE', #88, 0.06243749999999999994 ) ;
#56 = LENGTH_MEASURE_WITH_UNIT ( LENGTH_MEASURE( 0.02539999999999999897 ), #283 );
#57 = SURFACE_STYLE_FILL_AREA ( #306 ) ;
#58 =( NAMED_UNIT ( * ) PLANE_ANGLE_UNIT ( ) SI_UNIT ( $, .RADIAN. ) );
#59 = DIRECTION ( 'NONE',  ( -0.7071067811865462405, 0.0000000000000000000, -0.7071067811865486830 ) ) ;
#60 = ADVANCED_FACE ( 'NONE', ( #153 ), #290, .T. ) ;
#61 = CARTESIAN_POINT ( 'NONE',  ( -0.04750000000000064587, 0.0000000000000000000, 1.500000000000000222 ) ) ;
#62 = EDGE_CURVE ( 'NONE', #20, #226, #55, .T. ) ;
#63 = MECHANICAL_DESIGN_GEOMETRIC_PRESENTATION_REPRESENTATION (  '', ( #236 ), #77 ) ;
#64 = VERTEX_POINT ( 'NONE', #159 ) ;
#65 = ORIENTED_EDGE ( 'NONE', *, *, #201, .F. ) ;
#66 = ORIENTED_EDGE ( 'NONE', *, *, #109, .F. ) ;
#67 = AXIS2_PLACEMENT_3D ( 'NONE', #243, #12, #10 ) ;
#68 = EDGE_CURVE ( 'NONE', #249, #320, #35, .T. ) ;
#69 = CONICAL_SURFACE ( 'NONE', #269, 0.06243749999999999994, 0.1745329251994337527 ) ;
#70 = CARTESIAN_POINT ( 'NONE',  ( 0.04750000000000064587, 6.735557395310483192E-18, 1.500000000000000222 ) ) ;
#71 = VERTEX_POINT ( 'NONE', #39 ) ;
#72 = EDGE_LOOP ( 'NONE', ( #228, #316, #270, #202 ) ) ;
#73 = DIMENSIONAL_EXPONENTS ( 1.000000000000000000, 0.0000000000000000000, 0.0000000000000000000, 0.0000000000000000000, 0.0000000000000000000, 0.0000000000000000000, 0.0000000000000000000 ) ;
#74 = EDGE_CURVE ( 'NONE', #320, #294, #31, .T. ) ;
#75 = CONICAL_SURFACE ( 'NONE', #67, 0.06243749999999999994, 0.1745329251994337527 ) ;
#76 = ADVANCED_BREP_SHAPE_REPRESENTATION ( 'Micro_BEM-125-03X', ( #176, #301 ), #15 ) ;
#77 =( GEOMETRIC_REPRESENTATION_CONTEXT ( 3 ) GLOBAL_UNCERTAINTY_ASSIGNED_CONTEXT ( ( #4 ) ) GLOBAL_UNIT_ASSIGNED_CONTEXT ( ( #186, #58, #263 ) ) REPRESENTATION_CONTEXT ( 'NONE', 'WORKASPACE' ) );
#78 = DIRECTION ( 'NONE',  ( 0.0000000000000000000, 0.0000000000000000000, -1.000000000000000000 ) ) ;
#79 = CARTESIAN_POINT ( 'NONE',  ( 6.123233995736768501E-17, 0.0000000000000000000, 0.5000000000000000000 ) ) ;
#80 = SURFACE_STYLE_FILL_AREA ( #209 ) ;
#81 =( NAMED_UNIT ( * ) SI_UNIT ( $, .STERADIAN. ) SOLID_ANGLE_UNIT ( ) );
#82 = CIRCLE ( 'NONE', #113, 0.04750000000000064587 ) ;
#83 = SURFACE_STYLE_USAGE ( .BOTH. , #193 ) ;
#84 = LENGTH_MEASURE_WITH_UNIT ( LENGTH_MEASURE( 0.02539999999999999897 ), #139 );
#85 = DIRECTION ( 'NONE',  ( 0.0000000000000000000, 0.0000000000000000000, -1.000000000000000000 ) ) ;
#86 = ADVANCED_FACE ( 'NONE', ( #32 ), #75, .T. ) ;
#87 = LINE ( 'NONE', #163, #147 ) ;
#88 = AXIS2_PLACEMENT_3D ( 'NONE', #128, #2, #182 ) ;
#89 = AXIS2_PLACEMENT_3D ( 'NONE', #267, #262, #90 ) ;
#90 = DIRECTION ( 'NONE',  ( 1.000000000000000000, 0.0000000000000000000, -0.0000000000000000000 ) ) ;
#91 = FACE_OUTER_BOUND ( 'NONE', #44, .T. ) ;
#92 = DIRECTION ( 'NONE',  ( -0.0000000000000000000, -0.0000000000000000000, -1.000000000000000000 ) ) ;
#93 = ORIENTED_EDGE ( 'NONE', *, *, #5, .T. ) ;
#94 = ORIENTED_EDGE ( 'NONE', *, *, #296, .T. ) ;
#95 = EDGE_CURVE ( 'NONE', #225, #200, #304, .T. ) ;
#96 = APPLICATION_PROTOCOL_DEFINITION ( 'draft international standard', 'automotive_design', 1998, #123 ) ;
#97 = ORIENTED_EDGE ( 'NONE', *, *, #133, .F. ) ;
#98 = CARTESIAN_POINT ( 'NONE',  ( 0.0000000000000000000, 0.0000000000000000000, 1.500000000000000222 ) ) ;
#99 = ORIENTED_EDGE ( 'NONE', *, *, #68, .F. ) ;
#100 = DIRECTION ( 'NONE',  ( 1.000000000000000000, 0.0000000000000000000, 0.0000000000000000000 ) ) ;
#101 = EDGE_LOOP ( 'NONE', ( #42, #297, #23, #99 ) ) ;
#102 = DIRECTION ( 'NONE',  ( 0.0000000000000000000, 0.0000000000000000000, 1.000000000000000000 ) ) ;
#103 = AXIS2_PLACEMENT_3D ( 'NONE', #126, #234, #100 ) ;
#104 = CARTESIAN_POINT ( 'NONE',  ( 0.0000000000000000000, 0.0000000000000000000, 1.485000000000000764 ) ) ;
#105 = CYLINDRICAL_SURFACE ( 'NONE', #125, 0.06250000000000002776 ) ;
#106 = DIRECTION ( 'NONE',  ( 0.7071067811865462405, 8.659560562354916834E-17, -0.7071067811865486830 ) ) ;
#107 = DIRECTION ( 'NONE',  ( -0.0000000000000000000, -0.0000000000000000000, -1.000000000000000000 ) ) ;
#108 = DIRECTION ( 'NONE',  ( -1.000000000000000000, 1.224646799147353454E-16, 0.0000000000000000000 ) ) ;
#109 = EDGE_CURVE ( 'NONE', #225, #64, #183, .T. ) ;
#110 =( CONVERSION_BASED_UNIT ( 'INCH', #84 ) LENGTH_UNIT ( ) NAMED_UNIT ( #298 ) );
#111 = DIRECTION ( 'NONE',  ( 1.000000000000000000, 0.0000000000000000000, 0.0000000000000000000 ) ) ;
#112 = PRESENTATION_STYLE_ASSIGNMENT (( #83 ) ) ;
#113 = AXIS2_PLACEMENT_3D ( 'NONE', #98, #102, #205 ) ;
#114 = FACE_OUTER_BOUND ( 'NONE', #271, .T. ) ;
#115 = DIRECTION ( 'NONE',  ( 0.0000000000000000000, 0.0000000000000000000, -1.000000000000000000 ) ) ;
#116 = ORIENTED_EDGE ( 'NONE', *, *, #95, .F. ) ;
#117 = VECTOR ( 'NONE', #312, 39.37007874015748143 ) ;
#118 = DIRECTION ( 'NONE',  ( -1.224646799147353700E-16, -0.0000000000000000000, -1.000000000000000000 ) ) ;
#119 = ORIENTED_EDGE ( 'NONE', *, *, #5, .F. ) ;
#120 = EDGE_CURVE ( 'NONE', #71, #226, #173, .T. ) ;
#121 = DIRECTION ( 'NONE',  ( 1.000000000000000000, 0.0000000000000000000, 0.0000000000000000000 ) ) ;
#122 = PRODUCT_CONTEXT ( 'NONE', #240, 'mechanical' ) ;
#123 = APPLICATION_CONTEXT ( 'automotive_design' ) ;
#124 = CARTESIAN_POINT ( 'NONE',  ( 0.0000000000000000000, 0.0000000000000000000, 1.500000000000000222 ) ) ;
#125 = AXIS2_PLACEMENT_3D ( 'NONE', #303, #37, #11 ) ;
#126 = CARTESIAN_POINT ( 'NONE',  ( 7.646388452176290456E-18, 0.0000000000000000000, 0.06243749999999999994 ) ) ;
#127 = ORIENTED_EDGE ( 'NONE', *, *, #40, .F. ) ;
#128 = CARTESIAN_POINT ( 'NONE',  ( 7.646388452176290456E-18, 0.0000000000000000000, 0.06243749999999999994 ) ) ;
#129 =( NAMED_UNIT ( * ) PLANE_ANGLE_UNIT ( ) SI_UNIT ( $, .RADIAN. ) );
#130 = DIRECTION ( 'NONE',  ( -1.000000000000000000, 0.0000000000000000000, 0.0000000000000000000 ) ) ;
#131 = VECTOR ( 'NONE', #59, 39.37007874015748854 ) ;
#132 = FACE_OUTER_BOUND ( 'NONE', #291, .T. ) ;
#133 = EDGE_CURVE ( 'NONE', #218, #294, #264, .T. ) ;
#134 = DIRECTION ( 'NONE',  ( 1.224646799147353207E-16, 1.000000000000000000, -0.0000000000000000000 ) ) ;
#135 = DIRECTION ( 'NONE',  ( -1.000000000000000000, 0.0000000000000000000, 1.367291288120251888E-16 ) ) ;
#136 = DIRECTION ( 'NONE',  ( -1.000000000000000000, 0.0000000000000000000, 0.0000000000000000000 ) ) ;
#137 = DIRECTION ( 'NONE',  ( -1.224646799147353700E-16, -0.0000000000000000000, -1.000000000000000000 ) ) ;
#138 = CARTESIAN_POINT ( 'NONE',  ( -0.06243749999999994443, 7.646388452176287375E-18, 0.5000000000000000000 ) ) ;
#139 =( LENGTH_UNIT ( ) NAMED_UNIT ( * ) SI_UNIT ( $, .METRE. ) );
#140 = CARTESIAN_POINT ( 'NONE',  ( 0.0000000000000000000, 0.0000000000000000000, 1.485000000000000764 ) ) ;
#141 = MECHANICAL_DESIGN_GEOMETRIC_PRESENTATION_REPRESENTATION (  '', ( #282 ), #268 ) ;
#142 = CARTESIAN_POINT ( 'NONE',  ( -0.06243749999999999994, 0.0000000000000000000, 7.646388452176290456E-18 ) ) ;
#143 = VERTEX_POINT ( 'NONE', #238 ) ;
#144 = ADVANCED_FACE ( 'NONE', ( #212 ), #310, .T. ) ;
#145 = ORIENTED_EDGE ( 'NONE', *, *, #206, .T. ) ;
#146 = AXIS2_PLACEMENT_3D ( 'NONE', #293, #277, #51 ) ;
#147 = VECTOR ( 'NONE', #189, 39.37007874015748143 ) ;
#148 = EDGE_LOOP ( 'NONE', ( #66, #46, #93, #127 ) ) ;
#149 = ORIENTED_EDGE ( 'NONE', *, *, #120, .T. ) ;
#150 = AXIS2_PLACEMENT_3D ( 'NONE', #235, #85, #266 ) ;
#151 = CIRCLE ( 'NONE', #287, 0.04750000000000064587 ) ;
#152 = FACE_OUTER_BOUND ( 'NONE', #172, .T. ) ;
#153 = FACE_OUTER_BOUND ( 'NONE', #101, .T. ) ;
#154 = EDGE_CURVE ( 'NONE', #143, #200, #324, .T. ) ;
#155 = SURFACE_STYLE_USAGE ( .BOTH. , #53 ) ;
#156 = CARTESIAN_POINT ( 'NONE',  ( 6.123233995736768501E-17, 0.0000000000000000000, 0.5000000000000000000 ) ) ;
#157 = AXIS2_PLACEMENT_3D ( 'NONE', #195, #92, #165 ) ;
#158 = PRODUCT_DEFINITION_CONTEXT ( 'detailed design', #123, 'design' ) ;
#159 = CARTESIAN_POINT ( 'NONE',  ( 0.06243750000000006239, 0.0000000000000000000, 0.5000000000000000000 ) ) ;
#160 = CARTESIAN_POINT ( 'NONE',  ( 7.646388452176290456E-18, 0.0000000000000000000, 0.06243749999999999994 ) ) ;
#161 = DIRECTION ( 'NONE',  ( 0.0000000000000000000, 0.0000000000000000000, 1.000000000000000000 ) ) ;
#162 = DIRECTION ( 'NONE',  ( -1.224646799147353700E-16, -0.0000000000000000000, -1.000000000000000000 ) ) ;
#163 = CARTESIAN_POINT ( 'NONE',  ( 0.06243749999999999994, 7.646388452176287375E-18, -7.646388452176290456E-18 ) ) ;
#164 = CIRCLE ( 'NONE', #315, 0.06250000000000002776 ) ;
#165 = DIRECTION ( 'NONE',  ( -1.000000000000000000, 0.0000000000000000000, 0.0000000000000000000 ) ) ;
#166 = ORIENTED_EDGE ( 'NONE', *, *, #62, .F. ) ;
#167 = CARTESIAN_POINT ( 'NONE',  ( 0.06243750000000001382, 7.646388452176287375E-18, 0.06243749999999999301 ) ) ;
#168 = ORIENTED_EDGE ( 'NONE', *, *, #317, .F. ) ;
#169 = ORIENTED_EDGE ( 'NONE', *, *, #21, .T. ) ;
#170 = AXIS2_PLACEMENT_3D ( 'NONE', #174, #288, #121 ) ;
#171 = CONICAL_SURFACE ( 'NONE', #265, 0.04750000000000064587, 0.7853981633974466137 ) ;
#172 = EDGE_LOOP ( 'NONE', ( #97, #254, #220, #233 ) ) ;
#173 = CIRCLE ( 'NONE', #222, 0.06243749999999999994 ) ;
#174 = CARTESIAN_POINT ( 'NONE',  ( 6.127574818941430966E-17, 0.0000000000000000000, 0.5003544551137262264 ) ) ;
#175 = COLOUR_RGB ( '',0.7921568627450980005, 0.8196078431372548767, 0.9333333333333333481 ) ;
#176 = MANIFOLD_SOLID_BREP ( 'Fillet1', #245 ) ;
#177 = EDGE_CURVE ( 'NONE', #64, #20, #87, .T. ) ;
#178 = FILL_AREA_STYLE_COLOUR ( '', #175 ) ;
#179 = CARTESIAN_POINT ( 'NONE',  ( 6.123233995736768501E-17, 0.0000000000000000000, 0.5000000000000000000 ) ) ;
#180 = DIRECTION ( 'NONE',  ( 1.224646799147353700E-16, 0.0000000000000000000, 1.000000000000000000 ) ) ;
#181 = CIRCLE ( 'NONE', #170, 0.06250000000000002776 ) ;
#182 = DIRECTION ( 'NONE',  ( -1.000000000000000000, 0.0000000000000000000, 1.367291288120251888E-16 ) ) ;
#183 = CIRCLE ( 'NONE', #48, 0.06243749999999999994 ) ;
#184 = ADVANCED_FACE ( 'NONE', ( #286 ), #105, .T. ) ;
#185 = DIRECTION ( 'NONE',  ( 1.000000000000000000, 0.0000000000000000000, 0.0000000000000000000 ) ) ;
#186 =( CONVERSION_BASED_UNIT ( 'INCH', #56 ) LENGTH_UNIT ( ) NAMED_UNIT ( #73 ) );
#187 = DIRECTION ( 'NONE',  ( -1.000000000000000000, 0.0000000000000000000, 1.224646799147353947E-16 ) ) ;
#188 = APPLICATION_PROTOCOL_DEFINITION ( 'draft international standard', 'automotive_design', 1998, #240 ) ;
#189 = DIRECTION ( 'NONE',  ( -1.224646799147353700E-16, -0.0000000000000000000, -1.000000000000000000 ) ) ;
#190 = CIRCLE ( 'NONE', #255, 0.06243749999999999994 ) ;
#191 = AXIS2_PLACEMENT_3D ( 'NONE', #237, #137, #187 ) ;
#192 = EDGE_CURVE ( 'NONE', #249, #218, #151, .T. ) ;
#193 = SURFACE_SIDE_STYLE ('',( #80 ) ) ;
#194 = PRODUCT ( 'Micro_BEM-125-03X', 'Micro_BEM-125-03X', '', ( #122 ) ) ;
#195 = CARTESIAN_POINT ( 'NONE',  ( 0.0000000000000000000, 0.0000000000000000000, 1.500000000000000222 ) ) ;
#196 = ORIENTED_EDGE ( 'NONE', *, *, #154, .T. ) ;
#197 = VECTOR ( 'NONE', #33, 39.37007874015748854 ) ;
#198 = CYLINDRICAL_SURFACE ( 'NONE', #146, 0.06243749999999999994 ) ;
#199 = EDGE_LOOP ( 'NONE', ( #41, #145 ) ) ;
#200 = VERTEX_POINT ( 'NONE', #214 ) ;
#201 = EDGE_CURVE ( 'NONE', #64, #225, #18, .T. ) ;
#202 = ORIENTED_EDGE ( 'NONE', *, *, #21, .F. ) ;
#203 = ORIENTED_EDGE ( 'NONE', *, *, #177, .F. ) ;
#204 = ORIENTED_EDGE ( 'NONE', *, *, #16, .F. ) ;
#205 = DIRECTION ( 'NONE',  ( 1.000000000000000000, 0.0000000000000000000, 0.0000000000000000000 ) ) ;
#206 = EDGE_CURVE ( 'NONE', #218, #249, #82, .T. ) ;
#207 = DIRECTION ( 'NONE',  ( 1.224646799147353700E-16, 0.0000000000000000000, 1.000000000000000000 ) ) ;
#208 = UNCERTAINTY_MEASURE_WITH_UNIT (LENGTH_MEASURE( 1.000000000000000082E-05 ), #261, 'distance_accuracy_value', 'NONE');
#209 = FILL_AREA_STYLE ('',( #210 ) ) ;
#210 = FILL_AREA_STYLE_COLOUR ( '', #223 ) ;
#211 = AXIS2_PLACEMENT_3D ( 'NONE', #232, #252, #28 ) ;
#212 = FACE_OUTER_BOUND ( 'NONE', #199, .T. ) ;
#213 = ADVANCED_FACE ( 'NONE', ( #152 ), #171, .T. ) ;
#214 = CARTESIAN_POINT ( 'NONE',  ( -0.06249999999999996531, 0.0000000000000000000, 0.5003544551137262264 ) ) ;
#215 = CARTESIAN_POINT ( 'NONE',  ( 6.127574818941430966E-17, 0.0000000000000000000, 0.5003544551137262264 ) ) ;
#216 = AXIS2_PLACEMENT_3D ( 'NONE', #179, #302, #130 ) ;
#217 = LINE ( 'NONE', #224, #117 ) ;
#218 = VERTEX_POINT ( 'NONE', #70 ) ;
#219 = ADVANCED_FACE ( 'NONE', ( #258 ), #299, .T. ) ;
#220 = ORIENTED_EDGE ( 'NONE', *, *, #68, .T. ) ;
#221 = ORIENTED_EDGE ( 'NONE', *, *, #40, .T. ) ;
#222 = AXIS2_PLACEMENT_3D ( 'NONE', #309, #134, #108 ) ;
#223 = COLOUR_RGB ( '',0.7921568627450980005, 0.8196078431372548767, 0.9333333333333333481 ) ;
#224 = CARTESIAN_POINT ( 'NONE',  ( 0.06243750000000006239, 0.0000000000000000000, 0.5000000000000000000 ) ) ;
#225 = VERTEX_POINT ( 'NONE', #322 ) ;
#226 = VERTEX_POINT ( 'NONE', #276 ) ;
#227 = SHAPE_DEFINITION_REPRESENTATION ( #279, #76 ) ;
#228 = ORIENTED_EDGE ( 'NONE', *, *, #109, .T. ) ;
#229 = DIRECTION ( 'NONE',  ( 1.000000000000000000, 0.0000000000000000000, 0.0000000000000000000 ) ) ;
#230 = SPHERICAL_SURFACE ( 'NONE', #103, 0.06243749999999999994 ) ;
#231 = EDGE_LOOP ( 'NONE', ( #19, #292, #25 ) ) ;
#232 = CARTESIAN_POINT ( 'NONE',  ( 7.646388452176290456E-18, 0.0000000000000000000, 0.06243749999999999994 ) ) ;
#233 = ORIENTED_EDGE ( 'NONE', *, *, #296, .F. ) ;
#234 = DIRECTION ( 'NONE',  ( 0.0000000000000000000, 1.000000000000000000, 0.0000000000000000000 ) ) ;
#235 = CARTESIAN_POINT ( 'NONE',  ( 0.0000000000000000000, 0.0000000000000000000, 1.500000000000000222 ) ) ;
#236 = STYLED_ITEM ( 'NONE', ( #112 ), #176 ) ;
#237 = CARTESIAN_POINT ( 'NONE',  ( 0.0000000000000000000, 0.0000000000000000000, 0.0000000000000000000 ) ) ;
#238 = CARTESIAN_POINT ( 'NONE',  ( 0.06250000000000008327, 7.654042494670966789E-18, 0.5003544551137262264 ) ) ;
#239 = CARTESIAN_POINT ( 'NONE',  ( -0.06250000000000002776, 0.0000000000000000000, 1.500000000000000222 ) ) ;
#240 = APPLICATION_CONTEXT ( 'automotive_design' ) ;
#241 = DIRECTION ( 'NONE',  ( 1.000000000000000000, 0.0000000000000000000, 0.0000000000000000000 ) ) ;
#242 = DIRECTION ( 'NONE',  ( 1.000000000000000000, 0.0000000000000000000, 0.0000000000000000000 ) ) ;
#243 = CARTESIAN_POINT ( 'NONE',  ( 6.123233995736768501E-17, 0.0000000000000000000, 0.5000000000000000000 ) ) ;
#244 = PRODUCT_RELATED_PRODUCT_CATEGORY ( 'part', '', ( #194 ) ) ;
#245 = CLOSED_SHELL ( 'NONE', ( #219, #285, #86, #60, #184, #13, #144, #213, #280, #50, #247 ) ) ;
#246 = VECTOR ( 'NONE', #3, 39.37007874015748143 ) ;
#247 = ADVANCED_FACE ( 'NONE', ( #27 ), #230, .T. ) ;
#248 = DIRECTION ( 'NONE',  ( 0.0000000000000000000, -1.000000000000000000, 0.0000000000000000000 ) ) ;
#249 = VERTEX_POINT ( 'NONE', #257 ) ;
#250 = ORIENTED_EDGE ( 'NONE', *, *, #154, .F. ) ;
#251 = EDGE_CURVE ( 'NONE', #226, #20, #305, .T. ) ;
#252 = DIRECTION ( 'NONE',  ( 0.0000000000000000000, 1.000000000000000000, 0.0000000000000000000 ) ) ;
#253 = ORIENTED_EDGE ( 'NONE', *, *, #317, .T. ) ;
#254 = ORIENTED_EDGE ( 'NONE', *, *, #192, .F. ) ;
#255 = AXIS2_PLACEMENT_3D ( 'NONE', #43, #248, #115 ) ;
#256 = PRESENTATION_LAYER_ASSIGNMENT (  '', '', ( #282 ) ) ;
#257 = CARTESIAN_POINT ( 'NONE',  ( -0.04750000000000064587, 0.0000000000000000000, 1.500000000000000222 ) ) ;
#258 = FACE_OUTER_BOUND ( 'NONE', #321, .T. ) ;
#259 = PRESENTATION_STYLE_ASSIGNMENT (( #155 ) ) ;
#260 = VECTOR ( 'NONE', #107, 39.37007874015748143 ) ;
#261 =( CONVERSION_BASED_UNIT ( 'INCH', #34 ) LENGTH_UNIT ( ) NAMED_UNIT ( #26 ) );
#262 = DIRECTION ( 'NONE',  ( 0.0000000000000000000, 0.0000000000000000000, 1.000000000000000000 ) ) ;
#263 =( NAMED_UNIT ( * ) SI_UNIT ( $, .STERADIAN. ) SOLID_ANGLE_UNIT ( ) );
#264 = LINE ( 'NONE', #6, #300 ) ;
#265 = AXIS2_PLACEMENT_3D ( 'NONE', #124, #24, #319 ) ;
#266 = DIRECTION ( 'NONE',  ( -1.000000000000000000, 0.0000000000000000000, 0.0000000000000000000 ) ) ;
#267 = CARTESIAN_POINT ( 'NONE',  ( 0.0000000000000000000, 0.0000000000000000000, 1.500000000000000222 ) ) ;
#268 =( GEOMETRIC_REPRESENTATION_CONTEXT ( 3 ) GLOBAL_UNCERTAINTY_ASSIGNED_CONTEXT ( ( #325 ) ) GLOBAL_UNIT_ASSIGNED_CONTEXT ( ( #110, #129, #308 ) ) REPRESENTATION_CONTEXT ( 'NONE', 'WORKASPACE' ) );
#269 = AXIS2_PLACEMENT_3D ( 'NONE', #79, #180, #242 ) ;
#270 = ORIENTED_EDGE ( 'NONE', *, *, #62, .T. ) ;
#271 = EDGE_LOOP ( 'NONE', ( #313, #94, #253, #250 ) ) ;
#272 = PRESENTATION_LAYER_ASSIGNMENT (  '', '', ( #236 ) ) ;
#273 = ORIENTED_EDGE ( 'NONE', *, *, #201, .T. ) ;
#274 = ORIENTED_EDGE ( 'NONE', *, *, #251, .T. ) ;
#275 = EDGE_CURVE ( 'NONE', #294, #143, #278, .T. ) ;
#276 = CARTESIAN_POINT ( 'NONE',  ( -0.06243749999999999301, 0.0000000000000000000, 0.06243750000000001382 ) ) ;
#277 = DIRECTION ( 'NONE',  ( -1.224646799147353700E-16, -0.0000000000000000000, -1.000000000000000000 ) ) ;
#278 = LINE ( 'NONE', #30, #246 ) ;
#279 = PRODUCT_DEFINITION_SHAPE ( 'NONE', 'NONE',  #45 ) ;
#280 = ADVANCED_FACE ( 'NONE', ( #132 ), #69, .T. ) ;
#281 = CYLINDRICAL_SURFACE ( 'NONE', #191, 0.06243749999999999994 ) ;
#282 = STYLED_ITEM ( 'NONE', ( #259 ), #76 ) ;
#283 =( LENGTH_UNIT ( ) NAMED_UNIT ( * ) SI_UNIT ( $, .METRE. ) );
#284 = DIRECTION ( 'NONE',  ( 1.000000000000000000, 0.0000000000000000000, 0.0000000000000000000 ) ) ;
#285 = ADVANCED_FACE ( 'NONE', ( #323 ), #281, .T. ) ;
#286 = FACE_OUTER_BOUND ( 'NONE', #318, .T. ) ;
#287 = AXIS2_PLACEMENT_3D ( 'NONE', #38, #161, #111 ) ;
#288 = DIRECTION ( 'NONE',  ( -1.224646799147353700E-16, -0.0000000000000000000, -1.000000000000000000 ) ) ;
#289 = ORIENTED_EDGE ( 'NONE', *, *, #74, .T. ) ;
#290 = CONICAL_SURFACE ( 'NONE', #150, 0.04750000000000064587, 0.7853981633974466137 ) ;
#291 = EDGE_LOOP ( 'NONE', ( #116, #65, #221, #196 ) ) ;
#292 = ORIENTED_EDGE ( 'NONE', *, *, #16, .T. ) ;
#293 = CARTESIAN_POINT ( 'NONE',  ( 0.0000000000000000000, 0.0000000000000000000, 0.0000000000000000000 ) ) ;
#294 = VERTEX_POINT ( 'NONE', #54 ) ;
#295 = AXIS2_PLACEMENT_3D ( 'NONE', #215, #307, #284 ) ;
#296 = EDGE_CURVE ( 'NONE', #294, #320, #164, .T. ) ;
#297 = ORIENTED_EDGE ( 'NONE', *, *, #133, .T. ) ;
#298 = DIMENSIONAL_EXPONENTS ( 1.000000000000000000, 0.0000000000000000000, 0.0000000000000000000, 0.0000000000000000000, 0.0000000000000000000, 0.0000000000000000000, 0.0000000000000000000 ) ;
#299 = SPHERICAL_SURFACE ( 'NONE', #211, 0.06243749999999999994 ) ;
#300 = VECTOR ( 'NONE', #106, 39.37007874015748854 ) ;
#301 = AXIS2_PLACEMENT_3D ( 'NONE', #311, #22, #229 ) ;
#302 = DIRECTION ( 'NONE',  ( -1.224646799147353700E-16, -0.0000000000000000000, -1.000000000000000000 ) ) ;
#303 = CARTESIAN_POINT ( 'NONE',  ( 0.0000000000000000000, 0.0000000000000000000, 1.500000000000000222 ) ) ;
#304 = LINE ( 'NONE', #138, #197 ) ;
#305 = CIRCLE ( 'NONE', #49, 0.06243749999999999994 ) ;
#306 = FILL_AREA_STYLE ('',( #178 ) ) ;
#307 = DIRECTION ( 'NONE',  ( -1.224646799147353700E-16, -0.0000000000000000000, -1.000000000000000000 ) ) ;
#308 =( NAMED_UNIT ( * ) SI_UNIT ( $, .STERADIAN. ) SOLID_ANGLE_UNIT ( ) );
#309 = CARTESIAN_POINT ( 'NONE',  ( 7.646388452176290456E-18, 0.0000000000000000000, 0.06243749999999999994 ) ) ;
#310 = PLANE ( 'NONE',  #89 ) ;
#311 = CARTESIAN_POINT ( 'NONE',  ( 0.0000000000000000000, 0.0000000000000000000, 0.0000000000000000000 ) ) ;
#312 = DIRECTION ( 'NONE',  ( 0.1736481776669312471, 0.0000000000000000000, 0.9848077530122077983 ) ) ;
#313 = ORIENTED_EDGE ( 'NONE', *, *, #275, .F. ) ;
#314 = CYLINDRICAL_SURFACE ( 'NONE', #157, 0.06250000000000002776 ) ;
#315 = AXIS2_PLACEMENT_3D ( 'NONE', #104, #78, #185 ) ;
#316 = ORIENTED_EDGE ( 'NONE', *, *, #177, .T. ) ;
#317 = EDGE_CURVE ( 'NONE', #320, #200, #7, .T. ) ;
#318 = EDGE_LOOP ( 'NONE', ( #289, #47, #119, #168 ) ) ;
#319 = DIRECTION ( 'NONE',  ( -1.000000000000000000, 0.0000000000000000000, 0.0000000000000000000 ) ) ;
#320 = VERTEX_POINT ( 'NONE', #52 ) ;
#321 = EDGE_LOOP ( 'NONE', ( #204, #149, #166 ) ) ;
#322 = CARTESIAN_POINT ( 'NONE',  ( -0.06243749999999994443, 7.650215473423623230E-18, 0.5000000000000000000 ) ) ;
#323 = FACE_OUTER_BOUND ( 'NONE', #72, .T. ) ;
#324 = CIRCLE ( 'NONE', #295, 0.06250000000000002776 ) ;
#325 = UNCERTAINTY_MEASURE_WITH_UNIT (LENGTH_MEASURE( 1.000000000000000082E-05 ), #110, 'distance_accuracy_value', 'NONE');
ENDSEC;
END-ISO-10303-21;
